  0
SECTION
  2
HEADER
  9
$ACADVER
  1
AC1024
  9
$ACADMAINTVER
 70
     6
  9
$DWGCODEPAGE
  3
ANSI_1252
  9
$LASTSAVEDBY
  1
BirnerR
  9
$INSBASE
 10
0.0
 20
0.0
 30
0.0
  9
$EXTMIN
 10
11.88383
 20
0.858486
 30
11.88383
  9
$EXTMAX
 10
12.93383
 20
2.343471
 30
12.93383
  9
$LIMMIN
 10
11.88383
 20
0.858486
  9
$LIMMAX
 10
12.93383
 20
2.343471
  9
$ORTHOMODE
 70
     0
  9
$REGENMODE
 70
     1
  9
$FILLMODE
 70
     1
  9
$QTEXTMODE
 70
     0
  9
$MIRRTEXT
 70
     1
  9
$LTSCALE
 40
1.0
  9
$ATTMODE
 70
     1
  9
$TEXTSIZE
 40
0.2
  9
$TRACEWID
 40
0.05
  9
$TEXTSTYLE
  7
Standard
  9
$CLAYER
  8
0
  9
$CELTYPE
  6
ByLayer
  9
$CECOLOR
 62
   256
  9
$CELTSCALE
 40
1.0
  9
$DISPSILH
 70
     0
  9
$DIMSCALE
 40
1.0
  9
$DIMASZ
 40
0.18
  9
$DIMEXO
 40
0.0625
  9
$DIMDLI
 40
0.38
  9
$DIMRND
 40
0.0
  9
$DIMDLE
 40
0.0
  9
$DIMEXE
 40
0.18
  9
$DIMTP
 40
0.0
  9
$DIMTM
 40
0.0
  9
$DIMTXT
 40
0.18
  9
$DIMCEN
 40
0.09
  9
$DIMTSZ
 40
0.0
  9
$DIMTOL
 70
     0
  9
$DIMLIM
 70
     0
  9
$DIMTIH
 70
     1
  9
$DIMTOH
 70
     1
  9
$DIMSE1
 70
     0
  9
$DIMSE2
 70
     0
  9
$DIMTAD
 70
     0
  9
$DIMZIN
 70
     0
  9
$DIMBLK
  1

  9
$DIMASO
 70
     1
  9
$DIMSHO
 70
     1
  9
$DIMPOST
  1

  9
$DIMAPOST
  1

  9
$DIMALT
 70
     0
  9
$DIMALTD
 70
     2
  9
$DIMALTF
 40
25.4
  9
$DIMLFAC
 40
1.0
  9
$DIMTOFL
 70
     0
  9
$DIMTVP
 40
0.0
  9
$DIMTIX
 70
     0
  9
$DIMSOXD
 70
     0
  9
$DIMSAH
 70
     0
  9
$DIMBLK1
  1

  9
$DIMBLK2
  1

  9
$DIMSTYLE
  2
Standard
  9
$DIMCLRD
 70
     0
  9
$DIMCLRE
 70
     0
  9
$DIMCLRT
 70
     0
  9
$DIMTFAC
 40
1.0
  9
$DIMGAP
 40
0.09
  9
$DIMJUST
 70
     0
  9
$DIMSD1
 70
     0
  9
$DIMSD2
 70
     0
  9
$DIMTOLJ
 70
     1
  9
$DIMTZIN
 70
     0
  9
$DIMALTZ
 70
     0
  9
$DIMALTTZ
 70
     0
  9
$DIMUPT
 70
     0
  9
$DIMDEC
 70
     4
  9
$DIMTDEC
 70
     4
  9
$DIMALTU
 70
     2
  9
$DIMALTTD
 70
     2
  9
$DIMTXSTY
  7
Standard
  9
$DIMAUNIT
 70
     0
  9
$DIMADEC
 70
     0
  9
$DIMALTRND
 40
0.0
  9
$DIMAZIN
 70
     0
  9
$DIMDSEP
 70
    46
  9
$DIMATFIT
 70
     3
  9
$DIMFRAC
 70
     0
  9
$DIMLDRBLK
  1

  9
$DIMLUNIT
 70
     2
  9
$DIMLWD
 70
    -2
  9
$DIMLWE
 70
    -2
  9
$DIMTMOVE
 70
     0
  9
$DIMFXL
 40
1.0
  9
$DIMFXLON
 70
     0
  9
$DIMJOGANG
 40
0.785398
  9
$DIMTFILL
 70
     0
  9
$DIMTFILLCLR
 70
     0
  9
$DIMARCSYM
 70
     0
  9
$DIMLTYPE
  6

  9
$DIMLTEX1
  6

  9
$DIMLTEX2
  6

  9
$DIMTXTDIRECTION
 70
     0
  9
$LUNITS
 70
     2
  9
$LUPREC
 70
     4
  9
$SKETCHINC
 40
0.1
  9
$FILLETRAD
 40
0.5
  9
$AUNITS
 70
     0
  9
$AUPREC
 70
     0
  9
$MENU
  1
.
  9
$ELEVATION
 40
0.0
  9
$PELEVATION
 40
0.0
  9
$THICKNESS
 40
0.0
  9
$LIMCHECK
 70
     0
  9
$CHAMFERA
 40
0.0
  9
$CHAMFERB
 40
0.0
  9
$CHAMFERC
 40
0.0
  9
$CHAMFERD
 40
0.0
  9
$SKPOLY
 70
     0
  9
$TDCREATE
 40
2459143.594673333
  9
$TDUCREATE
 40
2459143.51134
  9
$TDUPDATE
 40
2459143.594683785
  9
$TDUUPDATE
 40
2459143.511350452
  9
$TDINDWG
 40
0.0000000116
  9
$TDUSRTIMER
 40
0.0000000116
  9
$USRTIMER
 70
     1
  9
$ANGBASE
 50
0.0
  9
$ANGDIR
 70
     0
  9
$PDMODE
 70
    65
  9
$PDSIZE
 40
0.0
  9
$PLINEWID
 40
0.0
  9
$SPLFRAME
 70
     0
  9
$SPLINETYPE
 70
     6
  9
$SPLINESEGS
 70
     8
  9
$HANDSEED
  5
346
  9
$SURFTAB1
 70
     6
  9
$SURFTAB2
 70
     6
  9
$SURFTYPE
 70
     6
  9
$SURFU
 70
     6
  9
$SURFV
 70
     6
  9
$UCSBASE
  2

  9
$UCSNAME
  2

  9
$UCSORG
 10
0.0
 20
0.0
 30
0.0
  9
$UCSXDIR
 10
1.0
 20
0.0
 30
0.0
  9
$UCSYDIR
 10
0.0
 20
1.0
 30
0.0
  9
$UCSORTHOREF
  2

  9
$UCSORTHOVIEW
 70
     0
  9
$UCSORGTOP
 10
0.0
 20
0.0
 30
0.0
  9
$UCSORGBOTTOM
 10
0.0
 20
0.0
 30
0.0
  9
$UCSORGLEFT
 10
0.0
 20
0.0
 30
0.0
  9
$UCSORGRIGHT
 10
0.0
 20
0.0
 30
0.0
  9
$UCSORGFRONT
 10
0.0
 20
0.0
 30
0.0
  9
$UCSORGBACK
 10
0.0
 20
0.0
 30
0.0
  9
$PUCSBASE
  2

  9
$PUCSNAME
  2

  9
$PUCSORG
 10
0.0
 20
0.0
 30
0.0
  9
$PUCSXDIR
 10
1.0
 20
0.0
 30
0.0
  9
$PUCSYDIR
 10
0.0
 20
1.0
 30
0.0
  9
$PUCSORTHOREF
  2

  9
$PUCSORTHOVIEW
 70
     0
  9
$PUCSORGTOP
 10
0.0
 20
0.0
 30
0.0
  9
$PUCSORGBOTTOM
 10
0.0
 20
0.0
 30
0.0
  9
$PUCSORGLEFT
 10
0.0
 20
0.0
 30
0.0
  9
$PUCSORGRIGHT
 10
0.0
 20
0.0
 30
0.0
  9
$PUCSORGFRONT
 10
0.0
 20
0.0
 30
0.0
  9
$PUCSORGBACK
 10
0.0
 20
0.0
 30
0.0
  9
$USERI1
 70
     0
  9
$USERI2
 70
     0
  9
$USERI3
 70
     0
  9
$USERI4
 70
     0
  9
$USERI5
 70
     0
  9
$USERR1
 40
0.0
  9
$USERR2
 40
0.0
  9
$USERR3
 40
0.0
  9
$USERR4
 40
0.0
  9
$USERR5
 40
0.0
  9
$WORLDVIEW
 70
     1
  9
$SHADEDGE
 70
     3
  9
$SHADEDIF
 70
    70
  9
$TILEMODE
 70
     0
  9
$MAXACTVP
 70
    64
  9
$PINSBASE
 10
0.0
 20
0.0
 30
0.0
  9
$PLIMCHECK
 70
     0
  9
$PEXTMIN
 10
-0.0001
 20
-0.0001
 30
0.0
  9
$PEXTMAX
 10
0.2101
 20
0.297097
 30
0.0
  9
$PLIMMIN
 10
-0.0001
 20
-0.0001
  9
$PLIMMAX
 10
0.2101
 20
0.297097
  9
$UNITMODE
 70
     0
  9
$VISRETAIN
 70
     1
  9
$PLINEGEN
 70
     0
  9
$PSLTSCALE
 70
     0
  9
$TREEDEPTH
 70
  3020
  9
$CMLSTYLE
  2
Standard
  9
$CMLJUST
 70
     0
  9
$CMLSCALE
 40
1.0
  9
$PROXYGRAPHICS
 70
     1
  9
$MEASUREMENT
 70
     1
  9
$CELWEIGHT
370
    -1
  9
$ENDCAPS
280
     0
  9
$JOINSTYLE
280
     0
  9
$LWDISPLAY
290
     0
  9
$INSUNITS
 70
     6
  9
$HYPERLINKBASE
  1

  9
$STYLESHEET
  1

  9
$XEDIT
290
     1
  9
$CEPSNTYPE
380
     0
  9
$PSTYLEMODE
290
     1
  9
$FINGERPRINTGUID
  2
{14a6c117-37c1-4e2d-8f6c-01d3a41909e8}
  9
$VERSIONGUID
  2
{FAEB1C32-E019-11D5-929B-00C0DF256EC4}
  9
$EXTNAMES
290
     1
  9
$PSVPSCALE
 40
0.0
  9
$OLESTARTUP
290
     0
  9
$SORTENTS
280
   127
  9
$INDEXCTL
280
     0
  9
$HIDETEXT
280
     1
  9
$XCLIPFRAME
280
     2
  9
$HALOGAP
280
     0
  9
$OBSCOLOR
 70
   257
  9
$OBSLTYPE
280
     0
  9
$INTERSECTIONDISPLAY
280
     0
  9
$INTERSECTIONCOLOR
 70
   257
  9
$DIMASSOC
280
     2
  9
$PROJECTNAME
  1

  9
$CAMERADISPLAY
290
     0
  9
$LENSLENGTH
 40
50.0
  9
$CAMERAHEIGHT
 40
0.0
  9
$STEPSPERSEC
 40
2.0
  9
$STEPSIZE
 40
6.0
  9
$3DDWFPREC
 40
2.0
  9
$PSOLWIDTH
 40
0.25
  9
$PSOLHEIGHT
 40
4.0
  9
$LOFTANG1
 40
1.570796
  9
$LOFTANG2
 40
1.570796
  9
$LOFTMAG1
 40
0.0
  9
$LOFTMAG2
 40
0.0
  9
$LOFTPARAM
 70
     7
  9
$LOFTNORMALS
280
     1
  9
$LATITUDE
 40
37.795
  9
$LONGITUDE
 40
-122.394
  9
$NORTHDIRECTION
 40
0.0
  9
$TIMEZONE
 70
 -8000
  9
$LIGHTGLYPHDISPLAY
280
     1
  9
$TILEMODELIGHTSYNCH
280
     1
  9
$CMATERIAL
347
44
  9
$SOLIDHIST
280
     0
  9
$SHOWHIST
280
     1
  9
$DWFFRAME
280
     2
  9
$DGNFRAME
280
     2
  9
$REALWORLDSCALE
290
     1
  9
$INTERFERECOLOR
 62
   256
  9
$CSHADOW
280
     0
  9
$SHADOWPLANELOCATION
 40
0.0
  0
ENDSEC
  0
SECTION
  2
CLASSES
  0
CLASS
  1
ACDBDICTIONARYWDFLT
  2
AcDbDictionaryWithDefault
  3
ObjectDBX Classes
 90
        0
 91
        3
280
     0
281
     0
  0
CLASS
  1
VISUALSTYLE
  2
AcDbVisualStyle
  3
ObjectDBX Classes
 90
     4095
 91
        3
280
     0
281
     0
  0
CLASS
  1
MATERIAL
  2
AcDbMaterial
  3
ObjectDBX Classes
 90
     1153
 91
        3
280
     0
281
     0
  0
CLASS
  1
SCALE
  2
AcDbScale
  3
ObjectDBX Classes
 90
     1153
 91
        3
280
     0
281
     0
  0
CLASS
  1
TABLESTYLE
  2
AcDbTableStyle
  3
ObjectDBX Classes
 90
     4095
 91
        3
280
     0
281
     0
  0
CLASS
  1
MLEADERSTYLE
  2
AcDbMLeaderStyle
  3
ACDB_MLEADERSTYLE_CLASS
 90
     4095
 91
        3
280
     0
281
     0
  0
CLASS
  1
SUN
  2
AcDbSun
  3
SCENEOE
 90
     1153
 91
        3
280
     0
281
     0
  0
CLASS
  1
SORTENTSTABLE
  2
AcDbSortentsTable
  3
ObjectDBX Classes
 90
        0
 91
        3
280
     0
281
     0
  0
CLASS
  1
DICTIONARYVAR
  2
AcDbDictionaryVar
  3
ObjectDBX Classes
 90
        0
 91
        3
280
     0
281
     0
  0
CLASS
  1
CELLSTYLEMAP
  2
AcDbCellStyleMap
  3
ObjectDBX Classes
 90
     1152
 91
        3
280
     0
281
     0
  0
ENDSEC
  0
SECTION
  2
TABLES
  0
TABLE
  2
VPORT
  5
8
330
0
100
AcDbSymbolTable
 70
     1
  0
VPORT
  5
29
330
8
100
AcDbSymbolTableRecord
100
AcDbViewportTableRecord
  2
*Active
 70
     0
 10
0.0
 20
0.0
 11
1.0
 21
1.0
 12
12.40883
 22
1.600979
 13
0.0
 23
0.0
 14
0.5
 24
0.5
 15
0.5
 25
0.5
 16
0.0
 26
0.0
 36
1.0
 17
0.0
 27
0.0
 37
0.0
 40
1.781982
 41
0.848493
 42
50.0
 43
0.0
 44
0.0
 50
0.0
 51
0.0
 71
     0
 72
   100
 73
     1
 74
     3
 75
     0
 76
     0
 77
     0
 78
     0
281
     0
 65
     1
110
0.0
120
0.0
130
0.0
111
1.0
121
0.0
131
0.0
112
0.0
122
1.0
132
0.0
 79
     0
146
0.0
348
2F
 60
     3
 61
     5
292
     1
282
     1
141
0.0
142
0.0
 63
   250
361
6D
  0
ENDTAB
  0
TABLE
  2
LTYPE
  5
5
330
0
100
AcDbSymbolTable
 70
     5
  0
LTYPE
  5
14
330
5
100
AcDbSymbolTableRecord
100
AcDbLinetypeTableRecord
  2
ByBlock
 70
     0
  3

 72
    65
 73
     0
 40
0.0
  0
LTYPE
  5
15
330
5
100
AcDbSymbolTableRecord
100
AcDbLinetypeTableRecord
  2
ByLayer
 70
     0
  3

 72
    65
 73
     0
 40
0.0
  0
LTYPE
  5
16
330
5
100
AcDbSymbolTableRecord
100
AcDbLinetypeTableRecord
  2
Continuous
 70
     0
  3
Solid line
 72
    65
 73
     0
 40
0.0
  0
LTYPE
  5
74
330
5
100
AcDbSymbolTableRecord
100
AcDbLinetypeTableRecord
  2
AUSGEZOGEN
 70
     0
  3
durchgezogene Linie
 72
    65
 73
     0
 40
0.0
  0
LTYPE
  5
7A
330
5
100
AcDbSymbolTableRecord
100
AcDbLinetypeTableRecord
  2
STRICHLINIE_S4
 70
     0
  3
Langgestrichelt
 72
    65
 73
     2
 40
0.04
 49
0.03
 74
     0
 49
-0.01
 74
     0
  0
LTYPE
  5
7B
330
5
100
AcDbSymbolTableRecord
100
AcDbLinetypeTableRecord
  2
STRICHPUNKT2_S5
 70
     0
  3
Lang eng gestrichelt bzw. punktiert
 72
    65
 73
     4
 40
0.05
 49
0.035
 74
     0
 49
-0.005
 74
     0
 49
0.005
 74
     0
 49
-0.005
 74
     0
  0
LTYPE
  5
7C
330
5
100
AcDbSymbolTableRecord
100
AcDbLinetypeTableRecord
  2
VERDECKT2_S2
 70
     0
  3
Kurzgestrichelt
 72
    65
 73
     2
 40
0.015
 49
0.01
 74
     0
 49
-0.005
 74
     0
  0
ENDTAB
  0
TABLE
  2
LAYER
  5
2
330
0
100
AcDbSymbolTable
 70
     4
  0
LAYER
  5
10
330
2
100
AcDbSymbolTableRecord
100
AcDbLayerTableRecord
  2
0
 70
     0
 62
     7
  6
Continuous
370
    -3
390
F
347
46
  0
LAYER
  5
76
330
2
100
AcDbSymbolTableRecord
100
AcDbLayerTableRecord
  2
PLAN_314
 70
     0
 62
     7
  6
AUSGEZOGEN
370
    18
390
F
347
46
1001
AcCmTransparency
1071
 33554687
1001
AcAecLayerStandard
1000

1000
Dokument-Layer
  0
LAYER
  5
78
330
2
100
AcDbSymbolTableRecord
100
AcDbLayerTableRecord
  2
TB_314
 70
     0
 62
     7
  6
AUSGEZOGEN
370
    18
390
F
347
46
1001
AcCmTransparency
1071
 33554687
1001
AcAecLayerStandard
1000

1000
Dokument-Layer
  0
LAYER
  5
7D
330
2
100
AcDbSymbolTableRecord
100
AcDbLayerTableRecord
  2
XR$1$TB_314_1
 70
     0
 62
     7
  6
AUSGEZOGEN
370
    18
390
F
347
46
1001
AcCmTransparency
1071
 33554687
1001
AcAecLayerStandard
1000

1000
Dokument-Layer
  0
ENDTAB
  0
TABLE
  2
STYLE
  5
3
330
0
100
AcDbSymbolTable
 70
     2
  0
STYLE
  5
11
330
3
100
AcDbSymbolTableRecord
100
AcDbTextStyleTableRecord
  2
Standard
 70
     0
 40
0.0
 41
1.0
 50
0.0
 71
     0
 42
0.2
  3
txt
  4

  0
STYLE
  5
79
330
3
100
AcDbSymbolTableRecord
100
AcDbTextStyleTableRecord
  2
ARIAL
 70
     0
 40
0.0
 41
1.0
 50
0.0
 71
     0
 42
0.2
  3
ARIAL.TTF
  4

1001
ACAD
1000
Arial
1071
       34
  0
ENDTAB
  0
TABLE
  2
VIEW
  5
6
330
0
100
AcDbSymbolTable
 70
     0
  0
ENDTAB
  0
TABLE
  2
UCS
  5
7
330
0
100
AcDbSymbolTable
 70
     0
  0
ENDTAB
  0
TABLE
  2
APPID
  5
9
330
0
100
AcDbSymbolTable
 70
     4
  0
APPID
  5
12
330
9
100
AcDbSymbolTableRecord
100
AcDbRegAppTableRecord
  2
ACAD
 70
     0
  0
APPID
  5
75
330
9
100
AcDbSymbolTableRecord
100
AcDbRegAppTableRecord
  2
AcCmTransparency
 70
     0
  0
APPID
  5
77
330
9
100
AcDbSymbolTableRecord
100
AcDbRegAppTableRecord
  2
AcAecLayerStandard
 70
     0
  0
APPID
  5
7E
330
9
100
AcDbSymbolTableRecord
100
AcDbRegAppTableRecord
  2
NEM_ODX
 70
     0
  0
ENDTAB
  0
TABLE
  2
DIMSTYLE
  5
A
330
0
100
AcDbSymbolTable
 70
     1
100
AcDbDimStyleTable
  0
DIMSTYLE
105
27
330
A
100
AcDbSymbolTableRecord
100
AcDbDimStyleTableRecord
  2
Standard
 70
     0
178
     0
340
11
  0
ENDTAB
  0
TABLE
  2
BLOCK_RECORD
  5
1
330
0
100
AcDbSymbolTable
 70
     1
  0
BLOCK_RECORD
  5
1F
102
{ACAD_XDICTIONARY
360
309
102
}
330
1
100
AcDbSymbolTableRecord
100
AcDbBlockTableRecord
  2
*Model_Space
340
22
 70
     0
280
     1
281
     0
  0
BLOCK_RECORD
  5
6E
330
1
100
AcDbSymbolTableRecord
100
AcDbBlockTableRecord
  2
*Paper_Space
340
6F
 70
     0
280
     1
281
     0
  0
BLOCK_RECORD
  5
2C2
330
1
100
AcDbSymbolTableRecord
100
AcDbBlockTableRecord
  2
COMPLEXOBJECT_0
340
0
102
{BLKREFS
331
2DC
102
}
 70
     6
280
     1
281
     0
  0
ENDTAB
  0
ENDSEC
  0
SECTION
  2
BLOCKS
  0
BLOCK
  5
20
330
1F
100
AcDbEntity
  8
0
100
AcDbBlockBegin
  2
*Model_Space
 70
     0
 10
0.0
 20
0.0
 30
0.0
  3
*Model_Space
  1

  0
ENDBLK
  5
21
330
1F
100
AcDbEntity
  8
0
100
AcDbBlockEnd
  0
BLOCK
  5
70
330
6E
100
AcDbEntity
 67
     1
  8
0
100
AcDbBlockBegin
  2
*Paper_Space
 70
     0
 10
0.0
 20
0.0
 30
0.0
  3
*Paper_Space
  1

  0
ENDBLK
  5
71
330
6E
100
AcDbEntity
 67
     1
  8
0
100
AcDbBlockEnd
  0
BLOCK
  5
2C3
330
2C2
100
AcDbEntity
  8
0
100
AcDbBlockBegin
  2
COMPLEXOBJECT_0
 70
     0
 10
0.0
 20
0.0
 30
0.0
  3
COMPLEXOBJECT_0
  1

  0
LINE
  5
2C5
330
2C2
100
AcDbEntity
  8
XR$1$TB_314_1
  6
AUSGEZOGEN
 62
     7
440
 33554687
370
    25
100
AcDbLine
 10
12.115005
 20
1.424426
 30
0.0
 11
12.115005
 21
1.404426
 31
0.0
  0
LINE
  5
2C6
330
2C2
100
AcDbEntity
  8
XR$1$TB_314_1
  6
AUSGEZOGEN
 62
     7
440
 33554687
370
    25
100
AcDbLine
 10
12.107005
 20
1.404426
 30
0.0
 11
12.107005
 21
1.424426
 31
0.0
  0
ARC
  5
2C7
330
2C2
100
AcDbEntity
  8
XR$1$TB_314_1
  6
AUSGEZOGEN
 62
     7
440
 33554687
370
    18
100
AcDbCircle
 10
12.113128
 20
1.40508
 30
0.0
 40
0.0008
100
AcDbArc
 50
270.0
 51
0.658212
  0
LINE
  5
2C8
330
2C2
100
AcDbEntity
  8
XR$1$TB_314_1
  6
AUSGEZOGEN
 62
     7
440
 33554687
370
    18
100
AcDbLine
 10
12.113128
 20
1.40428
 30
0.0
 11
12.108865
 21
1.40428
 31
0.0
  0
ARC
  5
2C9
330
2C2
100
AcDbEntity
  8
XR$1$TB_314_1
  6
AUSGEZOGEN
 62
     7
440
 33554687
370
    18
100
AcDbCircle
 10
12.108865
 20
1.40508
 30
0.0
 40
0.0008
100
AcDbArc
 50
179.341788
 51
270.0
  0
LINE
  5
2CA
330
2C2
100
AcDbEntity
  8
XR$1$TB_314_1
  6
AUSGEZOGEN
 62
     7
440
 33554687
370
    18
100
AcDbLine
 10
12.108065
 20
1.40509
 30
0.0
 11
12.108303
 21
1.425761
 31
0.0
  0
ARC
  5
2CB
330
2C2
100
AcDbEntity
  8
XR$1$TB_314_1
  6
AUSGEZOGEN
 62
     7
440
 33554687
370
    18
100
AcDbCircle
 10
12.106703
 20
1.42578
 30
0.0
 40
0.0016
100
AcDbArc
 50
359.341788
 51
74.341788
  0
LINE
  5
2CC
330
2C2
100
AcDbEntity
  8
XR$1$TB_314_1
  6
AUSGEZOGEN
 62
     7
440
 33554687
370
    18
100
AcDbLine
 10
12.107135
 20
1.42732
 30
0.0
 11
12.102997
 21
1.42848
 31
0.0
  0
LINE
  5
2CD
330
2C2
100
AcDbEntity
  8
XR$1$TB_314_1
  6
AUSGEZOGEN
 62
     7
440
 33554687
370
    18
100
AcDbLine
 10
12.102997
 20
1.42848
 30
0.0
 11
12.102781
 21
1.42771
 31
0.0
  0
LINE
  5
2CE
330
2C2
100
AcDbEntity
  8
XR$1$TB_314_1
  6
AUSGEZOGEN
 62
     7
440
 33554687
370
    18
100
AcDbLine
 10
12.102781
 20
1.42771
 30
0.0
 11
12.106919
 21
1.42655
 31
0.0
  0
ARC
  5
2CF
330
2C2
100
AcDbEntity
  8
XR$1$TB_314_1
  6
AUSGEZOGEN
 62
     7
440
 33554687
370
    18
100
AcDbCircle
 10
12.106703
 20
1.42578
 30
0.0
 40
0.0008
100
AcDbArc
 50
359.341788
 51
74.341788
  0
LINE
  5
2D0
330
2C2
100
AcDbEntity
  8
XR$1$TB_314_1
  6
AUSGEZOGEN
 62
     7
440
 33554687
370
    18
100
AcDbLine
 10
12.107503
 20
1.425771
 30
0.0
 11
12.107265
 21
1.405099
 31
0.0
  0
ARC
  5
2D1
330
2C2
100
AcDbEntity
  8
XR$1$TB_314_1
  6
AUSGEZOGEN
 62
     7
440
 33554687
370
    18
100
AcDbCircle
 10
12.108865
 20
1.40508
 30
0.0
 40
0.0016
100
AcDbArc
 50
179.341788
 51
270.0
  0
LINE
  5
2D2
330
2C2
100
AcDbEntity
  8
XR$1$TB_314_1
  6
AUSGEZOGEN
 62
     7
440
 33554687
370
    18
100
AcDbLine
 10
12.108865
 20
1.40348
 30
0.0
 11
12.113128
 21
1.40348
 31
0.0
  0
ARC
  5
2D3
330
2C2
100
AcDbEntity
  8
XR$1$TB_314_1
  6
AUSGEZOGEN
 62
     7
440
 33554687
370
    18
100
AcDbCircle
 10
12.113128
 20
1.40508
 30
0.0
 40
0.0016
100
AcDbArc
 50
270.0
 51
0.658212
  0
LINE
  5
2D4
330
2C2
100
AcDbEntity
  8
XR$1$TB_314_1
  6
AUSGEZOGEN
 62
     7
440
 33554687
370
    18
100
AcDbLine
 10
12.114728
 20
1.405099
 30
0.0
 11
12.114491
 21
1.425771
 31
0.0
  0
ARC
  5
2D5
330
2C2
100
AcDbEntity
  8
XR$1$TB_314_1
  6
AUSGEZOGEN
 62
     7
440
 33554687
370
    18
100
AcDbCircle
 10
12.115291
 20
1.42578
 30
0.0
 40
0.0008
100
AcDbArc
 50
105.658212
 51
180.658212
  0
LINE
  5
2D6
330
2C2
100
AcDbEntity
  8
XR$1$TB_314_1
  6
AUSGEZOGEN
 62
     7
440
 33554687
370
    18
100
AcDbLine
 10
12.115075
 20
1.42655
 30
0.0
 11
12.119213
 21
1.42771
 31
0.0
  0
LINE
  5
2D7
330
2C2
100
AcDbEntity
  8
XR$1$TB_314_1
  6
AUSGEZOGEN
 62
     7
440
 33554687
370
    18
100
AcDbLine
 10
12.119213
 20
1.42771
 30
0.0
 11
12.118997
 21
1.42848
 31
0.0
  0
LINE
  5
2D8
330
2C2
100
AcDbEntity
  8
XR$1$TB_314_1
  6
AUSGEZOGEN
 62
     7
440
 33554687
370
    18
100
AcDbLine
 10
12.118997
 20
1.42848
 30
0.0
 11
12.114859
 21
1.42732
 31
0.0
  0
ARC
  5
2D9
330
2C2
100
AcDbEntity
  8
XR$1$TB_314_1
  6
AUSGEZOGEN
 62
     7
440
 33554687
370
    18
100
AcDbCircle
 10
12.115291
 20
1.42578
 30
0.0
 40
0.0016
100
AcDbArc
 50
105.658212
 51
180.658212
  0
LINE
  5
2DA
330
2C2
100
AcDbEntity
  8
XR$1$TB_314_1
  6
AUSGEZOGEN
 62
     7
440
 33554687
370
    18
100
AcDbLine
 10
12.113691
 20
1.425761
 30
0.0
 11
12.113928
 21
1.40509
 31
0.0
  0
ARC
  5
2DB
330
2C2
100
AcDbEntity
  8
XR$1$TB_314_1
  6
AUSGEZOGEN
 62
     7
440
 33554687
370
    18
100
AcDbCircle
 10
12.102768
 20
1.426883
 30
0.0
 40
0.0008
100
AcDbArc
 50
74.341788
 51
89.341788
  0
ENDBLK
  5
2C4
330
2C2
100
AcDbEntity
  8
0
100
AcDbBlockEnd
  0
ENDSEC
  0
SECTION
  2
ENTITIES
  0
HATCH
  5
7F
330
1F
100
AcDbEntity
  8
XR$1$TB_314_1
  6
AUSGEZOGEN
 62
     7
440
 33554687
370
    18
100
AcDbHatch
 10
0.0
 20
0.0
 30
0.0
210
0.0
220
0.0
230
1.0
  2
SCHRAFFUR_2
 70
     0
 71
     0
 91
        1
 92
        0
 93
        4
 72
     1
 10
12.57430607199328
 20
1.665130295224533
 11
11.97631024718136
 21
1.665130295224533
 72
     1
 10
11.97631024718136
 20
1.665130295224533
 11
11.97631024718136
 21
1.655130295224533
 72
     1
 10
11.97631024718136
 20
1.655130295224533
 11
12.57430607199328
 21
1.655130295224533
 72
     1
 10
12.57430607199328
 20
1.655130295224533
 11
12.57430607199328
 21
1.665130295224533
 97
        0
 75
     0
 76
     2
 52
45.0
 41
0.005
 77
     0
 78
     2
 53
135.0
 43
0.0
 44
0.0
 45
-0.0176776695296637
 46
-0.0176776695296637
 79
     0
 53
135.0
 43
-0.0088388347648318
 44
-0.0088388347648318
 45
-0.0176776695296637
 46
-0.0176776695296637
 79
     0
 98
        0
1001
ACAD
1010
0.0
1020
0.0
1030
0.0
1001
NEM_ODX
1002
{
1000
BZM_DEPEND
1070
     1
1000
BZM_SCALE
1040
5.0
1000
SCHRAFFUR_2
1002
}
  0
HATCH
  5
80
330
1F
100
AcDbEntity
  8
XR$1$TB_314_1
  6
AUSGEZOGEN
 62
     7
440
 33554687
370
    18
100
AcDbHatch
 10
0.0
 20
0.0
 30
0.0
210
0.0
220
0.0
230
1.0
  2
SCHRAFFUR_2
 70
     0
 71
     0
 91
        1
 92
        0
 93
        4
 72
     1
 10
12.57430607199328
 20
1.655130295224533
 11
11.97631024718136
 21
1.655130295224533
 72
     1
 10
11.97631024718136
 20
1.655130295224533
 11
11.97631024718136
 21
1.645130295224533
 72
     1
 10
11.97631024718136
 20
1.645130295224533
 11
12.57430607199328
 21
1.645130295224533
 72
     1
 10
12.57430607199328
 20
1.645130295224533
 11
12.57430607199328
 21
1.655130295224533
 97
        0
 75
     0
 76
     2
 52
315.0
 41
0.005
 77
     0
 78
     2
 53
44.99999999999999
 43
0.0
 44
0.0
 45
-0.0176776695296637
 46
0.0176776695296637
 79
     0
 53
44.99999999999999
 43
-0.0088388347648318
 44
0.0088388347648318
 45
-0.0176776695296637
 46
0.0176776695296637
 79
     0
 98
        0
1001
ACAD
1010
11565.735702
1020
1655.130295
1030
0.0
1001
NEM_ODX
1002
{
1000
BZM_DEPEND
1070
     1
1000
BZM_SCALE
1040
5.0
1000
SCHRAFFUR_2
1002
}
  0
HATCH
  5
81
330
1F
100
AcDbEntity
  8
XR$1$TB_314_1
  6
AUSGEZOGEN
 62
     7
440
 33554687
370
    18
100
AcDbHatch
 10
0.0
 20
0.0
 30
0.0
210
0.0
220
0.0
230
1.0
  2
SCHRAFFUR_2
 70
     0
 71
     0
 91
        1
 92
        0
 93
        4
 72
     1
 10
12.57130607199328
 20
1.485130295224533
 11
11.97631024718136
 21
1.485130295224533
 72
     1
 10
11.97631024718136
 20
1.485130295224533
 11
11.97631024718136
 21
1.475130295224533
 72
     1
 10
11.97631024718136
 20
1.475130295224533
 11
12.57130607199328
 21
1.475130295224533
 72
     1
 10
12.57130607199328
 20
1.475130295224533
 11
12.57130607199328
 21
1.485130295224533
 97
        0
 75
     0
 76
     2
 52
315.0
 41
0.005
 77
     0
 78
     2
 53
44.99999999999999
 43
0.0
 44
0.0
 45
-0.0176776695296637
 46
0.0176776695296637
 79
     0
 53
44.99999999999999
 43
-0.0088388347648318
 44
0.0088388347648318
 45
-0.0176776695296637
 46
0.0176776695296637
 79
     0
 98
        0
1001
ACAD
1010
0.0
1020
0.0
1030
0.0
1001
NEM_ODX
1002
{
1000
BZM_DEPEND
1070
     1
1000
BZM_SCALE
1040
5.0
1000
SCHRAFFUR_2
1002
}
  0
HATCH
  5
82
330
1F
100
AcDbEntity
  8
XR$1$TB_314_1
  6
AUSGEZOGEN
 62
    18
420
        0
440
 33554687
370
    35
100
AcDbHatch
 10
0.0
 20
0.0
 30
0.0
210
0.0
220
0.0
230
1.0
  2
SOLID
 70
     1
 71
     0
 91
       18
 92
        3
 72
     0
 73
     1
 93
       27
 10
12.00308625678456
 20
0.9964877867983992
 10
12.0070800002455
 20
0.9964877867983992
 10
12.00765712663605
 20
0.9965151831792118
 10
12.00818811175366
 20
0.9965977328003456
 10
12.00868304900178
 20
0.996726063215735
 10
12.00913184497694
 20
0.9969091863927534
 10
12.00954387212522
 20
0.9971290783966524
 10
12.00991011847925
 20
0.9974037631621736
 10
12.01054239811013
 20
0.9980540667277901
 10
12.01078968649485
 20
0.9984296855278917
 10
12.01100957849873
 20
0.9988417126761752
 10
12.01134842847195
 20
0.9997396651052013
 10
12.01154056361634
 20
1.000737830611421
 10
12.01160472882403
 20
1.001809533771392
 10
12.01154056361634
 20
1.00295477458513
 10
12.01134842847195
 20
1.003989708918223
 10
12.01119270167576
 20
1.004456889306827
 10
12.01100957849873
 20
1.00489631283593
 10
12.01078968649485
 20
1.005299688495536
 10
12.01054239811013
 20
1.005665934849564
 10
12.00991011847925
 20
1.006288842034373
 10
12.00954387212522
 20
1.006536130419082
 10
12.00913184497694
 20
1.006746649976904
 10
12.00868304900178
 20
1.006911749219183
 10
12.00818811175366
 20
1.007030707188505
 10
12.0070800002455
 20
1.007131641223082
 10
12.00308625678456
 20
1.007131641223082
 97
        0
 92
        3
 72
     0
 73
     1
 93
       12
 10
12.01479244192315
 20
0.9964877867983992
 10
12.02251425604686
 20
0.9964877867983992
 10
12.02251425604686
 20
0.9978161507891523
 10
12.01639549067942
 20
0.9978161507891523
 10
12.01639549067942
 20
1.001278548653786
 10
12.02144255288689
 20
1.001278548653786
 10
12.02144255288689
 20
1.002606552165844
 10
12.01639549067942
 20
1.002606552165844
 10
12.01639549067942
 20
1.005803277232323
 10
12.02224858324871
 20
1.005803277232323
 10
12.02224858324871
 20
1.007131641223082
 10
12.01479244192315
 20
1.007131641223082
 97
        0
 92
        3
 72
     0
 73
     1
 93
       38
 10
12.03208604683287
 20
1.007131641223082
 10
12.03208604683287
 20
1.000215857461181
 10
12.03204927800599
 20
0.9995655538955652
 10
12.03193969248275
 20
0.9990158238858212
 10
12.0317378244136
 20
0.9985486434972136
 10
12.03145412768069
 20
0.9981823971431768
 10
12.03108752084797
 20
0.9979077123776556
 10
12.03062971290543
 20
0.9977062047872032
 10
12.03007998289569
 20
0.9975868863391829
 10
12.02942967933007
 20
0.9975504779910007
 10
12.02877937576445
 20
0.9975868863391829
 10
12.02822964575471
 20
0.9977062047872032
 10
12.02777183781216
 20
0.9979077123776556
 10
12.02739621901207
 20
0.9981823971431768
 10
12.02712153424654
 20
0.9985486434972136
 10
12.02692002665609
 20
0.9990158238858212
 10
12.02681008065414
 20
0.9995655538955652
 10
12.02676429985988
 20
1.000215857461181
 10
12.02676429985988
 20
1.007131641223082
 10
12.02543593586914
 20
1.007131641223082
 10
12.02543593586914
 20
0.9999501846630355
 10
12.0255094735229
 20
0.9990983735069576
 10
12.02571999308073
 20
0.9983565083528287
 10
12.0260682155
 20
0.9977152167545787
 10
12.02653539588861
 20
0.9971838711582718
 10
12.02711216180047
 20
0.9967718440099916
 10
12.02779923419298
 20
0.9964694023849621
 10
12.02856885620662
 20
0.9962862792079437
 10
12.02942967933007
 20
0.9962221140002475
 10
12.03029086293222
 20
0.9962862792079437
 10
12.03106012446715
 20
0.9964694023849621
 10
12.03174719685966
 20
0.9967718440099916
 10
12.03232432325021
 20
0.9971838711582718
 10
12.03279150363882
 20
0.9977152167545787
 10
12.03313035361204
 20
0.9983565083528287
 10
12.03335024561593
 20
0.9990983735069576
 10
12.033423422791
 20
0.9999501846630355
 10
12.033423422791
 20
1.007131641223082
 97
        0
 92
        3
 72
     0
 73
     1
 93
        8
 10
12.03607979029381
 20
1.007131641223082
 10
12.03607979029381
 20
1.005803277232323
 10
12.03927651536029
 20
1.005803277232323
 10
12.03927651536029
 20
0.9964877867983992
 10
12.04060451887235
 20
0.9964877867983992
 10
12.04060451887235
 20
1.005803277232323
 10
12.04379223197146
 20
1.005803277232323
 10
12.04379223197146
 20
1.007131641223082
 97
        0
 92
        3
 72
     0
 73
     1
 93
       96
 10
12.04679682189355
 20
1.003568309323875
 10
12.04700734145137
 20
1.003046336173636
 10
12.04733717945722
 20
1.002633948546654
 10
12.04775857905158
 20
1.002295098573439
 10
12.04826216778837
 20
1.002029425775294
 10
12.04883028221156
 20
1.001827918184832
 10
12.05004833972167
 20
1.001507452625055
 10
12.05126675771047
 20
1.001232407380844
 10
12.05183451165495
 20
1.001077041063328
 10
12.05233846087045
 20
1.000875533472872
 10
12.0527594999861
 20
1.000627884609471
 10
12.05308933799195
 20
1.000307419049694
 10
12.05330021802847
 20
0.9999134158361495
 10
12.05337339520354
 20
0.9994188390667291
 10
12.05331824196321
 20
0.9989516586781246
 10
12.05314449123227
 20
0.9985670279106539
 10
12.05287881843411
 20
0.9982371899048085
 10
12.0525399684609
 20
0.9979808895527277
 10
12.05213695327999
 20
0.9977883939296417
 10
12.05168779682613
 20
0.9976604239929466
 10
12.05121160447015
 20
0.9975778743718166
 10
12.05071702770073
 20
0.9975504779910007
 10
12.05004833972167
 20
0.9975868863391829
 10
12.04946220136374
 20
0.9977062047872032
 10
12.04895825214825
 20
0.9979077123776556
 10
12.04851882861915
 20
0.9981823971431768
 10
12.04816159423249
 20
0.9985486434972136
 10
12.04786816457484
 20
0.9990158238858212
 10
12.04765764501701
 20
0.9995655538955652
 10
12.04752030263424
 20
1.000215857461181
 10
12.04619193864349
 20
0.9999501846630355
 10
12.04628386071069
 20
0.9990251963318856
 10
12.04640281868002
 20
0.9986128087049101
 10
12.04655854547622
 20
0.998246562350876
 10
12.04676005306668
 20
0.9979077123776556
 10
12.04698895703794
 20
0.9975962587852537
 10
12.04755707146113
 20
0.997083297602393
 10
12.0482253989615
 20
0.9966986668349255
 10
12.04899502097514
 20
0.9964329940367734
 10
12.04982844771777
 20
0.9962772672405709
 10
12.05071702770073
 20
0.9962221140002475
 10
12.05149566168174
 20
0.9962772672405709
 10
12.05223752683587
 20
0.9964236215907059
 10
12.05291522678231
 20
0.9966892943888516
 10
12.0535107375863
 20
0.9970559012215804
 10
12.05400531435572
 20
0.9975320935775603
 10
12.05438093315582
 20
0.9981276043815542
 10
12.05451827553859
 20
0.9984754663221475
 10
12.05461920957315
 20
0.9988417126761752
 10
12.0547013987156
 20
0.9996845118648839
 10
12.05462822154053
 20
1.000408353084264
 10
12.0544177019827
 20
1.001003503409566
 10
12.05408786397686
 20
1.001480056244248
 10
12.05366646438249
 20
1.001855314565648
 10
12.05316251516702
 20
1.002148383744612
 10
12.0526037731899
 20
1.002377648194567
 10
12.05137670371241
 20
1.002707486200421
 10
12.05015828572361
 20
1.002972798519875
 10
12.0495995437465
 20
1.003128525316074
 10
12.04909559453102
 20
1.003312008971788
 10
12.04866518296929
 20
1.003549924910431
 10
12.04833534496345
 20
1.003852366535461
 10
12.04812482540561
 20
1.004246009270304
 10
12.04805164823055
 20
1.00474094651842
 10
12.04811581343824
 20
1.005098180905077
 10
12.04828055220181
 20
1.005391250084043
 10
12.04852784058652
 20
1.005629166022683
 10
12.0488483061463
 20
1.005803277232323
 10
12.0492239249464
 20
1.005922235201651
 10
12.04962694012731
 20
1.006004784822784
 10
12.05045135490258
 20
1.006068950030478
 10
12.05101946932576
 20
1.006041553649665
 10
12.05153207002993
 20
1.005959004028531
 10
12.05199023845116
 20
1.005812289199705
 10
12.05237486921862
 20
1.005601769641868
 10
12.05268632281103
 20
1.005308700462906
 10
12.05291522678231
 20
1.004942454108875
 10
12.05306194161113
 20
1.00448428568764
 10
12.05310772240539
 20
1.003934555677903
 10
12.0547013987156
 20
1.003934555677903
 10
12.05445411033088
 20
1.004777354866608
 10
12.05411526035767
 20
1.005491823639924
 10
12.05368484879594
 20
1.006087334443918
 10
12.05317188761308
 20
1.006563526799898
 10
12.05258574925515
 20
1.006930133632624
 10
12.05193544568953
 20
1.007195445952078
 10
12.05122097691622
 20
1.007342160780904
 10
12.05045135490258
 20
1.007396953542533
 10
12.04975527054271
 20
1.007351172748283
 10
12.04907757059627
 20
1.007195445952078
 10
12.04845466341146
 20
1.006948157567366
 10
12.04788654898827
 20
1.006600295626779
 10
12.0474103566323
 20
1.006151499651611
 10
12.04704411027826
 20
1.005601769641868
 10
12.04680583386093
 20
1.004951466076242
 10
12.04672328423979
 20
1.004200228476048
 97
        0
 92
        3
 72
     0
 73
     1
 93
       78
 10
12.05902498018238
 20
1.002679729340913
 10
12.05920810335939
 20
1.003485759702735
 10
12.05951955695179
 20
1.004209600922122
 10
12.05995934095959
 20
1.004832508106932
 10
12.06051808293671
 20
1.005354481257159
 10
12.06120479485051
 20
1.005739112024629
 10
12.06202019765841
 20
1.005977388441972
 10
12.06295455843562
 20
1.006068950030478
 10
12.0634581471724
 20
1.006032181203595
 10
12.06397110835527
 20
1.005913223234272
 10
12.06447505757076
 20
1.005730100057263
 10
12.06495124992673
 20
1.005464427259102
 10
12.06537264952109
 20
1.005134589253263
 10
12.06572087194038
 20
1.004722562104976
 10
12.06598618425983
 20
1.004236997302932
 10
12.06614191105604
 20
1.00366924335844
 10
12.06747928701416
 20
1.003934555677903
 10
12.067213614216
 20
1.004777354866608
 10
12.06684736786197
 20
1.005491823639924
 10
12.06637117550599
 20
1.006087334443918
 10
12.06581243352888
 20
1.006563526799898
 10
12.06518015389801
 20
1.006930133632624
 10
12.06448406953813
 20
1.007195445952078
 10
12.06373319241662
 20
1.007342160780904
 10
12.06295455843562
 20
1.007396953542533
 10
12.06232227880475
 20
1.007369557161726
 10
12.06172712847945
 20
1.007287368019284
 10
12.0611773984697
 20
1.007159037603898
 10
12.06066443728683
 20
1.00697591442688
 10
12.06018824493086
 20
1.006746649976904
 10
12.05974846092306
 20
1.006471965211386
 10
12.05935481818822
 20
1.006151499651611
 10
12.05899758380157
 20
1.005803277232323
 10
12.05867675776309
 20
1.005409274018784
 10
12.05840207299757
 20
1.004978862457064
 10
12.0581731690263
 20
1.004521054514521
 10
12.05798067340321
 20
1.004026477745103
 10
12.05771500060508
 20
1.002963786552496
 10
12.05763281146263
 20
1.001809533771392
 10
12.05771500060508
 20
1.000655641468979
 10
12.05798067340321
 20
0.999592950276372
 10
12.0581731690263
 20
0.9990983735069576
 10
12.05840207299757
 20
0.9986402050857259
 10
12.05867675776309
 20
0.9982097935239926
 10
12.05899758380157
 20
0.9978161507891523
 10
12.05935481818822
 20
0.9974679283698733
 10
12.05974846092306
 20
0.9971474628100833
 10
12.06018824493086
 20
0.9968724175658731
 10
12.06066443728683
 20
0.9966435135946017
 10
12.0611773984697
 20
0.9964603904175865
 10
12.06172712847945
 20
0.9963320600021999
 10
12.06232227880475
 20
0.9962495103810634
 10
12.06295455843562
 20
0.9962221140002475
 10
12.06375121635137
 20
0.996295651654008
 10
12.06452083836501
 20
0.9965151831792118
 10
12.06526270351914
 20
0.9968634055984944
 10
12.06594977591164
 20
0.9973489704005387
 10
12.06655429868301
 20
0.9979625051392873
 10
12.06706725986587
 20
0.9986953583260493
 10
12.06747027504678
 20
0.9995287850686814
 10
12.0677449598123
 20
1.000481530259333
 10
12.06614191105604
 20
1.000481530259333
 10
12.0659955567059
 20
0.9998218542476434
 10
12.06575728028856
 20
0.9992357158897166
 10
12.06543681472878
 20
0.9987321271529208
 10
12.06505218396132
 20
0.9983197395259485
 10
12.06459401554008
 20
0.997989901520094
 10
12.06409042680328
 20
0.9977519855814498
 10
12.06354069679355
 20
0.9976052707526324
 10
12.06295455843562
 20
0.9975504779910007
 10
12.06202019765841
 20
0.9976326671334419
 10
12.06120479485051
 20
0.997879955518154
 10
12.06051808293671
 20
0.9982649467643169
 10
12.05995934095959
 20
0.9987869199145498
 10
12.05951955695179
 20
0.9994098270993628
 10
12.05920810335939
 20
1.000133307840051
 10
12.05902498018238
 20
1.00093933820187
 10
12.05896081497468
 20
1.001809533771392
 97
        0
 92
        3
 72
     0
 73
     1
 93
       12
 10
12.07093267291142
 20
0.9964877867983992
 10
12.07226067642348
 20
0.9964877867983992
 10
12.07226067642348
 20
1.001278548653786
 10
12.07784809619462
 20
1.001278548653786
 10
12.07784809619462
 20
0.9964877867983992
 10
12.0794511449509
 20
0.9964877867983992
 10
12.0794511449509
 20
1.007131641223082
 10
12.07784809619462
 20
1.007131641223082
 10
12.07784809619462
 20
1.002606552165844
 10
12.07226067642348
 20
1.002606552165844
 10
12.07226067642348
 20
1.007131641223082
 10
12.07093267291142
 20
1.007131641223082
 97
        0
 92
        3
 72
     0
 73
     1
 93
       12
 10
12.08290453084816
 20
0.9964877867983992
 10
12.09036031169503
 20
0.9964877867983992
 10
12.09036031169503
 20
0.9978161507891523
 10
12.08424190680627
 20
0.9978161507891523
 10
12.08424190680627
 20
1.001278548653786
 10
12.0895542813332
 20
1.001278548653786
 10
12.0895542813332
 20
1.002606552165844
 10
12.08424190680627
 20
1.002606552165844
 10
12.08424190680627
 20
1.005803277232323
 10
12.09036031169503
 20
1.005803277232323
 10
12.09036031169503
 20
1.007131641223082
 10
12.08290453084816
 20
1.007131641223082
 97
        0
 92
        3
 72
     0
 73
     1
 93
       90
 10
12.00561429387199
 20
0.9889216994708823
 10
12.00531221272564
 20
0.9892151291285386
 10
12.00523867507188
 20
0.989379867892114
 10
12.00522065113713
 20
0.9895723635151967
 10
12.00526643193139
 20
0.9898470482807243
 10
12.00539440186809
 20
0.9900759522519925
 10
12.00557788552379
 20
0.9902590754290049
 10
12.00581580146244
 20
0.9904057902578407
 10
12.00633813509137
 20
0.990579901467474
 10
12.00681432744734
 20
0.9906346942291121
 10
12.00760197339573
 20
0.990543132640606
 10
12.0079866041632
 20
0.9904241746712719
 10
12.00834383854986
 20
0.9902684478750785
 10
12.0089851301481
 20
0.9898470482807243
 10
12.00947069495015
 20
0.9893066907170506
 10
12.01160472882403
 20
0.9906346942291121
 10
12.01109176764118
 20
0.9911108865850861
 10
12.01056078252357
 20
0.9915322861794402
 10
12.01001105251383
 20
0.991889520566092
 10
12.00944329856935
 20
0.9922009741585034
 10
12.00885679973272
 20
0.9924392505758393
 10
12.00827066137479
 20
0.9926223737528544
 10
12.0076751505708
 20
0.9927233077874343
 10
12.0070800002455
 20
0.9927597161356171
 10
12.00620980467599
 20
0.9927139353413577
 10
12.00540377431416
 20
0.9925582085451552
 10
12.00467993309477
 20
0.9923019081930743
 10
12.00405702590995
 20
0.9919353013603514
 10
12.00353505275973
 20
0.991450097036999
 10
12.00315042199226
 20
0.9908545862329988
 10
12.0030130796095
 20
0.9905157362597871
 10
12.00290313360755
 20
0.9901401174596886
 10
12.00282058398642
 20
0.9893066907170506
 10
12.00287573722674
 20
0.988729564326488
 10
12.00303146402294
 20
0.9882072306975688
 10
12.00327875240765
 20
0.9877404107876537
 10
12.00361760238086
 20
0.9873280231606778
 10
12.00403900197522
 20
0.9869801612200845
 10
12.00454259071201
 20
0.9867051159758681
 10
12.00512872906993
 20
0.9864945964180343
 10
12.00577002066818
 20
0.9863572540352747
 10
12.00790441502076
 20
0.9859174700274862
 10
12.00837159540937
 20
0.985807524025534
 10
12.00869206096914
 20
0.9856334128158942
 10
12.00888455659223
 20
0.9853954968772468
 10
12.00893934935385
 20
0.9850472744579647
 10
12.0088935685596
 20
0.9847632172463755
 10
12.00876523814422
 20
0.9845069168942914
 10
12.00856373055375
 20
0.984278012923026
 10
12.00830743020167
 20
0.9840855172999341
 10
12.00802337299008
 20
0.983929790503732
 10
12.0077029074303
 20
0.9838108325344188
 10
12.0070800002455
 20
0.9837192709459032
 10
12.00617303584909
 20
0.9838108325344188
 10
12.00577939311425
 20
0.983929790503732
 10
12.00541278628152
 20
0.9840855172999341
 10
12.00476248271591
 20
0.9845069168942914
 10
12.00414894797716
 20
0.9850472744579647
 10
12.00202356559196
 20
0.9839845832653636
 10
12.00261006442858
 20
0.9834352137343176
 10
12.00318719081913
 20
0.9829770453130859
 10
12.00374593279625
 20
0.9826107989590491
 10
12.0043226987081
 20
0.9823177297800813
 10
12.00489982509866
 20
0.9821068497435613
 10
12.00550434787003
 20
0.9819604953934296
 10
12.00613662750091
 20
0.9818779457722958
 10
12.00681432744734
 20
0.98185054939148
 10
12.00755619260148
 20
0.9818873182183606
 10
12.00834383854986
 20
0.9819878917742422
 10
12.00914986891168
 20
0.9821893993647008
 10
12.00991011847925
 20
0.9825192373705431
 10
12.01025834089854
 20
0.9827391293744417
 10
12.01057880645832
 20
0.9829954297265231
 10
12.01086286366991
 20
0.983297871351555
 10
12.01111952450069
 20
0.9836551057382071
 10
12.01132103209114
 20
0.9840487484730566
 10
12.01147675888734
 20
0.9845069168942914
 10
12.01156832047585
 20
0.985010505631084
 10
12.01160472882403
 20
0.9855786200542652
 10
12.01156832047585
 20
0.9860090316159895
 10
12.01146738644127
 20
0.9863936623834662
 10
12.01131165964506
 20
0.9867235003893111
 10
12.01111015205461
 20
0.9870165695682672
 10
12.01085385170253
 20
0.9872732303990492
 10
12.01056979449094
 20
0.9874927619242498
 10
12.00989209454451
 20
0.9878409843435356
 10
12.00913184497694
 20
0.9880792607608746
 10
12.00832581461511
 20
0.9882533719705202
 10
12.00681432744734
 20
0.9885096723226016
 10
12.00611824308747
 20
0.9886927954996136
 97
        0
 92
        3
 72
     0
 73
     1
 93
        8
 10
12.01798916698963
 20
0.9903690214309573
 10
12.02064553449243
 20
0.9903690214309573
 10
12.02064553449243
 20
0.9924940433374677
 10
12.01266742001664
 20
0.9924940433374677
 10
12.01266742001664
 20
0.9903690214309573
 10
12.01532378751944
 20
0.9903690214309573
 10
12.01532378751944
 20
0.9821252341570044
 10
12.01798916698963
 20
0.9821252341570044
 97
        0
 92
        3
 72
     0
 73
     1
 93
       12
 10
12.02251425604686
 20
0.9821252341570044
 10
12.03049237052267
 20
0.9821252341570044
 10
12.03049237052267
 20
0.9839845832653636
 10
12.02490495075153
 20
0.9839845832653636
 10
12.02490495075153
 20
0.9863752779700262
 10
12.02969535212822
 20
0.9863752779700262
 10
12.02969535212822
 20
0.9885096723226016
 10
12.02490495075153
 20
0.9885096723226016
 10
12.02490495075153
 20
0.9903690214309573
 10
12.02996102492637
 20
0.9903690214309573
 10
12.02996102492637
 20
0.9924940433374677
 10
12.02251425604686
 20
0.9924940433374677
 97
        0
 92
        3
 72
     0
 73
     1
 93
        4
 10
12.03235171963102
 20
0.9821252341570044
 10
12.03501709910121
 20
0.9821252341570044
 10
12.03501709910121
 20
0.9924940433374677
 10
12.03235171963102
 20
0.9924940433374677
 97
        0
 92
        3
 72
     0
 73
     1
 93
       10
 10
12.03980786095659
 20
0.9821252341570044
 10
12.03980786095659
 20
0.9885096723226016
 10
12.04352655917331
 20
0.9821252341570044
 10
12.04619193864349
 20
0.9821252341570044
 10
12.04619193864349
 20
0.9924940433374677
 10
12.04379223197146
 20
0.9924940433374677
 10
12.04379223197146
 20
0.9858442928524109
 10
12.04007353375475
 20
0.9924940433374677
 10
12.03740779380587
 20
0.9924940433374677
 10
12.03740779380587
 20
0.9821252341570044
 97
        0
 92
        3
 72
     0
 73
     1
 93
       10
 10
12.05710146586633
 20
0.9903690214309573
 10
12.05710146586633
 20
0.9924940433374677
 10
12.04858263334816
 20
0.9924940433374677
 10
12.04858263334816
 20
0.9903690214309573
 10
12.05390474079984
 20
0.9903690214309573
 10
12.0483173210287
 20
0.9839845832653636
 10
12.0483173210287
 20
0.9821252341570044
 10
12.05710146586633
 20
0.9821252341570044
 10
12.05710146586633
 20
0.9839845832653636
 10
12.05151404609517
 20
0.9839845832653636
 97
        0
 92
        3
 72
     0
 73
     1
 93
       12
 10
12.05922648777283
 20
0.9821252341570044
 10
12.067213614216
 20
0.9821252341570044
 10
12.067213614216
 20
0.9839845832653636
 10
12.06189186724302
 20
0.9839845832653636
 10
12.06189186724302
 20
0.9863752779700262
 10
12.06640758385418
 20
0.9863752779700262
 10
12.06640758385418
 20
0.9885096723226016
 10
12.06189186724302
 20
0.9885096723226016
 10
12.06189186724302
 20
0.9903690214309573
 10
12.06693892945048
 20
0.9903690214309573
 10
12.06693892945048
 20
0.9924940433374677
 10
12.05922648777283
 20
0.9924940433374677
 97
        0
 92
        3
 72
     0
 73
     1
 93
       42
 10
12.07172969130587
 20
0.9924940433374677
 10
12.06907332380307
 20
0.9924940433374677
 10
12.06907332380307
 20
0.9855786200542652
 10
12.06910072018387
 20
0.9851020672195937
 10
12.069183269805
 20
0.9846532712444264
 10
12.0693112397417
 20
0.9842502560635121
 10
12.06947633898397
 20
0.9838749977421057
 10
12.06994351937257
 20
0.9832337061438589
 10
12.07053866969788
 20
0.9827207449610014
 10
12.07122574209039
 20
0.9823361141935306
 10
12.07198599165796
 20
0.9820610689493078
 10
12.07279202201977
 20
0.9819053421531116
 10
12.0735980523816
 20
0.98185054939148
 10
12.07431252115491
 20
0.9819053421531116
 10
12.07504537434168
 20
0.9820610689493078
 10
12.07575984311499
 20
0.9823361141935306
 10
12.07641915864798
 20
0.9827207449610014
 10
12.07699628503854
 20
0.9832337061438589
 10
12.07744508101371
 20
0.9838749977421057
 10
12.07761919222335
 20
0.9842502560635121
 10
12.07774752263873
 20
0.9846532712444264
 10
12.07782069981381
 20
0.9851020672195937
 10
12.07784809619462
 20
0.9855786200542652
 10
12.07784809619462
 20
0.9924940433374677
 10
12.07545740148996
 20
0.9924940433374677
 10
12.07545740148996
 20
0.9858442928524109
 10
12.07543000510914
 20
0.9854502896388758
 10
12.07535682793407
 20
0.9850656588714019
 10
12.07521948555132
 20
0.9847084244847502
 10
12.07502698992824
 20
0.9843785864789052
 10
12.07477068957615
 20
0.9841129136807532
 10
12.07444986353767
 20
0.9839023941229216
 10
12.07405622080284
 20
0.9837650517401626
 10
12.0735980523816
 20
0.9837192709459032
 10
12.07313087199299
 20
0.9837650517401626
 10
12.07274624122553
 20
0.9839023941229216
 10
12.07242577566574
 20
0.9841129136807532
 10
12.07216911483497
 20
0.9843785864789052
 10
12.07196760724451
 20
0.9847084244847502
 10
12.07183927682912
 20
0.9850656588714019
 10
12.07175708768668
 20
0.9854502896388758
 10
12.07172969130587
 20
0.9858442928524109
 97
        0
 92
        3
 72
     0
 73
     1
 93
       75
 10
12.08005566772226
 20
0.9860274160294326
 10
12.08027555972616
 20
0.9850014936637117
 10
12.0804496709358
 20
0.9845253013077317
 10
12.08065117852626
 20
0.9840855172999341
 10
12.08089846691097
 20
0.9836825021190262
 10
12.08118252412256
 20
0.9833162557649957
 10
12.08185121210163
 20
0.9826933485801888
 10
12.08224485483647
 20
0.9824460601954798
 10
12.08267526639819
 20
0.982235180158954
 10
12.08314244678679
 20
0.982070441395379
 10
12.08364639600229
 20
0.9819511229473588
 10
12.08477289192388
 20
0.98185054939148
 10
12.08571662514716
 20
0.9819053421531116
 10
12.08653166747636
 20
0.9820888258088221
 10
12.08688890186302
 20
0.982235180158954
 10
12.08720035545543
 20
0.982418303335975
 10
12.08747504022095
 20
0.9826475677859299
 10
12.08769493222485
 20
0.9829222525514569
 10
12.08769493222485
 20
0.9821252341570044
 10
12.08982932657742
 20
0.9821252341570044
 10
12.08982932657742
 20
0.987712653928149
 10
12.08530423752019
 20
0.987712653928149
 10
12.08530423752019
 20
0.9858442928524109
 10
12.08742925942669
 20
0.9858442928524109
 10
12.08737446666507
 20
0.9853861244311793
 10
12.0872093674228
 20
0.9849924816963394
 10
12.08697145148415
 20
0.9846716556578695
 10
12.08666900985913
 20
0.9844153553057795
 10
12.08633015988591
 20
0.9842228596827054
 10
12.08597292549926
 20
0.9840855172999341
 10
12.08530423752019
 20
0.9839845832653636
 10
12.08465393395456
 20
0.9840397365056842
 10
12.08410420394482
 20
0.9842228596827054
 10
12.08363738403491
 20
0.9845069168942914
 10
12.08327077720219
 20
0.9848825356943867
 10
12.08299609243666
 20
0.985349716082997
 10
12.0827945848462
 20
0.9858900736466676
 10
12.08267526639819
 20
0.986503608385413
 10
12.08263885805
 20
0.9871722963644698
 10
12.08269365081163
 20
0.9880150955531781
 10
12.08283099319439
 20
0.988729564326488
 10
12.08306025764437
 20
0.9893247146517934
 10
12.08337171123676
 20
0.989801267486474
 10
12.08375634200423
 20
0.990167513840499
 10
12.08421414994677
 20
0.9904331866386505
 10
12.08472711112962
 20
0.9905889134348527
 10
12.08530423752019
 20
0.9906346942291121
 10
12.08604610267432
 20
0.990543132640606
 10
12.08638531312623
 20
0.9904241746712719
 10
12.08669640623994
 20
0.9902684478750785
 10
12.08724613624968
 20
0.9898470482807243
 10
12.08769493222485
 20
0.9893066907170506
 10
12.08982932657742
 20
0.9901033486328051
 10
12.08939855453701
 20
0.990753652198428
 10
12.08892236218102
 20
0.991303382208172
 10
12.08840038903079
 20
0.9917615506294037
 10
12.0878322746076
 20
0.9921277969834346
 10
12.0872093674228
 20
0.9924118541950202
 10
12.08653166747636
 20
0.9926133617854789
 10
12.08580818673568
 20
0.9927233077874343
 10
12.08503856472204
 20
0.9927597161356171
 10
12.08440664556985
 20
0.9927323197548013
 10
12.0838295191793
 20
0.9926497701336612
 10
12.08328916161562
 20
0.9925218001969729
 10
12.08278521240014
 20
0.9923383165412688
 10
12.0823274044576
 20
0.9921094125699911
 10
12.08191501683062
 20
0.9918347278044726
 10
12.08153975850922
 20
0.9915232742120615
 10
12.08120992050338
 20
0.9911660398254099
 10
12.08091685132441
 20
0.9907720366118711
 10
12.0806695629397
 20
0.9903506370175201
 10
12.08045868290317
 20
0.9898838171076013
 10
12.08028457169353
 20
0.989398252305557
 10
12.08005566772226
 20
0.9883355611129555
 10
12.0799824905472
 20
0.9871722963644698
 97
        0
 92
       18
 72
     0
 73
     1
 93
       19
 10
12.00681432744734
 20
1.005803277232323
 10
12.00764775418998
 20
1.005730100057263
 10
12.0083622229633
 20
1.005510208053361
 10
12.0089577337673
 20
1.005171358080143
 10
12.00944329856935
 20
1.004704177691536
 10
12.00980954492337
 20
1.004127051300989
 10
12.01006584527545
 20
1.003439978908479
 10
12.01022157207166
 20
1.00267071737354
 10
12.01026735286591
 20
1.001809533771392
 10
12.01022157207166
 20
1.000948710647947
 10
12.01006584527545
 20
1.000179088634298
 10
12.00980954492337
 20
0.9994923767204901
 10
12.00944329856935
 20
0.998915250329942
 10
12.0089577337673
 20
0.9984480699413348
 10
12.0083622229633
 20
0.9981092199681143
 10
12.00764775418998
 20
0.9978893279642216
 10
12.00681432744734
 20
0.9978161507891523
 10
12.00441426029663
 20
0.9978161507891523
 10
12.00441426029663
 20
1.005803277232323
 97
        0
 75
     0
 76
     1
 98
        0
  0
HATCH
  5
83
330
1F
100
AcDbEntity
  8
XR$1$TB_314_1
  6
AUSGEZOGEN
 62
    18
420
        0
440
 33554687
370
    35
100
AcDbHatch
 10
0.0
 20
0.0
 30
0.0
210
0.0
220
0.0
230
1.0
  2
SOLID
 70
     1
 71
     0
 91
       20
 92
        3
 72
     0
 73
     1
 93
        8
 10
12.13612272153547
 20
1.006865968424924
 10
12.12627588550524
 20
0.9821252341570044
 10
12.12866658020989
 20
0.9821252341570044
 10
12.13159763247823
 20
0.9895723635151967
 10
12.14250715970106
 20
0.9895723635151967
 10
12.14516352720387
 20
0.9821252341570044
 10
12.14782890667405
 20
0.9821252341570044
 10
12.13824774344197
 20
1.006865968424924
 97
        0
 92
        3
 72
     0
 73
     1
 93
      116
 10
12.15075094697501
 20
0.9943627648918946
 10
12.1507873553232
 20
0.9953155100825466
 10
12.15087891691171
 20
0.9962772672405709
 10
12.15103464370791
 20
0.9972480363659743
 10
12.15126390815787
 20
0.9982007815566263
 10
12.15155697733683
 20
0.9991257698877702
 10
12.15191421172349
 20
1.000032734284169
 10
12.15234462328522
 20
1.000893557407623
 10
12.15284857250071
 20
1.001708960215513
 10
12.15342533841256
 20
1.002459837337008
 10
12.15406663001081
 20
1.003146909729514
 10
12.15478109878412
 20
1.003760804946949
 10
12.15557811717859
 20
1.004273766129809
 10
12.1564483127481
 20
1.004694805245468
 10
12.15740069746006
 20
1.005006258837873
 10
12.15842661982578
 20
1.005198754460956
 10
12.15953509181264
 20
1.005271931636025
 10
12.16085408335732
 20
1.005189742493584
 10
12.16203573251924
 20
1.004960478043617
 10
12.16257609008292
 20
1.004786727312676
 10
12.16307967881972
 20
1.004566835308774
 10
12.16354685920831
 20
1.004310174478001
 10
12.16398664321611
 20
1.004008093331663
 10
12.1647742891645
 20
1.003266228177535
 10
12.16544297714355
 20
1.002350251813763
 10
12.16600171912067
 20
1.001241779826908
 10
12.16645051509584
 20
0.9999501846630355
 10
12.16884120980049
 20
1.001278548653786
 10
12.16809934464637
 20
1.002689101786981
 10
12.16723852152291
 20
1.003916531743154
 10
12.16627676436489
 20
1.004969850489691
 10
12.16574541876858
 20
1.005427658432228
 10
12.16518667679146
 20
1.005830673613144
 10
12.16460053843355
 20
1.006197280445867
 10
12.16397763124873
 20
1.006508734038263
 10
12.16331795523704
 20
1.006783418803797
 10
12.16263088284454
 20
1.00700331080769
 10
12.16115616450366
 20
1.007296379986651
 10
12.15953509181264
 20
1.007396953542533
 10
12.15813355064681
 20
1.007323776367467
 10
12.15684195548295
 20
1.007113256809639
 10
12.15563290994021
 20
1.006765034390353
 10
12.15453381039943
 20
1.006297854001746
 10
12.15352627244714
 20
1.005711715643817
 10
12.15261029608337
 20
1.005024643251317
 10
12.15178588130811
 20
1.004246009270304
 10
12.15105302812135
 20
1.003375813700786
 10
12.1504117365231
 20
1.002423428988826
 10
12.14986236699205
 20
1.001406518590477
 10
12.14939518660344
 20
1.000334815430504
 10
12.14901956780335
 20
0.9991989470628396
 10
12.14872649862439
 20
0.9980356823143561
 10
12.14852499103393
 20
0.9968266367716142
 10
12.14839666061854
 20
0.9955992068154373
 10
12.14836025227035
 20
0.9943627648918946
 10
12.14839666061854
 20
0.9930253889337687
 10
12.14852499103393
 20
0.9917337937699021
 10
12.14872649862439
 20
0.9904883398789711
 10
12.14901055583597
 20
0.9892883063036106
 10
12.14937680219
 20
0.9881524379359403
 10
12.14983497061124
 20
0.9870807347759633
 10
12.15036595572884
 20
0.9860731968236888
 10
12.15098886291366
 20
0.9851482084925383
 10
12.15168494727353
 20
0.9843054093038299
 10
12.1524729537006
 20
0.9835541717036367
 10
12.1533521612375
 20
0.9829038681380107
 10
12.15430490642815
 20
0.9823451261609034
 10
12.15534885272861
 20
0.9819147145991733
 10
12.15648472109629
 20
0.9815848765933343
 10
12.15769376663902
 20
0.9813923809702483
 10
12.15900374621634
 20
0.9813192037951821
 10
12.16010284575712
 20
0.9813833690028759
 10
12.16121131774398
 20
0.9815758646259556
 10
12.16229203287133
 20
0.9818963301857362
 10
12.16332732768311
 20
0.9823541381282667
 10
12.16427971239507
 20
0.9829496489322669
 10
12.16514089599722
 20
0.9836825021190262
 10
12.16587374918398
 20
0.9845526976885385
 10
12.16617583033032
 20
0.9850472744579647
 10
12.16645051509584
 20
0.9855786200542652
 10
12.16645051509584
 20
0.9821252341570044
 10
12.16857553700235
 20
0.9821252341570044
 10
12.16857553700235
 20
0.9948941104881924
 10
12.15740069746006
 20
0.9948941104881924
 10
12.15740069746006
 20
0.9927597161356171
 10
12.16645051509584
 20
0.9927597161356171
 10
12.16645051509584
 20
0.9914317126235619
 10
12.16634994153996
 20
0.9900943366654329
 10
12.16603848794755
 20
0.988729564326488
 10
12.16579119956284
 20
0.9880518643800588
 10
12.16549813038388
 20
0.987392188368368
 10
12.16514089599722
 20
0.9867508967701215
 10
12.16471949640287
 20
0.9861463739987548
 10
12.16424330404688
 20
0.9855786200542652
 10
12.16369357403715
 20
0.9850656588714019
 10
12.16308905126577
 20
0.9846074904501703
 10
12.16241135131935
 20
0.9842138477153267
 10
12.16166912568652
 20
0.9838930216768572
 10
12.16084471091125
 20
0.9836551057382071
 10
12.15996550337436
 20
0.9834993789420104
 10
12.15900374621634
 20
0.9834535981477575
 10
12.15794105502374
 20
0.9835177633554477
 10
12.15697028589834
 20
0.9837098984998388
 10
12.15606332150193
 20
0.984021352092244
 10
12.15523926720537
 20
0.9844427516865921
 10
12.15449704157255
 20
0.9849647248368311
 10
12.1538193416261
 20
0.9855692476082009
 10
12.15321481885474
 20
0.9862563200006981
 10
12.15268347325844
 20
0.9870075576008944
 10
12.15221629286983
 20
0.9878225999300949
 10
12.15182265013499
 20
0.988683783532244
 10
12.15148343968307
 20
0.9895903874499509
 10
12.15121812736361
 20
0.9905247482271625
 10
12.15101661977317
 20
0.9914774934178059
 10
12.15086990494433
 20
0.9924392505758393
 10
12.15077834335582
 20
0.993401007733864
 97
        0
 92
        3
 72
     0
 73
     1
 93
       37
 10
12.17203793486698
 20
0.9821252341570044
 10
12.17442862957164
 20
0.9821252341570044
 10
12.17442862957164
 20
0.9930253889337687
 10
12.18001640982148
 20
0.9930253889337687
 10
12.18800353626465
 20
0.9821252341570044
 10
12.19092557656561
 20
0.9821252341570044
 10
12.18294746208981
 20
0.9930253889337687
 10
12.18455051084608
 20
0.9932268965242242
 10
12.18529237600021
 20
0.993401007733864
 10
12.18597908791402
 20
0.9936208997377626
 10
12.18662037951227
 20
0.993895584503287
 10
12.18720651787021
 20
0.9942160500630643
 10
12.18774723591257
 20
0.9945826568957873
 10
12.18823244023591
 20
0.9949946840440708
 10
12.18867222424371
 20
0.9954528524653056
 10
12.18904784304381
 20
0.9959564412020981
 10
12.18937768104966
 20
0.9965061712118423
 10
12.18964299336911
 20
0.997110693983209
 10
12.18985387340564
 20
0.9977519855814498
 10
12.19000960020184
 20
0.9984386974952673
 10
12.19010116179034
 20
0.9991715506820238
 10
12.19012855817115
 20
0.9999501846630355
 10
12.19002798461528
 20
1.001241779826908
 10
12.18971653102287
 20
1.002487594196522
 10
12.18947825460554
 20
1.003082744521827
 10
12.18919419739395
 20
1.003659870912375
 10
12.18883696300729
 20
1.004200228476048
 10
12.18843394782638
 20
1.004704177691536
 10
12.18796676743777
 20
1.005171358080143
 10
12.18744479428754
 20
1.00558338522843
 10
12.18684928348354
 20
1.005959004028531
 10
12.18619897991791
 20
1.00627045762093
 10
12.1854845111446
 20
1.006526757973017
 10
12.18470587716359
 20
1.006710241628725
 10
12.18386343845359
 20
1.006829199598043
 10
12.18294746208981
 20
1.006865968424924
 10
12.17203793486698
 20
1.006865968424924
 97
        0
 92
        3
 72
     0
 73
     1
 93
       64
 10
12.19188733372364
 20
0.991889520566092
 10
12.19209785328146
 20
0.9906898474694299
 10
12.19238191049306
 20
0.9895172102748757
 10
12.19275752929315
 20
0.9883907143532793
 10
12.19321533723569
 20
0.9873096387472347
 10
12.19375605527806
 20
0.9862930888275787
 10
12.19438797443024
 20
0.985349716082997
 10
12.19510244320356
 20
0.9844795205134788
 10
12.19590847356538
 20
0.9836915140863984
 10
12.19680606551572
 20
0.9830048021725907
 10
12.19778620708719
 20
0.9824276757820372
 10
12.19886692221454
 20
0.9819604953934296
 10
12.20003018696301
 20
0.9816122729741473
 10
12.2012853737787
 20
0.9813923809702483
 10
12.20262202877944
 20
0.9813192037951821
 10
12.20393200835674
 20
0.9813923809702483
 10
12.20515042634555
 20
0.9816122729741473
 10
12.20627692226715
 20
0.9819604953934296
 10
12.20732122904631
 20
0.9824276757820372
 10
12.20827361375828
 20
0.9830048021725907
 10
12.20915318177386
 20
0.9836915140863984
 10
12.20994082772224
 20
0.9844795205134788
 10
12.21063691208212
 20
0.985349716082997
 10
12.21125981926692
 20
0.9862930888275787
 10
12.21179116486323
 20
0.9873096387472347
 10
12.21224897280577
 20
0.9883907143532793
 10
12.21261557963849
 20
0.9895172102748757
 10
12.21289927637139
 20
0.9906898474694299
 10
12.21311015640791
 20
0.991889520566092
 10
12.21322911437723
 20
0.9931169505222688
 10
12.21326588320411
 20
0.9943627648918946
 10
12.21322911437723
 20
0.9955992068154373
 10
12.21311015640791
 20
0.9968266367716142
 10
12.21289927637139
 20
0.9980356823143561
 10
12.21261557963849
 20
0.9991989470628396
 10
12.21224897280577
 20
1.000334815430504
 10
12.21179116486323
 20
1.001406518590477
 10
12.21125981926692
 20
1.002423428988826
 10
12.21063691208212
 20
1.003375813700786
 10
12.20994082772224
 20
1.004246009270304
 10
12.20915318177386
 20
1.005024643251317
 10
12.20827361375828
 20
1.005711715643817
 10
12.20732122904631
 20
1.006297854001746
 10
12.20627692226715
 20
1.006765034390353
 10
12.20515042634555
 20
1.007113256809639
 10
12.20393200835674
 20
1.007323776367467
 10
12.20262202877944
 20
1.007396953542533
 10
12.2012853737787
 20
1.007323776367467
 10
12.20003018696301
 20
1.007113256809639
 10
12.19886692221454
 20
1.006765034390353
 10
12.19778620708719
 20
1.006297854001746
 10
12.19680606551572
 20
1.005711715643817
 10
12.19590847356538
 20
1.005024643251317
 10
12.19510244320356
 20
1.004246009270304
 10
12.19438797443024
 20
1.003375813700786
 10
12.19375605527806
 20
1.002423428988826
 10
12.19321533723569
 20
1.001406518590477
 10
12.19275752929315
 20
1.000334815430504
 10
12.19238191049306
 20
0.9991989470628396
 10
12.19209785328146
 20
0.9980356823143561
 10
12.19188733372364
 20
0.9968266367716142
 10
12.19176837575432
 20
0.9955992068154373
 10
12.19173160692743
 20
0.9943627648918946
 10
12.19176837575432
 20
0.9931169505222688
 97
        0
 92
        3
 72
     0
 73
     1
 93
       57
 10
12.22710610221658
 20
0.9821252341570044
 10
12.22811364016886
 20
0.982162002983885
 10
12.22904800094607
 20
0.9822625765397633
 10
12.22991819651559
 20
0.9824366877494094
 10
12.23070620294268
 20
0.9826749641667484
 10
12.23142968368336
 20
0.9829680333457099
 10
12.23208899921636
 20
0.9833162557649957
 10
12.23267549805297
 20
0.9837098984998388
 10
12.23318845923584
 20
0.9841496825076301
 10
12.23364626717838
 20
0.9846352473096781
 10
12.23403089794585
 20
0.9851482084925383
 10
12.23436073595169
 20
0.9856975780235876
 10
12.23462640874985
 20
0.9862747044141379
 10
12.2348279163403
 20
0.986870215218135
 10
12.23497463116913
 20
0.9874927619242498
 10
12.23505682031156
 20
0.9881250415551245
 10
12.23508421669239
 20
0.9887753451207473
 10
12.23501103951731
 20
0.9900301714577395
 10
12.23478213554604
 20
0.9911934362062194
 10
12.23459901236904
 20
0.9917431662159666
 10
12.2343881323325
 20
0.9922561273988267
 10
12.23412245953435
 20
0.9927413317221735
 10
12.23382037838802
 20
0.9931995001434084
 10
12.23347215596874
 20
0.9936115272916922
 10
12.23308752520126
 20
0.9939965185378579
 10
12.23264774119347
 20
0.9943443804784511
 10
12.23217154883749
 20
0.9946468221034839
 10
12.23164020324118
 20
0.9949124949016296
 10
12.23106307685063
 20
0.9951230144594665
 10
12.23044053014452
 20
0.9952971256690999
 10
12.22976246971939
 20
0.9954254560844956
 10
12.23087995367361
 20
0.995681756436577
 10
12.23136551847566
 20
0.9958648796135954
 10
12.23181431445083
 20
0.9960757596501216
 10
12.23260196039921
 20
0.9965793483869057
 10
12.23322486758402
 20
0.9972206399851584
 10
12.23370142041869
 20
0.9979808895527277
 10
12.23388454359571
 20
0.9984113011144545
 10
12.23403089794585
 20
0.998869469535683
 10
12.23422339356894
 20
0.9998770074879667
 10
12.23428755877663
 20
1.001012875855637
 10
12.23424177798237
 20
1.001644795007816
 10
12.23405865480536
 20
1.002487594196522
 10
12.23390292800915
 20
1.00295477458513
 10
12.23368303600525
 20
1.003449351354553
 10
12.23340799076104
 20
1.003943928123967
 10
12.23306012882044
 20
1.00443850489339
 10
12.23262971725872
 20
1.00491469724937
 10
12.23211675607586
 20
1.005363493224538
 10
12.2315122333045
 20
1.005775880851513
 10
12.23080677649855
 20
1.006133115238171
 10
12.22999173416936
 20
1.006435196384511
 10
12.22906638535951
 20
1.006664460834475
 10
12.22802207858035
 20
1.006810815184604
 10
12.22684042941843
 20
1.006865968424924
 10
12.21619693547245
 20
1.006865968424924
 10
12.21619693547245
 20
0.9821252341570044
 97
        0
 92
        3
 72
     0
 73
     1
 93
       56
 10
12.24307170361425
 20
0.9821252341570044
 10
12.25424654315654
 20
0.9821252341570044
 10
12.25650890744581
 20
0.9822077837781381
 10
12.2575442022576
 20
0.9823267417474632
 10
12.25851497138299
 20
0.9824918409897301
 10
12.25941256333332
 20
0.9827113725149311
 10
12.26024635055466
 20
0.9829770453130859
 10
12.26100660012223
 20
0.983297871351555
 10
12.26169367251473
 20
0.9836825021190262
 10
12.26230720725347
 20
0.984122286126818
 10
12.26283855284978
 20
0.9846258748636137
 10
12.26329636079231
 20
0.9851939892867949
 10
12.26367197959241
 20
0.9858259084389802
 10
12.26396504877138
 20
0.9865219927988528
 10
12.26417592880791
 20
0.9872912543337975
 10
12.26431327119066
 20
0.9881250415551245
 10
12.26434967953884
 20
0.9890410179189021
 10
12.26432228315803
 20
0.9897097058979616
 10
12.26423072156953
 20
0.9903416250501473
 10
12.26408436721938
 20
0.990918751440695
 10
12.26388285962894
 20
0.991450097036999
 10
12.26363521076553
 20
0.9919353013603514
 10
12.26334214158656
 20
0.99237508536814
 10
12.26300329161335
 20
0.9927690885816814
 10
12.26262767281325
 20
0.9931263229683427
 10
12.2622062732189
 20
0.9934467885281137
 10
12.26175747724374
 20
0.9937214732936446
 10
12.26127227292038
 20
0.9939597497109771
 10
12.26075931173752
 20
0.9941612573014359
 10
12.2596692241641
 20
0.9944636989264622
 10
12.25849658696955
 20
0.994628437690043
 10
12.25849658696955
 20
0.9948941104881924
 10
12.25963245533722
 20
0.9952329604614097
 10
12.2606399932895
 20
0.9956543600557579
 10
12.26150117689165
 20
0.9961673212386213
 10
12.26222465763233
 20
0.9967902284234315
 10
12.26279277205552
 20
0.997522721131496
 10
12.26302167602679
 20
0.9979257363124039
 10
12.26321417164987
 20
0.9983748927662628
 10
12.26347047200196
 20
0.9993546738590416
 10
12.26355302162309
 20
1.000481530259333
 10
12.26351625279622
 20
1.001296572588531
 10
12.26339729482689
 20
1.002047810188728
 10
12.26320479920381
 20
1.002743894548606
 10
12.26293912640566
 20
1.003385186146853
 10
12.2626096488785
 20
1.003962312537407
 10
12.2622062732189
 20
1.00448428568764
 10
12.26174846527636
 20
1.004951466076242
 10
12.26122649212613
 20
1.005363493224538
 10
12.26064936573557
 20
1.005730100057263
 10
12.26001744658339
 20
1.006041553649665
 10
12.25933938615826
 20
1.006297854001746
 10
12.25861590541757
 20
1.006499361592202
 10
12.25704025304212
 20
1.006774406836421
 10
12.25530923434913
 20
1.006865968424924
 10
12.24307170361425
 20
1.006865968424924
 97
        0
 92
        3
 72
     0
 73
     1
 93
       58
 10
12.26860909579793
 20
0.9906346942291121
 10
12.26867326100563
 20
0.9894346606537392
 10
12.26885638418264
 20
0.9883265491455832
 10
12.26915882580767
 20
0.9873096387472347
 10
12.26956184098859
 20
0.9863752779700262
 10
12.270056417758
 20
0.9855234668139446
 10
12.27063354414856
 20
0.9847632172463755
 10
12.27128384771418
 20
0.9840855172999341
 10
12.2719983164875
 20
0.9834809945285733
 10
12.27277695046851
 20
0.9829590213783345
 10
12.27360136524377
 20
0.9825192373705431
 10
12.27445317639984
 20
0.9821436185704415
 10
12.27534139590411
 20
0.9818415374241135
 10
12.27624836030052
 20
0.9816122729741473
 10
12.27716433666429
 20
0.9814475342105689
 10
12.27808031302806
 20
0.9813559726220629
 10
12.27898727742446
 20
0.9813192037951821
 10
12.27989388134216
 20
0.9813559726220629
 10
12.28080985770594
 20
0.9814475342105689
 10
12.28172583406971
 20
0.9816122729741473
 10
12.28262342602004
 20
0.9818415374241135
 10
12.283512006003
 20
0.9821436185704415
 10
12.28437318960515
 20
0.9825192373705431
 10
12.28519760438042
 20
0.9829590213783345
 10
12.28596686591535
 20
0.9834809945285733
 10
12.28669034665605
 20
0.9840855172999341
 10
12.28734101070037
 20
0.9847632172463755
 10
12.28791777661222
 20
0.9855234668139446
 10
12.28841271386033
 20
0.9863752779700262
 10
12.28881572904125
 20
0.9873096387472347
 10
12.28911781018759
 20
0.9883265491455832
 10
12.2893009333646
 20
0.9894346606537392
 10
12.28936509857229
 20
0.9906346942291121
 10
12.28936509857229
 20
1.006865968424924
 10
12.28324633320485
 20
1.006865968424924
 10
12.28324633320485
 20
0.9911660398254099
 10
12.28319154044322
 20
0.9901949102213176
 10
12.28302644120095
 20
0.9892973182709802
 10
12.28274274446805
 20
0.9884822759417825
 10
12.28231197242764
 20
0.9877768191358359
 10
12.28173520651577
 20
0.987190680777916
 10
12.28138698409649
 20
0.9869524043605797
 10
12.28100235332902
 20
0.9867508967701215
 10
12.28056256932123
 20
0.9865951699739189
 10
12.28008637696525
 20
0.9864762120045967
 10
12.27898727742446
 20
0.9863752779700262
 10
12.27788781740498
 20
0.9864762120045967
 10
12.27741162504899
 20
0.9865951699739189
 10
12.27697184104121
 20
0.9867508967701215
 10
12.27658721027373
 20
0.9869524043605797
 10
12.27623934833314
 20
0.987190680777916
 10
12.27566222194259
 20
0.9877768191358359
 10
12.27523181038087
 20
0.9884822759417825
 10
12.27494775316927
 20
0.9892973182709802
 10
12.27478265392701
 20
0.9901949102213176
 10
12.27472786116538
 20
0.9911660398254099
 10
12.27472786116538
 20
1.006865968424924
 10
12.26860909579793
 20
1.006865968424924
 97
        0
 92
        3
 72
     0
 73
     1
 93
      105
 10
12.29974328019882
 20
0.9943627648918946
 10
12.29977067657964
 20
0.9953703028441724
 10
12.29986223816814
 20
0.9963046636213808
 10
12.30000895299697
 20
0.9971748591908991
 10
12.30021046058742
 20
0.9979625051392873
 10
12.30045774897214
 20
0.9986863463586706
 10
12.30075983011848
 20
0.9993366499242875
 10
12.30110805253777
 20
0.999922788282217
 10
12.30150169527261
 20
1.000444761432456
 10
12.30193246731303
 20
1.000902929853688
 10
12.30239964770163
 20
1.001287560621162
 10
12.30290323643842
 20
1.001617398627007
 10
12.3034435940021
 20
1.001883071425155
 10
12.30401170842528
 20
1.002084579015614
 10
12.30460685875059
 20
1.002230933365743
 10
12.30522075396802
 20
1.00231348298688
 10
12.30586204556627
 20
1.002340879367698
 10
12.30665870348202
 20
1.002267702192623
 10
12.30743733746304
 20
1.002056822156097
 10
12.30817920261716
 20
1.001727344628953
 10
12.30888465942311
 20
1.001278548653786
 10
12.30952595102135
 20
1.000728818644045
 10
12.31008469299847
 20
1.000096899491859
 10
12.31055151290838
 20
0.999391442685922
 10
12.31091811974111
 20
0.9986128087049101
 10
12.31596518194858
 20
1.001012875855637
 10
12.31503082117137
 20
1.002432440956205
 10
12.31401391077301
 20
1.003696639739262
 10
12.31289642681879
 20
1.004786727312676
 10
12.31230127649349
 20
1.005262919668656
 10
12.31167836930868
 20
1.005702703676444
 10
12.31102806574306
 20
1.006087334443918
 10
12.31035000531792
 20
1.006426184417139
 10
12.3096355365446
 20
1.0067192535961
 10
12.30889367139049
 20
1.006957530013439
 10
12.30812440985553
 20
1.007149665157824
 10
12.30731837949371
 20
1.007287368019284
 10
12.30647558030501
 20
1.007369557161726
 10
12.30559637276812
 20
1.007396953542533
 10
12.30418581963492
 20
1.007323776367467
 10
12.30286646761154
 20
1.007122268777011
 10
12.30162101372063
 20
1.006783418803797
 10
12.30046676093952
 20
1.006334622828633
 10
12.29939505777954
 20
1.005766508405445
 10
12.29841491620807
 20
1.005098180905077
 10
12.29751732425774
 20
1.004328558891444
 10
12.29671129389591
 20
1.003476747735363
 10
12.29599682512259
 20
1.002533374990772
 10
12.29537391793779
 20
1.001525837038495
 10
12.29484257234149
 20
1.000444761432456
 10
12.29440314881239
 20
0.9993182655108503
 10
12.29406393836048
 20
0.9981276043815542
 10
12.29381664997577
 20
0.9969091863927534
 10
12.29367029562563
 20
0.9956449876096968
 10
12.29361514238531
 20
0.9943627648918946
 10
12.29367029562563
 20
0.9930711697280217
 10
12.29382602242183
 20
0.9918163433910263
 10
12.29409169521999
 20
0.9905889134348527
 10
12.29444892960665
 20
0.9894072642729298
 10
12.29491610999525
 20
0.9882713959052589
 10
12.29547485197237
 20
0.987190680777916
 10
12.29612515553799
 20
0.9861831428256351
 10
12.29687603265949
 20
0.9852487820484176
 10
12.29772784381557
 20
0.9843879589249728
 10
12.29866220459278
 20
0.9836273488787024
 10
12.2996881269585
 20
0.9829496489322669
 10
12.30080561091273
 20
0.9823909069551564
 10
12.30200564448809
 20
0.9819330990126164
 10
12.30329723965196
 20
0.9816032610067714
 10
12.30467102395827
 20
0.9813923809702483
 10
12.30612735788573
 20
0.9813192037951821
 10
12.30686958351855
 20
0.9813466001759921
 10
12.30760207622661
 20
0.981429149797129
 10
12.30904939818668
 20
0.981758987802974
 10
12.30974548254656
 20
0.981996903741615
 10
12.31043255493906
 20
0.9822903333992776
 10
12.31110124291812
 20
0.9826291833724927
 10
12.31174253451637
 20
0.9830228261073357
 10
12.31296996447256
 20
0.983929790503732
 10
12.31409646039415
 20
0.9850288900445212
 10
12.31509498637906
 20
0.9862837163815139
 10
12.3155527943216
 20
0.9869801612200845
 10
12.31596518194858
 20
0.987712653928149
 10
12.31118379253926
 20
0.9901033486328051
 10
12.31072562411803
 20
0.9892699218901703
 10
12.31016688214092
 20
0.9885554531168513
 10
12.30953496298874
 20
0.9879599423128543
 10
12.30884789059622
 20
0.987474737989508
 10
12.30814279426898
 20
0.9871081311567823
 10
12.30743733746304
 20
0.9868518308046978
 10
12.3067596375166
 20
0.9866961040084953
 10
12.30612735788573
 20
0.9866409507681719
 10
12.30522075396802
 20
0.9866961040084953
 10
12.30439633919275
 20
0.9868334463912547
 10
12.30365447403862
 20
0.9870623503625261
 10
12.30299479802694
 20
0.9873647919875557
 10
12.30239964770163
 20
0.9877404107876537
 10
12.30188668651877
 20
0.9881708223493806
 10
12.30142851809754
 20
0.9886653991188041
 10
12.301034514884
 20
0.9892057566824742
 10
12.30070503735685
 20
0.989782883073031
 10
12.30042999211263
 20
0.9903964178117703
 10
12.30020108814136
 20
0.9910377094100205
 10
12.30002697693171
 20
0.9916973854217076
 10
12.29980744540652
 20
0.9930347613798304
 97
        0
 92
        3
 72
     0
 73
     1
 93
       12
 10
12.31942757981321
 20
0.9821252341570044
 10
12.32554634518065
 20
0.9821252341570044
 10
12.32554634518065
 20
0.9924940433374677
 10
12.33486183561458
 20
0.9924940433374677
 10
12.33486183561458
 20
0.9821252341570044
 10
12.34098024050333
 20
0.9821252341570044
 10
12.34098024050333
 20
1.006865968424924
 10
12.33486183561458
 20
1.006865968424924
 10
12.33486183561458
 20
0.9978161507891523
 10
12.32554634518065
 20
0.9978161507891523
 10
12.32554634518065
 20
1.006865968424924
 10
12.31942757981321
 20
1.006865968424924
 97
        0
 92
        3
 72
     0
 73
     1
 93
        8
 10
12.35694584190101
 20
1.002075206569541
 10
12.36333028006659
 20
1.002075206569541
 10
12.36333028006659
 20
1.006865968424924
 10
12.34416795360244
 20
1.006865968424924
 10
12.34416795360244
 20
1.002075206569541
 10
12.35082707653356
 20
1.002075206569541
 10
12.35082707653356
 20
0.9821252341570044
 10
12.35694584190101
 20
0.9821252341570044
 97
        0
 92
        3
 72
     0
 73
     1
 93
        8
 10
12.36146155851217
 20
0.9821252341570044
 10
12.36812068144329
 20
0.9821252341570044
 10
12.36944904543403
 20
0.9858442928524109
 10
12.37848949062375
 20
0.9858442928524109
 10
12.37982686658187
 20
0.9821252341570044
 10
12.38647697754561
 20
0.9821252341570044
 10
12.37716148711169
 20
1.006865968424924
 10
12.3707770489461
 20
1.006865968424924
 97
        0
 92
        3
 72
     0
 73
     1
 93
        6
 10
12.38913334504843
 20
0.9821252341570044
 10
12.40509858596741
 20
0.9821252341570044
 10
12.40509858596741
 20
0.9871722963644698
 10
12.39551778321402
 20
0.9871722963644698
 10
12.39551778321402
 20
1.006865968424924
 10
12.38913334504843
 20
1.006865968424924
 97
        0
 92
       18
 72
     0
 73
     1
 93
        3
 10
12.13718505224938
 20
1.00366924335844
 10
12.1417101413066
 20
0.9914317126235619
 10
12.13239465087268
 20
0.9914317126235619
 97
        0
 92
       18
 72
     0
 73
     1
 93
       29
 10
12.18215044369536
 20
1.004465901274203
 10
12.18362516203624
 20
1.004392724099134
 10
12.18486160395979
 20
1.004172832095242
 10
12.18539294955609
 20
1.004008093331663
 10
12.18586950239077
 20
1.003806585741211
 10
12.18629991395249
 20
1.003577321291241
 10
12.18667553275259
 20
1.003302636525717
 10
12.18699599831237
 20
1.003000555379389
 10
12.18727068307789
 20
1.002661344927467
 10
12.18749994752786
 20
1.002295098573439
 10
12.18768307070487
 20
1.001892083392531
 10
12.18792098664352
 20
1.000985118996129
 10
12.18800353626465
 20
0.9999501846630355
 10
12.18793937105696
 20
0.9990525927127014
 10
12.18771947905306
 20
0.9981914091105555
 10
12.18754572832211
 20
0.9977793819622689
 10
12.18732583631822
 20
0.997376366781361
 10
12.18706016352006
 20
0.9970007479812594
 10
12.18673969796028
 20
0.9966525255619713
 10
12.1863640791602
 20
0.9963320600021999
 10
12.18592429515239
 20
0.9960389908232351
 10
12.1854203459369
 20
0.9957826904711538
 10
12.18486160395979
 20
0.9955718104346306
 10
12.18422968480761
 20
0.995397699224985
 10
12.18352458848036
 20
0.9952697292882904
 10
12.18273658205329
 20
0.995187179667154
 10
12.1818847708972
 20
0.9951597832863381
 10
12.17442862957164
 20
0.9951597832863381
 10
12.17442862957164
 20
1.004465901274203
 97
        0
 92
       18
 72
     0
 73
     1
 93
       64
 10
12.19414969801291
 20
0.9953155100825466
 10
12.19425063204749
 20
0.9962772672405709
 10
12.19440635884369
 20
0.9972480363659743
 10
12.19462625084758
 20
0.9982007815566263
 10
12.19491932002655
 20
0.9991257698877702
 10
12.19527655441321
 20
1.000032734284169
 10
12.19569759352886
 20
1.000893557407623
 10
12.1961831583309
 20
1.001708960215513
 10
12.19674190030802
 20
1.002459837337008
 10
12.1973741799389
 20
1.003146909729514
 10
12.19807026429877
 20
1.003760804946949
 10
12.19883952583372
 20
1.004273766129809
 10
12.19967295257636
 20
1.004694805245468
 10
12.20058892894013
 20
1.005006258837873
 10
12.2015687100329
 20
1.005198754460956
 10
12.20262202877944
 20
1.005271931636025
 10
12.20368471997203
 20
1.005198754460956
 10
12.2046648615435
 20
1.005006258837873
 10
12.20556245349383
 20
1.004694805245468
 10
12.2063868682691
 20
1.004273766129809
 10
12.20712873342323
 20
1.003760804946949
 10
12.20780679384836
 20
1.003146909729514
 10
12.20841131661973
 20
1.002459837337008
 10
12.20894230173734
 20
1.001708960215513
 10
12.20940948212593
 20
1.000893557407623
 10
12.20980348533948
 20
1.000032734284169
 10
12.21014233531269
 20
0.9991257698877702
 10
12.21040800811085
 20
0.9982007815566263
 10
12.21061852766867
 20
0.9972480363659743
 10
12.21075623053013
 20
0.9962772672405709
 10
12.21084779211864
 20
0.9953155100825466
 10
12.21087518849945
 20
0.9943627648918946
 10
12.21084779211864
 20
0.993401007733864
 10
12.21075623053013
 20
0.9924392505758393
 10
12.21061852766867
 20
0.9914774934178059
 10
12.21040800811085
 20
0.9905247482271625
 10
12.21014233531269
 20
0.9895903874499509
 10
12.20980348533948
 20
0.988683783532244
 10
12.20940948212593
 20
0.9878225999300949
 10
12.20894230173734
 20
0.9870075576008944
 10
12.20841131661973
 20
0.9862563200006981
 10
12.20780679384836
 20
0.9855692476082009
 10
12.20712873342323
 20
0.9849647248368311
 10
12.2063868682691
 20
0.9844427516865921
 10
12.20556245349383
 20
0.984021352092244
 10
12.2046648615435
 20
0.9837098984998388
 10
12.20368471997203
 20
0.9835177633554477
 10
12.20262202877944
 20
0.9834535981477575
 10
12.2015687100329
 20
0.9835177633554477
 10
12.20058892894013
 20
0.9837098984998388
 10
12.19967295257636
 20
0.984021352092244
 10
12.19883952583372
 20
0.9844427516865921
 10
12.19807026429877
 20
0.9849647248368311
 10
12.1973741799389
 20
0.9855692476082009
 10
12.19674190030802
 20
0.9862563200006981
 10
12.1961831583309
 20
0.9870075576008944
 10
12.19569759352886
 20
0.9878225999300949
 10
12.19527655441321
 20
0.988683783532244
 10
12.19491932002655
 20
0.9895903874499509
 10
12.19462625084758
 20
0.9905247482271625
 10
12.19440635884369
 20
0.9914774934178059
 10
12.19425063204749
 20
0.9924392505758393
 10
12.19414969801291
 20
0.993401007733864
 10
12.1941223016321
 20
0.9943627648918946
 97
        0
 92
       18
 72
     0
 73
     1
 93
       26
 10
12.22630944430082
 20
1.004465901274203
 10
12.22761906339944
 20
1.004429492926014
 10
12.22874591979974
 20
1.004291790064554
 10
12.22970767695777
 20
1.00405387412592
 10
12.23012907655212
 20
1.003879762916274
 10
12.23049532290615
 20
1.00366924335844
 10
12.23082516091199
 20
1.003430966941103
 10
12.23110921812358
 20
1.003146909729514
 10
12.23134713406222
 20
1.002817071723673
 10
12.2315396296853
 20
1.002450825369642
 10
12.23169535648151
 20
1.002029425775294
 10
12.23180530248347
 20
1.001571617832751
 10
12.23189686407197
 20
1.000481530259333
 10
12.23179593003739
 20
0.9995287850686814
 10
12.23167697206807
 20
0.9990983735069576
 10
12.23150286085842
 20
0.9986953583260493
 10
12.2312923413006
 20
0.9983107275585758
 10
12.23103568046982
 20
0.9979625051392873
 10
12.23039474935027
 20
0.9973489704005387
 10
12.22959773095581
 20
0.9968634055984944
 10
12.22913055056721
 20
0.9966709099754116
 10
12.22863597379778
 20
0.9965151831792118
 10
12.227536874257
 20
0.996295651654008
 10
12.22630944430082
 20
0.9962221140002475
 10
12.2185876301771
 20
0.9962221140002475
 10
12.2185876301771
 20
1.004465901274203
 97
        0
 92
       18
 72
     0
 73
     1
 93
       28
 10
12.22630944430082
 20
0.9940970920937366
 10
12.22780254705515
 20
0.9939965185378579
 10
12.2291031541864
 20
0.9937124613262686
 10
12.22967090813087
 20
0.9935015812897428
 10
12.23019324175981
 20
0.9932542929050342
 10
12.23066943411579
 20
0.9929612237260727
 10
12.23109083371014
 20
0.992631746198922
 10
12.23146645251024
 20
0.9922651393661936
 10
12.23179593003739
 20
0.9918621241852825
 10
12.23207097528161
 20
0.9914223401774848
 10
12.23229050680681
 20
0.9909551597888867
 10
12.23246461801645
 20
0.9904515710520909
 10
12.23259294843184
 20
0.9899202254557932
 10
12.23269352198772
 20
0.9887753451207473
 10
12.23261133284529
 20
0.9879693147589219
 10
12.23238242887401
 20
0.9871722963644698
 10
12.2319790532144
 20
0.9864030348295277
 10
12.23139291485648
 20
0.9857159624370279
 10
12.23103568046982
 20
0.9854045088446228
 10
12.23062365332154
 20
0.9851204516330335
 10
12.2301654849003
 20
0.9848731632483191
 10
12.22966189616351
 20
0.9846532712444264
 10
12.2291031541864
 20
0.9844885324808511
 10
12.22848925896897
 20
0.9843602020654644
 10
12.22782057098989
 20
0.984278012923026
 10
12.22710610221658
 20
0.9842502560635121
 10
12.2185876301771
 20
0.9842502560635121
 10
12.2185876301771
 20
0.9940970920937366
 97
        0
 92
       18
 72
     0
 73
     1
 93
       19
 10
12.25424654315654
 20
1.002075206569541
 10
12.2549152311356
 20
1.002047810188728
 10
12.25552912635303
 20
1.001965260567594
 10
12.25606948391671
 20
1.001809533771392
 10
12.25653666430531
 20
1.001580629800126
 10
12.25691228310542
 20
1.001260164240346
 10
12.25719597983831
 20
1.000838764645992
 10
12.25737009104796
 20
1.00031643101706
 10
12.25743425625565
 20
0.9996845118648839
 10
12.25737009104796
 20
0.9990342082992643
 10
12.25719597983831
 20
0.9984754663221475
 10
12.25691228310542
 20
0.9980176583796079
 10
12.25653666430531
 20
0.997651051546879
 10
12.25606948391671
 20
0.9973669943352934
 10
12.25552912635303
 20
0.9971748591908991
 10
12.2549152311356
 20
0.9970559012215804
 10
12.25424654315654
 20
0.9970191323947002
 10
12.24892479618355
 20
0.9970191323947002
 10
12.24892479618355
 20
1.002075206569541
 97
        0
 92
       18
 72
     0
 73
     1
 93
       19
 10
12.25530923434913
 20
0.9924940433374677
 10
12.25604208753589
 20
0.992448262543212
 10
12.256664634242
 20
0.9923019081930743
 10
12.2571685834575
 20
0.9920636317757408
 10
12.25757159863841
 20
0.9917337937699021
 10
12.25786466781737
 20
0.9913123941755416
 10
12.2580755478539
 20
0.9908178174061241
 10
12.25819450582321
 20
0.9902316790481919
 10
12.2582312746501
 20
0.9895723635151967
 10
12.25819450582321
 20
0.9889858646785815
 10
12.25805716344045
 20
0.9884364951475291
 10
12.25780987505575
 20
0.9879419183781093
 10
12.25743425625565
 20
0.9875111463376902
 10
12.25691228310542
 20
0.9871448999836594
 10
12.25621583826685
 20
0.9868792271855077
 10
12.25532761876258
 20
0.9867051159758681
 10
12.25424654315654
 20
0.9866409507681719
 10
12.2491904689817
 20
0.9866409507681719
 10
12.2491904689817
 20
0.9924940433374677
 97
        0
 92
       18
 72
     0
 73
     1
 93
        3
 10
12.37397377401258
 20
1.000747203057486
 10
12.37689581431354
 20
0.9903690214309573
 10
12.3707770489461
 20
0.9903690214309573
 97
        0
 75
     0
 76
     1
 98
        0
  0
HATCH
  5
85
102
{ACAD_REACTORS
330
84
102
}
330
1F
100
AcDbEntity
  8
XR$1$TB_314_1
  6
AUSGEZOGEN
 62
     3
440
 33554687
370
    35
100
AcDbHatch
 10
0.0
 20
0.0
 30
0.0
210
0.0
220
0.0
230
1.0
  2
SOLID
 70
     1
 71
     0
 91
        1
 92
        3
 72
     0
 73
     1
 93
       22
 10
12.09727609545693
 20
0.98185054939148
 10
12.11244467846014
 20
0.98185054939148
 10
12.11116245574234
 20
0.9826933485801888
 10
12.10991664137273
 20
0.9836093249439574
 10
12.10871660779735
 20
0.9846168628962377
 10
12.10758073942968
 20
0.9857159624370279
 10
12.10652742068316
 20
0.9869066235663235
 10
12.10555665155776
 20
0.9882166031436364
 10
12.10468645598824
 20
0.9896361682442012
 10
12.10392620642067
 20
0.9911660398254099
 10
12.10345902603206
 20
0.9921645658103116
 10
12.10305601085115
 20
0.9931721037625894
 10
12.10270778843186
 20
0.9941796417148763
 10
12.1024147192529
 20
0.995187179667154
 10
12.10201170407199
 20
0.9972116280177797
 10
12.10182858089496
 20
0.9992173314762768
 10
12.10186498924316
 20
1.001195999032652
 10
12.10209425369312
 20
1.003137897762148
 10
12.10251565328748
 20
1.005034015697384
 10
12.10279935002038
 20
1.005959004028531
 10
12.10312918802621
 20
1.006865968424924
 10
12.09727609545693
 20
1.006865968424924
 97
        0
 75
     0
 76
     1
 98
        0
  0
HATCH
  5
86
102
{ACAD_REACTORS
330
84
102
}
330
1F
100
AcDbEntity
  8
XR$1$TB_314_1
  6
AUSGEZOGEN
 62
     3
440
 33554687
370
    35
100
AcDbHatch
 10
0.0
 20
0.0
 30
0.0
210
0.0
220
0.0
230
1.0
  2
SOLID
 70
     1
 71
     0
 91
        1
 92
        3
 72
     0
 73
     1
 93
       24
 10
12.10984346419765
 20
0.9855692476082009
 10
12.11105250974038
 20
0.9844517636539708
 10
12.11238051325244
 20
0.9834442257016899
 10
12.11381846276646
 20
0.9825834025782424
 10
12.11536671876111
 20
0.98185054939148
 10
12.12228214204431
 20
0.98185054939148
 10
12.12228214204431
 20
1.006865968424924
 10
12.10871660779735
 20
1.006865968424924
 10
12.10815786582024
 20
1.006224676826677
 10
12.10768167346427
 20
1.005501196085988
 10
12.106857258689
 20
1.003934555677903
 10
12.10648163988891
 20
1.003137897762148
 10
12.10615180188306
 20
1.002322494954249
 10
12.10587711711754
 20
1.001507452625055
 10
12.10564821314626
 20
1.000683037849795
 10
12.10532738710778
 20
0.9990342082992643
 10
12.10519004472503
 20
0.9973853787487333
 10
12.10522681355191
 20
0.9957365491981964
 10
12.10542832114237
 20
0.9941244884745556
 10
12.1057945674964
 20
0.992539824131718
 10
12.10631690112533
 20
0.991001301061835
 10
12.10699460107177
 20
0.9895265827209437
 10
12.10781000387965
 20
0.9881156691090569
 10
12.10876238859161
 20
0.9867966775643745
 97
        0
 75
     0
 76
     1
 98
        0
  0
HATCH
  5
87
330
1F
100
AcDbEntity
  8
XR$1$TB_314_1
  6
AUSGEZOGEN
 62
   252
440
 33554687
370
    18
100
AcDbHatch
 10
0.0
 20
0.0
 30
0.0
210
0.0
220
0.0
230
1.0
  2
SOLID
 70
     1
 71
     0
 91
        1
 92
        3
 72
     0
 73
     1
 93
       18
 10
12.51130607199328
 20
1.515130295224533
 10
12.51130607199328
 20
1.485130295224533
 10
12.57130607199328
 20
1.485130295224533
 10
12.57130607199328
 20
1.560872935911635
 10
12.56554871268039
 20
1.566630295224515
 10
12.57130607199328
 20
1.572387654537402
 10
12.57130607199328
 20
1.642130295224533
 10
12.51730607199328
 20
1.642130295224533
 10
12.51730607199328
 20
1.615130295224504
 10
12.52030607199328
 20
1.615130295224504
 10
12.52030607199328
 20
1.639130295224504
 10
12.56830607199322
 20
1.639130295224504
 10
12.56830607199322
 20
1.573630295224453
 10
12.56130607199328
 20
1.566630295224515
 10
12.56830607199322
 20
1.559630295224584
 10
12.56830607199328
 20
1.488130295224533
 10
12.51430607199328
 20
1.488130295224533
 10
12.51430607199328
 20
1.515130295224533
 97
        0
 75
     0
 76
     1
 98
        0
  0
HATCH
  5
88
330
1F
100
AcDbEntity
  8
XR$1$TB_314_1
  6
AUSGEZOGEN
 62
   252
440
 33554687
370
    18
100
AcDbHatch
 10
0.0
 20
0.0
 30
0.0
210
0.0
220
0.0
230
1.0
  2
SOLID
 70
     1
 71
     0
 91
        1
 92
        3
 72
     0
 73
     1
 93
       18
 10
12.56530607199328
 20
1.515130295224533
 10
12.56530607199328
 20
1.491130295224533
 10
12.51730607199328
 20
1.491130295224533
 10
12.51730607199328
 20
1.559630295224515
 10
12.52430607199328
 20
1.566630295224515
 10
12.51730607199328
 20
1.573630295224515
 10
12.51730607199328
 20
1.642130295224533
 10
12.57130607199328
 20
1.642130295224533
 10
12.57130607199328
 20
1.615130295224504
 10
12.57430607199328
 20
1.615130295224504
 10
12.57430607199328
 20
1.645130295224504
 10
12.51430607199328
 20
1.645130295224504
 10
12.51430607199328
 20
1.572387654537402
 10
12.52006343130615
 20
1.566630295224515
 10
12.51430607199328
 20
1.560872935911635
 10
12.51430607199328
 20
1.488130295224533
 10
12.56830607199328
 20
1.488130295224533
 10
12.56830607199328
 20
1.515130295224533
 97
        0
 75
     0
 76
     1
 98
        0
  0
HATCH
  5
89
330
1F
100
AcDbEntity
  8
XR$1$TB_314_1
  6
AUSGEZOGEN
 62
   254
440
 33554687
370
    18
100
AcDbHatch
 10
0.0
 20
0.0
 30
0.0
210
0.0
220
0.0
230
1.0
  2
SOLID
 70
     1
 71
     0
 91
        1
 92
        3
 72
     0
 73
     1
 93
        4
 10
12.57430607199328
 20
1.655130295224533
 10
11.97631024718136
 20
1.655130295224533
 10
11.97631024718136
 20
1.645130295224533
 10
12.57430607199328
 20
1.645130295224533
 97
        0
 75
     0
 76
     1
 98
        0
  0
HATCH
  5
8A
330
1F
100
AcDbEntity
  8
XR$1$TB_314_1
  6
AUSGEZOGEN
 62
   254
440
 33554687
370
    18
100
AcDbHatch
 10
0.0
 20
0.0
 30
0.0
210
0.0
220
0.0
230
1.0
  2
SOLID
 70
     1
 71
     0
 91
        1
 92
        3
 72
     0
 73
     1
 93
        4
 10
12.57430607199328
 20
1.655130295224533
 10
12.57430607199328
 20
1.665130295224533
 10
11.97631024718136
 20
1.665130295224533
 10
11.97631024718136
 20
1.655130295224533
 97
        0
 75
     0
 76
     1
 98
        0
  0
HATCH
  5
8B
330
1F
100
AcDbEntity
  8
XR$1$TB_314_1
  6
AUSGEZOGEN
 62
   254
440
 33554687
370
    18
100
AcDbHatch
 10
0.0
 20
0.0
 30
0.0
210
0.0
220
0.0
230
1.0
  2
SOLID
 70
     1
 71
     0
 91
        1
 92
        3
 72
     0
 73
     1
 93
        4
 10
11.97631024718136
 20
1.485130295224533
 10
11.97631024718136
 20
1.475130295224533
 10
12.57130607199328
 20
1.475130295224533
 10
12.57130607199328
 20
1.485130295224533
 97
        0
 75
     0
 76
     1
 98
        0
  0
HATCH
  5
8C
330
1F
100
AcDbEntity
  8
XR$1$TB_314_1
  6
AUSGEZOGEN
 62
    18
420
        0
440
 33554687
370
    18
100
AcDbHatch
 10
0.0
 20
0.0
 30
0.0
210
0.0
220
0.0
230
1.0
  2
SOLID
 70
     1
 71
     0
 91
        1
 92
        3
 72
     0
 73
     1
 93
       14
 10
12.60830607199328
 20
1.622004884946988
 10
12.57430607199328
 20
1.622004884946988
 10
12.57430607199328
 20
1.619004884946988
 10
12.59630607199328
 20
1.619004884946988
 10
12.59630607199328
 20
1.602351235838912
 10
12.59930607199328
 20
1.602351235838912
 10
12.60130607199328
 20
1.605351235838913
 10
12.59930607199328
 20
1.605351235838913
 10
12.59930607199328
 20
1.619004884946988
 10
12.60530607199328
 20
1.619004884946988
 10
12.60530607199328
 20
1.605351235838913
 10
12.60330607199328
 20
1.605351235838913
 10
12.60530607199328
 20
1.602351235838912
 10
12.60830607199328
 20
1.602351235838912
 97
        0
 75
     0
 76
     1
 98
        0
  0
HATCH
  5
8E
102
{ACAD_REACTORS
330
8D
102
}
330
1F
100
AcDbEntity
  8
XR$1$TB_314_1
  6
AUSGEZOGEN
 62
     9
440
 33554687
370
    18
100
AcDbHatch
 10
0.0
 20
0.0
 30
0.0
210
0.0
220
0.0
230
1.0
  2
SOLID
 70
     1
 71
     0
 91
        1
 92
        3
 72
     0
 73
     1
 93
        4
 10
11.97631024718136
 20
1.424426399450551
 10
11.97631024718136
 20
1.404426399450624
 10
12.10700495969587
 20
1.404426399450624
 10
12.10700495969587
 20
1.424426399450551
 97
        0
 75
     0
 76
     1
 98
        0
  0
HATCH
  5
8F
102
{ACAD_REACTORS
330
8D
102
}
330
1F
100
AcDbEntity
  8
XR$1$TB_314_1
  6
AUSGEZOGEN
 62
     9
440
 33554687
370
    18
100
AcDbHatch
 10
0.0
 20
0.0
 30
0.0
210
0.0
220
0.0
230
1.0
  2
SOLID
 70
     1
 71
     0
 91
        1
 92
        3
 72
     0
 73
     1
 93
        5
 10
12.60468475164972
 20
1.4245560890469
 10
12.11500495969587
 20
1.4245560890469
 10
12.11500495969587
 20
1.404426399450624
 10
12.62168475164965
 20
1.404556089046971
 10
12.62168475164965
 20
1.407556089046972
 97
        0
 75
     0
 76
     1
 98
        0
  0
HATCH
  5
90
102
{ACAD_REACTORS
330
8D
102
}
330
1F
100
AcDbEntity
  8
XR$1$TB_314_1
  6
AUSGEZOGEN
 62
     9
440
 33554687
370
    18
100
AcDbHatch
 10
0.0
 20
0.0
 30
0.0
210
0.0
220
0.0
230
1.0
  2
SOLID
 70
     1
 71
     0
 91
        1
 92
        3
 72
     0
 73
     1
 93
        5
 10
12.60680607199328
 20
1.426677409390461
 10
12.6238060719932
 20
1.409677409390532
 10
12.6268060719932
 20
1.409677409390532
 10
12.6268060719932
 20
1.601380295224537
 10
12.60680607199328
 20
1.601380295224537
 97
        0
 75
     0
 76
     1
 98
        0
  0
HATCH
  5
91
330
1F
100
AcDbEntity
  8
XR$1$TB_314_1
  6
AUSGEZOGEN
 62
     8
420
  7303023
440
 33554687
370
    18
100
AcDbHatch
 10
0.0
 20
0.0
 30
0.0
210
0.0
220
0.0
230
1.0
  2
SOLID
 70
     1
 71
     0
 91
        1
 92
        3
 72
     0
 73
     1
 93
        4
 10
12.55630607199328
 20
1.468130295224533
 10
12.55630607199328
 20
1.473130295224533
 10
12.52630607199328
 20
1.473130295224533
 10
12.52630607199328
 20
1.468130295224533
 97
        0
 75
     0
 76
     1
 98
        0
  0
MTEXT
  5
92
330
1F
100
AcDbEntity
  8
XR$1$TB_314_1
  6
AUSGEZOGEN
 62
     7
440
 33554687
370
    18
100
AcDbMText
 10
12.001638
 20
0.925865
 30
0.0
 40
0.009
 41
0.89646
 46
0.0
 71
     7
 72
     5
  1
\W0.85;THESE ARE NOT BINDING CONSTRUCTION PROPOSALS WHICH HAVE TO BE VERIFIED FOR EACH INDIVIDUAL PROJECT AS REGARDS APPLICABILITY AND CORRECTNESS.
  7
ARIAL
 73
     1
 44
1.0
  0
MTEXT
  5
93
330
1F
100
AcDbEntity
  8
XR$1$TB_314_1
  6
AUSGEZOGEN
 62
     7
440
 33554687
370
    18
100
AcDbMText
 10
12.001638
 20
0.943864
 30
0.0
 40
0.009
 41
0.8975
 46
0.0
 71
     7
 72
     5
  1
\W0.91;DIES SIND UNVERBINDLICHE KONSTRUKTIONSVORSCHLÄGE, DIE FÜR JEDES PROJEKT AUF ANWENDBARKEIT UND RICHTIGKEIT GEPRÜFT WERDEN MÜSSEN.
  7
ARIAL
 73
     1
 44
1.0
  0
MTEXT
  5
94
330
1F
100
AcDbEntity
  8
XR$1$TB_314_1
  6
AUSGEZOGEN
 62
     7
440
 33554687
370
    18
100
AcDbMText
 10
12.001638
 20
0.907865
 30
0.0
 40
0.009
 41
0.895804
 46
0.0
 71
     7
 72
     5
  1
\W0.80;IL S' AGIT DE PROPOSITIONS DE CONSTRUCTION SANS ENGAGEMENT DE NOTRE PART QUI DOIVENT ETRE VERIFIEES POUR CHAQUE PROJET A LEUR EXACTITUDE ET FAISABILITE.
  7
ARIAL
 73
     1
 44
1.0
  0
MTEXT
  5
95
330
1F
100
AcDbEntity
  8
XR$1$TB_314_1
  6
AUSGEZOGEN
 62
     7
440
 33554687
370
    18
100
AcDbMText
 10
12.416299
 20
0.981793
 30
0.0
 40
0.009
 41
0.348436
 46
0.0
 71
     7
 72
     5
  1
\W0.92;Tel. 09435 / 391 3238   e-mail: as.fassade@deutsche-steinzeug.de
  7
ARIAL
 73
     1
 44
1.0
  0
MTEXT
  5
96
330
1F
100
AcDbEntity
  8
XR$1$TB_314_1
  6
AUSGEZOGEN
 62
     7
440
 33554687
370
    18
100
AcDbMText
 10
12.008366
 20
2.261378
 30
0.0
 40
0.025
 41
0.593348
 46
0.0
 71
     7
 72
     5
  1
\W1.00;FENSTERLEIBUNG MIT KERATWIN
  7
ARIAL
 73
     1
 44
1.0
  0
MTEXT
  5
97
330
1F
100
AcDbEntity
  8
XR$1$TB_314_1
  6
AUSGEZOGEN
 62
     7
440
 33554687
370
    18
100
AcDbMText
 10
12.008366
 20
2.200117
 30
0.0
 40
0.0175
 41
0.53552
 46
0.0
 71
     7
 72
     5
  1
\W1.00;EMBRASURE DE FENETRE AVEC KERATWIN
  7
ARIAL
 73
     1
 44
1.0
  0
MTEXT
  5
98
330
1F
100
AcDbEntity
  8
XR$1$TB_314_1
  6
AUSGEZOGEN
 62
     7
440
 33554687
370
    18
100
AcDbMText
 10
12.008366
 20
2.226367
 30
0.0
 40
0.0175
 41
0.483303
 46
0.0
 71
     7
 72
     5
  1
\W1.00;WINDOW EMBRASURE WITH KERATWIN
  7
ARIAL
 73
     1
 44
1.0
  0
MTEXT
  5
99
330
1F
100
AcDbEntity
  8
XR$1$TB_314_1
  6
AUSGEZOGEN
 62
     7
440
 33554687
370
    18
100
AcDbMText
 10
12.136713
 20
2.167424
 30
0.0
 40
0.01
 41
0.024254
 46
0.0
 71
     7
 72
     5
  1
\A1;{\fArial|i0|b0;\H0.017500;\W0.911111;\C7;®}\P
  7
ARIAL
 73
     1
 44
1.0
  0
MTEXT
  5
9A
330
1F
100
AcDbEntity
  8
XR$1$TB_314_1
  6
AUSGEZOGEN
 62
     7
440
 33554687
370
    18
100
AcDbMText
 10
12.001996
 20
2.160069
 30
0.0
 40
0.0225
 41
0.244144
 46
0.0
 71
     7
 72
     5
  1
\W1.00;KeraTwin    K20 
  7
ARIAL
 73
     1
 44
1.0
  0
MTEXT
  5
9B
330
1F
100
AcDbEntity
  8
XR$1$TB_314_1
  6
AUSGEZOGEN
 62
     7
440
 33554687
370
    18
100
AcDbMText
 10
12.001658
 20
2.125198
 30
0.0
 40
0.0175
 41
0.590635
 46
0.0
 71
     7
 72
     5
  1
\W1.00;OMEGAPROFIL AUF HORIZONTALEM HUTPROFIL
  7
ARIAL
 73
     1
 44
1.0
  0
MTEXT
  5
9C
330
1F
100
AcDbEntity
  8
XR$1$TB_314_1
  6
AUSGEZOGEN
 62
     5
440
 33554687
370
    18
100
AcDbMText
 10
12.001658
 20
2.099757
 30
0.0
 40
0.0175
 41
0.643423
 46
0.0
 71
     7
 72
     5
  1
\W1.00;OMEGA SYSTEM RAIL ON HORIZONTAL HAT PROFILE
  7
ARIAL
 73
     1
 44
1.0
  0
MTEXT
  5
9D
330
1F
100
AcDbEntity
  8
XR$1$TB_314_1
  6
AUSGEZOGEN
 62
     5
440
 33554687
370
    18
100
AcDbMText
 10
12.001658
 20
2.075262
 30
0.0
 40
0.0175
 41
0.710513
 46
0.0
 71
     7
 72
     5
  1
\W1.00;RAIL SYSTEME OMEGA SUR PROFILE CHAPE HORIZONTAL
  7
ARIAL
 73
     1
 44
1.0
  0
LWPOLYLINE
  5
9E
330
1F
100
AcDbEntity
  8
XR$1$TB_314_1
  6
AUSGEZOGEN
 62
     7
440
 33554687
370
    18
100
AcDbPolyline
 90
        8
 70
     0
 43
0.0
 10
12.603306
 20
1.546269
 10
12.603321
 20
1.546328
 10
12.60341
 20
1.546795
 10
12.603433
 20
1.547029
 10
12.603438
 20
1.5472
 10
12.603434
 20
1.547375
 10
12.603406
 20
1.547626
 10
12.603306
 20
1.547996
  0
LWPOLYLINE
  5
9F
330
1F
100
AcDbEntity
  8
XR$1$TB_314_1
  6
AUSGEZOGEN
 62
     7
440
 33554687
370
    18
100
AcDbPolyline
 90
        8
 70
     0
 43
0.0
 10
12.603306
 20
1.560265
 10
12.603362
 20
1.560482
 10
12.603413
 20
1.560685
 10
12.603435
 20
1.560915
 10
12.603438
 20
1.561086
 10
12.603431
 20
1.561262
 10
12.603403
 20
1.561516
 10
12.603306
 20
1.561991
  0
LWPOLYLINE
  5
A0
330
1F
100
AcDbEntity
  8
XR$1$TB_314_1
  6
AUSGEZOGEN
 62
     7
440
 33554687
370
    18
100
AcDbPolyline
 90
        3
 70
     0
 43
0.0
 10
12.603306
 20
1.53313
 10
12.604058
 20
1.536038
 10
12.606062
 20
1.538178
  0
LWPOLYLINE
  5
A1
330
1F
100
AcDbEntity
  8
XR$1$TB_314_1
  6
AUSGEZOGEN
 62
     7
440
 33554687
370
    18
100
AcDbPolyline
 90
        3
 70
     0
 43
0.0
 10
12.603306
 20
1.57513
 10
12.604058
 20
1.572223
 10
12.606062
 20
1.570083
  0
LWPOLYLINE
  5
A2
330
1F
100
AcDbEntity
  8
XR$1$TB_314_1
  6
AUSGEZOGEN
 62
     7
440
 33554687
370
    18
100
AcDbPolyline
 90
        3
 70
     0
 43
0.0
 10
12.606806
 20
1.567227
 10
12.606652
 20
1.567326
 10
12.60498
 20
1.568401
  0
LWPOLYLINE
  5
A3
330
1F
100
AcDbEntity
  8
XR$1$TB_314_1
  6
AUSGEZOGEN
 62
     7
440
 33554687
370
    13
100
AcDbPolyline
 90
        4
 70
     0
 43
0.0
 10
12.615506
 20
1.55013
 10
12.614317
 20
1.549379
 10
12.613949
 20
1.549203
 10
12.613635
 20
1.54913
  0
LWPOLYLINE
  5
A4
330
1F
100
AcDbEntity
  8
XR$1$TB_314_1
  6
AUSGEZOGEN
 62
     7
440
 33554687
370
    13
100
AcDbPolyline
 90
        4
 70
     0
 43
0.0
 10
12.613635
 20
1.55913
 10
12.613949
 20
1.559058
 10
12.614317
 20
1.558881
 10
12.615506
 20
1.55813
  0
LWPOLYLINE
  5
A5
330
1F
100
AcDbEntity
  8
XR$1$TB_314_1
  6
AUSGEZOGEN
 62
     7
440
 33554687
370
    13
100
AcDbPolyline
 90
        5
 70
     0
 43
0.0
 10
12.613502
 20
1.54613
 10
12.614006
 20
1.54726
 10
12.614239
 20
1.54824
 10
12.614295
 20
1.548762
 10
12.614306
 20
1.54913
  0
LWPOLYLINE
  5
A6
330
1F
100
AcDbEntity
  8
XR$1$TB_314_1
  6
AUSGEZOGEN
 62
     7
440
 33554687
370
    13
100
AcDbPolyline
 90
        5
 70
     0
 43
0.0
 10
12.616306
 20
1.54913
 10
12.616275
 20
1.548425
 10
12.616147
 20
1.547546
 10
12.615973
 20
1.546849
 10
12.615722
 20
1.54613
  0
LWPOLYLINE
  5
A7
330
1F
100
AcDbEntity
  8
XR$1$TB_314_1
  6
AUSGEZOGEN
 62
     7
440
 33554687
370
    13
100
AcDbPolyline
 90
        3
 70
     0
 43
0.0
 10
12.612632
 20
1.542401
 10
12.61534
 20
1.545319
 10
12.615722
 20
1.54613
  0
LWPOLYLINE
  5
A8
330
1F
100
AcDbEntity
  8
XR$1$TB_314_1
  6
AUSGEZOGEN
 62
     7
440
 33554687
370
    13
100
AcDbPolyline
 90
        3
 70
     0
 43
0.0
 10
12.609467
 20
1.540366
 10
12.610088
 20
1.540765
 10
12.612632
 20
1.542401
  0
LWPOLYLINE
  5
A9
330
1F
100
AcDbEntity
  8
XR$1$TB_314_1
  6
AUSGEZOGEN
 62
     7
440
 33554687
370
    13
100
AcDbPolyline
 90
        5
 70
     0
 43
0.0
 10
12.614306
 20
1.55913
 10
12.614265
 20
1.559825
 10
12.61409
 20
1.560724
 10
12.613855
 20
1.561411
 10
12.613502
 20
1.56213
  0
LWPOLYLINE
  5
AA
330
1F
100
AcDbEntity
  8
XR$1$TB_314_1
  6
AUSGEZOGEN
 62
     7
440
 33554687
370
    13
100
AcDbPolyline
 90
        5
 70
     0
 43
0.0
 10
12.615722
 20
1.56213
 10
12.616097
 20
1.560943
 10
12.616265
 20
1.559935
 10
12.616299
 20
1.559464
 10
12.616306
 20
1.55913
  0
LWPOLYLINE
  5
AB
330
1F
100
AcDbEntity
  8
XR$1$TB_314_1
  6
AUSGEZOGEN
 62
     7
440
 33554687
370
    13
100
AcDbPolyline
 90
        3
 70
     0
 43
0.0
 10
12.612632
 20
1.56586
 10
12.61534
 20
1.562941
 10
12.615722
 20
1.56213
  0
ARC
  5
AC
330
1F
100
AcDbEntity
  8
XR$1$TB_314_1
  6
AUSGEZOGEN
 62
     7
440
 33554687
370
    13
100
AcDbCircle
 10
12.615606
 20
1.555156
 30
0.0
 40
0.0012
100
AcDbArc
 50
0.0
 51
54.314665
  0
ARC
  5
AD
330
1F
100
AcDbEntity
  8
XR$1$TB_314_1
  6
AUSGEZOGEN
 62
     7
440
 33554687
370
    13
100
AcDbCircle
 10
12.615606
 20
1.553105
 30
0.0
 40
0.0012
100
AcDbArc
 50
305.685335
 51
0.0
  0
LWPOLYLINE
  5
AE
330
1F
100
AcDbEntity
  8
XR$1$TB_314_1
  6
AUSGEZOGEN
 62
     7
440
 33554687
370
    13
100
AcDbPolyline
 90
        3
 70
     0
 43
0.0
 10
12.61155
 20
1.564178
 10
12.608414
 20
1.566194
 10
12.606806
 20
1.567227
  0
LWPOLYLINE
  5
AF
330
1F
100
AcDbEntity
  8
XR$1$TB_314_1
  6
AUSGEZOGEN
 62
     7
440
 33554687
370
    13
100
AcDbPolyline
 90
        4
 70
     0
 43
0.0
 10
12.606806
 20
1.569605
 10
12.607528
 20
1.56914
 10
12.610088
 20
1.567495
 10
12.612632
 20
1.56586
  0
ARC
  5
B0
330
1F
100
AcDbEntity
  8
XR$1$TB_314_1
  6
AUSGEZOGEN
 62
     7
440
 33554687
370
    18
100
AcDbCircle
 10
12.604806
 20
1.46263
 30
0.0
 40
0.0035000000000038
100
AcDbArc
 50
251.819979
 51
255.0
  0
ARC
  5
B1
330
1F
100
AcDbEntity
  8
XR$1$TB_314_1
  6
AUSGEZOGEN
 62
     7
440
 33554687
370
    18
100
AcDbCircle
 10
12.603606
 20
1.458086
 30
0.0
 40
0.0012
100
AcDbArc
 50
0.0
 51
75.0
  0
LWPOLYLINE
  5
B2
330
1F
100
AcDbEntity
  8
XR$1$TB_314_1
  6
AUSGEZOGEN
 62
     7
440
 33554687
370
    18
100
AcDbPolyline
 90
        8
 70
     0
 43
0.0
 10
12.603306
 20
1.470269
 10
12.603321
 20
1.470328
 10
12.60341
 20
1.470795
 10
12.603433
 20
1.471029
 10
12.603438
 20
1.4712
 10
12.603434
 20
1.471375
 10
12.603406
 20
1.471626
 10
12.603306
 20
1.471996
  0
LWPOLYLINE
  5
B3
330
1F
100
AcDbEntity
  8
XR$1$TB_314_1
  6
AUSGEZOGEN
 62
     7
440
 33554687
370
    18
100
AcDbPolyline
 90
        8
 70
     0
 43
0.0
 10
12.603306
 20
1.484265
 10
12.603362
 20
1.484482
 10
12.603413
 20
1.484685
 10
12.603435
 20
1.484915
 10
12.603438
 20
1.485086
 10
12.603431
 20
1.485262
 10
12.603403
 20
1.485516
 10
12.603306
 20
1.485991
  0
LWPOLYLINE
  5
B4
330
1F
100
AcDbEntity
  8
XR$1$TB_314_1
  6
AUSGEZOGEN
 62
     7
440
 33554687
370
    18
100
AcDbPolyline
 90
        3
 70
     0
 43
0.0
 10
12.603306
 20
1.45713
 10
12.604058
 20
1.460038
 10
12.606062
 20
1.462178
  0
LWPOLYLINE
  5
B5
330
1F
100
AcDbEntity
  8
XR$1$TB_314_1
  6
AUSGEZOGEN
 62
     7
440
 33554687
370
    18
100
AcDbPolyline
 90
        3
 70
     0
 43
0.0
 10
12.603306
 20
1.49913
 10
12.604058
 20
1.496223
 10
12.606062
 20
1.494083
  0
ARC
  5
B6
330
1F
100
AcDbEntity
  8
XR$1$TB_314_1
  6
AUSGEZOGEN
 62
     7
440
 33554687
370
    18
100
AcDbCircle
 10
12.603306
 20
1.457856
 30
0.0
 40
0.0015
100
AcDbArc
 50
0.0
 51
74.296716
  0
ARC
  5
B7
330
1F
100
AcDbEntity
  8
XR$1$TB_314_1
  6
AUSGEZOGEN
 62
     7
440
 33554687
370
    18
100
AcDbCircle
 10
12.603306
 20
1.458086
 30
0.0
 40
0.0035
100
AcDbArc
 50
0.0
 51
62.919489
  0
LWPOLYLINE
  5
B8
330
1F
100
AcDbEntity
  8
XR$1$TB_314_1
  6
AUSGEZOGEN
 62
     7
440
 33554687
370
    18
100
AcDbPolyline
 90
        3
 70
     0
 43
0.0
 10
12.606806
 20
1.491227
 10
12.606652
 20
1.491326
 10
12.60498
 20
1.492401
  0
ARC
  5
B9
330
1F
100
AcDbEntity
  8
XR$1$TB_314_1
  6
AUSGEZOGEN
 62
     7
440
 33554687
370
    18
100
AcDbCircle
 10
12.603606
 20
1.458316
 30
0.0
 40
0.0032
100
AcDbArc
 50
0.0
 51
65.63388
  0
LWPOLYLINE
  5
BA
330
1F
100
AcDbEntity
  8
XR$1$TB_314_1
  6
AUSGEZOGEN
 62
     7
440
 33554687
370
    13
100
AcDbPolyline
 90
        4
 70
     0
 43
0.0
 10
12.615506
 20
1.47413
 10
12.614317
 20
1.473379
 10
12.613949
 20
1.473203
 10
12.613635
 20
1.47313
  0
LWPOLYLINE
  5
BB
330
1F
100
AcDbEntity
  8
XR$1$TB_314_1
  6
AUSGEZOGEN
 62
     7
440
 33554687
370
    13
100
AcDbPolyline
 90
        4
 70
     0
 43
0.0
 10
12.613635
 20
1.48313
 10
12.613949
 20
1.483058
 10
12.614317
 20
1.482881
 10
12.615506
 20
1.48213
  0
LWPOLYLINE
  5
BC
330
1F
100
AcDbEntity
  8
XR$1$TB_314_1
  6
AUSGEZOGEN
 62
     7
440
 33554687
370
    13
100
AcDbPolyline
 90
        5
 70
     0
 43
0.0
 10
12.613502
 20
1.47013
 10
12.614006
 20
1.47126
 10
12.614239
 20
1.47224
 10
12.614295
 20
1.472762
 10
12.614306
 20
1.47313
  0
LWPOLYLINE
  5
BD
330
1F
100
AcDbEntity
  8
XR$1$TB_314_1
  6
AUSGEZOGEN
 62
     7
440
 33554687
370
    13
100
AcDbPolyline
 90
        5
 70
     0
 43
0.0
 10
12.616306
 20
1.47313
 10
12.616275
 20
1.472425
 10
12.616147
 20
1.471546
 10
12.615973
 20
1.470849
 10
12.615722
 20
1.47013
  0
LWPOLYLINE
  5
BE
330
1F
100
AcDbEntity
  8
XR$1$TB_314_1
  6
AUSGEZOGEN
 62
     7
440
 33554687
370
    13
100
AcDbPolyline
 90
        3
 70
     0
 43
0.0
 10
12.612632
 20
1.466401
 10
12.61534
 20
1.469319
 10
12.615722
 20
1.47013
  0
LWPOLYLINE
  5
BF
330
1F
100
AcDbEntity
  8
XR$1$TB_314_1
  6
AUSGEZOGEN
 62
     7
440
 33554687
370
    13
100
AcDbPolyline
 90
        3
 70
     0
 43
0.0
 10
12.609467
 20
1.464366
 10
12.610088
 20
1.464765
 10
12.612632
 20
1.466401
  0
LWPOLYLINE
  5
C0
330
1F
100
AcDbEntity
  8
XR$1$TB_314_1
  6
AUSGEZOGEN
 62
     7
440
 33554687
370
    13
100
AcDbPolyline
 90
        5
 70
     0
 43
0.0
 10
12.614306
 20
1.48313
 10
12.614265
 20
1.483825
 10
12.61409
 20
1.484724
 10
12.613855
 20
1.485411
 10
12.613502
 20
1.48613
  0
LWPOLYLINE
  5
C1
330
1F
100
AcDbEntity
  8
XR$1$TB_314_1
  6
AUSGEZOGEN
 62
     7
440
 33554687
370
    13
100
AcDbPolyline
 90
        5
 70
     0
 43
0.0
 10
12.615722
 20
1.48613
 10
12.616097
 20
1.484943
 10
12.616265
 20
1.483935
 10
12.616299
 20
1.483464
 10
12.616306
 20
1.48313
  0
LWPOLYLINE
  5
C2
330
1F
100
AcDbEntity
  8
XR$1$TB_314_1
  6
AUSGEZOGEN
 62
     7
440
 33554687
370
    13
100
AcDbPolyline
 90
        3
 70
     0
 43
0.0
 10
12.612632
 20
1.48986
 10
12.61534
 20
1.486941
 10
12.615722
 20
1.48613
  0
ARC
  5
C3
330
1F
100
AcDbEntity
  8
XR$1$TB_314_1
  6
AUSGEZOGEN
 62
     7
440
 33554687
370
    13
100
AcDbCircle
 10
12.615606
 20
1.479156
 30
0.0
 40
0.0012
100
AcDbArc
 50
0.0
 51
54.314665
  0
ARC
  5
C4
330
1F
100
AcDbEntity
  8
XR$1$TB_314_1
  6
AUSGEZOGEN
 62
     7
440
 33554687
370
    13
100
AcDbCircle
 10
12.615606
 20
1.477105
 30
0.0
 40
0.0012
100
AcDbArc
 50
305.685335
 51
0.0
  0
LWPOLYLINE
  5
C5
330
1F
100
AcDbEntity
  8
XR$1$TB_314_1
  6
AUSGEZOGEN
 62
     7
440
 33554687
370
    13
100
AcDbPolyline
 90
        3
 70
     0
 43
0.0
 10
12.61155
 20
1.488178
 10
12.608414
 20
1.490194
 10
12.606806
 20
1.491227
  0
LWPOLYLINE
  5
C6
330
1F
100
AcDbEntity
  8
XR$1$TB_314_1
  6
AUSGEZOGEN
 62
     7
440
 33554687
370
    13
100
AcDbPolyline
 90
        4
 70
     0
 43
0.0
 10
12.606806
 20
1.493605
 10
12.607528
 20
1.49314
 10
12.610088
 20
1.491495
 10
12.612632
 20
1.48986
  0
ARC
  5
C7
330
1F
100
AcDbEntity
  8
XR$1$TB_314_1
  6
AUSGEZOGEN
 62
     7
440
 33554687
370
    13
100
AcDbCircle
 10
12.103277
 20
1.42813
 30
0.0
 40
0.0015004495729133
100
AcDbArc
 50
195.0
 51
195.703284
  0
ARC
  5
C8
330
1F
100
AcDbEntity
  8
XR$1$TB_314_1
  6
AUSGEZOGEN
 62
     7
440
 33554687
370
    13
100
AcDbCircle
 10
12.098501
 20
1.42663
 30
0.0
 40
0.0015004495729057
100
AcDbArc
 50
19.882501
 51
90.0
  0
ARC
  5
C9
330
1F
100
AcDbEntity
  8
XR$1$TB_314_1
  6
AUSGEZOGEN
 62
     7
440
 33554687
370
    13
100
AcDbCircle
 10
12.103277
 20
1.42813
 30
0.0
 40
0.0035010490034467
100
AcDbArc
 50
199.882501
 51
204.472732
  0
LWPOLYLINE
  5
CA
330
1F
100
AcDbEntity
  8
XR$1$TB_314_1
  6
AUSGEZOGEN
 62
     7
440
 33554687
370
    13
100
AcDbPolyline
 90
        3
 70
     0
 43
0.0
 10
12.153288
 20
1.426456
 10
12.154578
 20
1.427993
 10
12.154769
 20
1.42813
  0
LWPOLYLINE
  5
CB
330
1F
100
AcDbEntity
  8
XR$1$TB_314_1
  6
AUSGEZOGEN
 62
     7
440
 33554687
370
    13
100
AcDbPolyline
 90
        3
 70
     0
 43
0.0
 10
12.068722
 20
1.426456
 10
12.067432
 20
1.427993
 10
12.067241
 20
1.42813
  0
LWPOLYLINE
  5
CC
330
1F
100
AcDbEntity
  8
XR$1$TB_314_1
  6
AUSGEZOGEN
 62
     7
440
 33554687
370
    13
100
AcDbPolyline
 90
        3
 70
     0
 43
0.0
 10
12.097271
 20
1.426456
 10
12.098562
 20
1.427993
 10
12.098752
 20
1.42813
  0
ARC
  5
CD
330
1F
100
AcDbEntity
  8
XR$1$TB_314_1
  6
AUSGEZOGEN
 62
     7
440
 33554687
370
    13
100
AcDbCircle
 10
12.098501
 20
1.42663
 30
0.0
 40
0.0035010490034467
100
AcDbArc
 50
18.180021
 51
25.376934
  0
ARC
  5
CE
330
1F
100
AcDbEntity
  8
XR$1$TB_314_1
  6
AUSGEZOGEN
 62
     7
440
 33554687
370
    18
100
AcDbCircle
 10
12.046565
 20
1.432131
 30
0.0
 40
0.002000599430541
100
AcDbArc
 50
210.0
 51
270.0
  0
ARC
  5
CF
330
1F
100
AcDbEntity
  8
XR$1$TB_314_1
  6
AUSGEZOGEN
 62
     7
440
 33554687
370
    18
100
AcDbCircle
 10
12.046565
 20
1.432131
 30
0.0
 40
0.0040011988610821
100
AcDbArc
 50
210.0
 51
270.0
  0
LWPOLYLINE
  5
D0
330
1F
100
AcDbEntity
  8
XR$1$TB_314_1
  6
AUSGEZOGEN
 62
     7
440
 33554687
370
    18
100
AcDbPolyline
 90
        3
 70
     0
 43
0.0
 10
12.06199
 20
1.42813
 10
12.064898
 20
1.427379
 10
12.067039
 20
1.425374
  0
LWPOLYLINE
  5
D1
330
1F
100
AcDbEntity
  8
XR$1$TB_314_1
  6
AUSGEZOGEN
 62
     7
440
 33554687
370
    18
100
AcDbPolyline
 90
       27
 70
     1
 43
0.0
 10
12.076771
 20
1.427631
 10
12.07737
 20
1.427389
 10
12.077749
 20
1.427104
 10
12.077995
 20
1.426477
 10
12.077741
 20
1.425833
 10
12.077268
 20
1.425425
 10
12.076717
 20
1.425215
 10
12.076423
 20
1.425173
 10
12.07626
 20
1.425167
 10
12.076122
 20
1.425171
 10
12.075961
 20
1.425185
 10
12.075677
 20
1.425232
 10
12.074709
 20
1.425569
 10
12.073671
 20
1.426148
 10
12.07268
 20
1.42685
 10
12.072147
 20
1.427337
 10
12.071994
 20
1.42765
 10
12.072167
 20
1.427833
 10
12.07259
 20
1.427926
 10
12.073062
 20
1.427961
 10
12.073354
 20
1.427969
 10
12.073561
 20
1.427971
 10
12.073767
 20
1.42797
 10
12.07405
 20
1.427965
 10
12.07469
 20
1.427938
 10
12.07576
 20
1.427837
 10
12.076771
 20
1.427631
  0
LWPOLYLINE
  5
D2
330
1F
100
AcDbEntity
  8
XR$1$TB_314_1
  6
AUSGEZOGEN
 62
     7
440
 33554687
370
    18
100
AcDbPolyline
 90
        7
 70
     0
 43
0.0
 10
12.074938
 20
1.427922
 10
12.075322
 20
1.427808
 10
12.075836
 20
1.427707
 10
12.07609
 20
1.427682
 10
12.076285
 20
1.427676
 10
12.076491
 20
1.427683
 10
12.076557
 20
1.427689
  0
LWPOLYLINE
  5
D3
330
1F
100
AcDbEntity
  8
XR$1$TB_314_1
  6
AUSGEZOGEN
 62
     7
440
 33554687
370
    18
100
AcDbPolyline
 90
       27
 70
     1
 43
0.0
 10
12.091093
 20
1.427924
 10
12.0915
 20
1.427949
 10
12.092015
 20
1.427967
 10
12.092274
 20
1.42797
 10
12.092475
 20
1.427971
 10
12.092691
 20
1.427968
 10
12.093022
 20
1.427957
 10
12.09371
 20
1.427871
 10
12.093991
 20
1.427691
 10
12.093863
 20
1.427358
 10
12.093275
 20
1.42682
 10
12.092264
 20
1.426111
 10
12.091321
 20
1.425586
 10
12.090474
 20
1.425269
 10
12.090201
 20
1.425209
 10
12.089976
 20
1.425179
 10
12.089828
 20
1.425169
 10
12.08969
 20
1.425168
 10
12.089504
 20
1.425179
 10
12.08911
 20
1.425258
 10
12.088477
 20
1.4256
 10
12.088034
 20
1.426254
 10
12.088095
 20
1.426898
 10
12.088561
 20
1.427354
 10
12.089298
 20
1.427653
 10
12.090186
 20
1.427831
 10
12.091093
 20
1.427924
  0
LWPOLYLINE
  5
D4
330
1F
100
AcDbEntity
  8
XR$1$TB_314_1
  6
AUSGEZOGEN
 62
     7
440
 33554687
370
    18
100
AcDbPolyline
 90
        7
 70
     0
 43
0.0
 10
12.089436
 20
1.427689
 10
12.089563
 20
1.42768
 10
12.089759
 20
1.427676
 10
12.089961
 20
1.427686
 10
12.090253
 20
1.427721
 10
12.090776
 20
1.427836
 10
12.091056
 20
1.427922
  0
ARC
  5
D5
330
1F
100
AcDbEntity
  8
XR$1$TB_314_1
  6
AUSGEZOGEN
 62
     7
440
 33554687
370
    18
100
AcDbCircle
 10
12.103277
 20
1.42813
 30
0.0
 40
0.0035010490034467
100
AcDbArc
 50
204.472732
 51
270.0
  0
LWPOLYLINE
  5
D6
330
1F
100
AcDbEntity
  8
XR$1$TB_314_1
  6
AUSGEZOGEN
 62
     7
440
 33554687
370
    18
100
AcDbPolyline
 90
        3
 70
     0
 43
0.0
 10
12.104003
 20
1.42813
 10
12.101095
 20
1.427379
 10
12.098954
 20
1.425374
  0
ARC
  5
D7
330
1F
100
AcDbEntity
  8
XR$1$TB_314_1
  6
AUSGEZOGEN
 62
     7
440
 33554687
370
    18
100
AcDbCircle
 10
12.103277
 20
1.42813
 30
0.0
 40
0.0015004495729057
100
AcDbArc
 50
195.703284
 51
270.0
  0
ARC
  5
D8
330
1F
100
AcDbEntity
  8
XR$1$TB_314_1
  6
AUSGEZOGEN
 62
     7
440
 33554687
370
    18
100
AcDbCircle
 10
12.118733
 20
1.42813
 30
0.0
 40
0.0035010490034467
100
AcDbArc
 50
270.0
 51
335.527268
  0
ARC
  5
D9
330
1F
100
AcDbEntity
  8
XR$1$TB_314_1
  6
AUSGEZOGEN
 62
     7
440
 33554687
370
    18
100
AcDbCircle
 10
12.118733
 20
1.42813
 30
0.0
 40
0.0015004495729559
100
AcDbArc
 50
344.296716
 51
345.0
  0
ARC
  5
DA
330
1F
100
AcDbEntity
  8
XR$1$TB_314_1
  6
AUSGEZOGEN
 62
     7
440
 33554687
370
    18
100
AcDbCircle
 10
12.118733
 20
1.42813
 30
0.0
 40
0.0015004495729057
100
AcDbArc
 50
270.0
 51
344.296716
  0
ARC
  5
DB
330
1F
100
AcDbEntity
  8
XR$1$TB_314_1
  6
AUSGEZOGEN
 62
     7
440
 33554687
370
    18
100
AcDbCircle
 10
12.123509
 20
1.42663
 30
0.0
 40
0.0035010490034499
100
AcDbArc
 50
161.819979
 51
165.0
  0
LWPOLYLINE
  5
DC
330
1F
100
AcDbEntity
  8
XR$1$TB_314_1
  6
AUSGEZOGEN
 62
     7
440
 33554687
370
    18
100
AcDbPolyline
 90
        3
 70
     0
 43
0.0
 10
12.118007
 20
1.42813
 10
12.120915
 20
1.427379
 10
12.123056
 20
1.425374
  0
LWPOLYLINE
  5
DD
330
1F
100
AcDbEntity
  8
XR$1$TB_314_1
  6
AUSGEZOGEN
 62
     7
440
 33554687
370
    18
100
AcDbPolyline
 90
        3
 70
     0
 43
0.0
 10
12.16002
 20
1.42813
 10
12.157111
 20
1.427379
 10
12.154971
 20
1.425374
  0
LWPOLYLINE
  5
DE
330
1F
100
AcDbEntity
  8
XR$1$TB_314_1
  6
AUSGEZOGEN
 62
     7
440
 33554687
370
    18
100
AcDbPolyline
 90
       27
 70
     1
 43
0.0
 10
12.132787
 20
1.427631
 10
12.133387
 20
1.427389
 10
12.133766
 20
1.427104
 10
12.134011
 20
1.426477
 10
12.133758
 20
1.425833
 10
12.133284
 20
1.425425
 10
12.132734
 20
1.425215
 10
12.13244
 20
1.425173
 10
12.132276
 20
1.425167
 10
12.132139
 20
1.425171
 10
12.131978
 20
1.425185
 10
12.131694
 20
1.425232
 10
12.130725
 20
1.425569
 10
12.129688
 20
1.426148
 10
12.128696
 20
1.42685
 10
12.128164
 20
1.427337
 10
12.128011
 20
1.42765
 10
12.128184
 20
1.427833
 10
12.128607
 20
1.427926
 10
12.129079
 20
1.427961
 10
12.129371
 20
1.427969
 10
12.129578
 20
1.427971
 10
12.129784
 20
1.42797
 10
12.130066
 20
1.427965
 10
12.130706
 20
1.427938
 10
12.131777
 20
1.427837
 10
12.132787
 20
1.427631
  0
LWPOLYLINE
  5
DF
330
1F
100
AcDbEntity
  8
XR$1$TB_314_1
  6
AUSGEZOGEN
 62
     7
440
 33554687
370
    18
100
AcDbPolyline
 90
        7
 70
     0
 43
0.0
 10
12.130954
 20
1.427922
 10
12.131339
 20
1.427808
 10
12.131853
 20
1.427707
 10
12.132107
 20
1.427682
 10
12.132301
 20
1.427676
 10
12.132507
 20
1.427683
 10
12.132574
 20
1.427689
  0
LWPOLYLINE
  5
E0
330
1F
100
AcDbEntity
  8
XR$1$TB_314_1
  6
AUSGEZOGEN
 62
     7
440
 33554687
370
    18
100
AcDbPolyline
 90
       27
 70
     1
 43
0.0
 10
12.14711
 20
1.427924
 10
12.147517
 20
1.427949
 10
12.148032
 20
1.427967
 10
12.148291
 20
1.42797
 10
12.148491
 20
1.427971
 10
12.148708
 20
1.427968
 10
12.149039
 20
1.427957
 10
12.149727
 20
1.427871
 10
12.150007
 20
1.427691
 10
12.14988
 20
1.427358
 10
12.149292
 20
1.42682
 10
12.148281
 20
1.426111
 10
12.147338
 20
1.425586
 10
12.146491
 20
1.425269
 10
12.146218
 20
1.425209
 10
12.145992
 20
1.425179
 10
12.145845
 20
1.425169
 10
12.145706
 20
1.425168
 10
12.145521
 20
1.425179
 10
12.145127
 20
1.425258
 10
12.144494
 20
1.4256
 10
12.144051
 20
1.426254
 10
12.144112
 20
1.426898
 10
12.144578
 20
1.427354
 10
12.145314
 20
1.427653
 10
12.146203
 20
1.427831
 10
12.14711
 20
1.427924
  0
LWPOLYLINE
  5
E1
330
1F
100
AcDbEntity
  8
XR$1$TB_314_1
  6
AUSGEZOGEN
 62
     7
440
 33554687
370
    18
100
AcDbPolyline
 90
        7
 70
     0
 43
0.0
 10
12.145453
 20
1.427689
 10
12.145579
 20
1.42768
 10
12.145776
 20
1.427676
 10
12.145978
 20
1.427686
 10
12.146269
 20
1.427721
 10
12.146793
 20
1.427836
 10
12.147072
 20
1.427922
  0
ARC
  5
E2
330
1F
100
AcDbEntity
  8
XR$1$TB_314_1
  6
AUSGEZOGEN
 62
     7
440
 33554687
370
    18
100
AcDbCircle
 10
12.175445
 20
1.432131
 30
0.0
 40
0.002000599430541
100
AcDbArc
 50
270.0
 51
330.0
  0
ARC
  5
E3
330
1F
100
AcDbEntity
  8
XR$1$TB_314_1
  6
AUSGEZOGEN
 62
     7
440
 33554687
370
    18
100
AcDbCircle
 10
12.175445
 20
1.432131
 30
0.0
 40
0.004001198861082
100
AcDbArc
 50
270.0
 51
330.0
  0
ARC
  5
E4
330
1F
100
AcDbEntity
  8
XR$1$TB_314_1
  6
AUSGEZOGEN
 62
     7
440
 33554687
370
    18
100
AcDbCircle
 10
12.032708
 20
1.444129
 30
0.0
 40
0.002000599430541
100
AcDbArc
 50
30.0
 51
90.0
  0
ARC
  5
E5
330
1F
100
AcDbEntity
  8
XR$1$TB_314_1
  6
AUSGEZOGEN
 62
     7
440
 33554687
370
    18
100
AcDbCircle
 10
12.032708
 20
1.444129
 30
0.0
 40
0.004001198861082
100
AcDbArc
 50
30.0
 51
90.0
  0
ARC
  5
E6
330
1F
100
AcDbEntity
  8
XR$1$TB_314_1
  6
AUSGEZOGEN
 62
     7
440
 33554687
370
    18
100
AcDbCircle
 10
12.189302
 20
1.444129
 30
0.0
 40
0.002000599430541
100
AcDbArc
 50
90.0
 51
150.0
  0
ARC
  5
E7
330
1F
100
AcDbEntity
  8
XR$1$TB_314_1
  6
AUSGEZOGEN
 62
     7
440
 33554687
370
    18
100
AcDbCircle
 10
12.189302
 20
1.444129
 30
0.0
 40
0.004001198861082
100
AcDbArc
 50
90.0
 51
150.0
  0
LWPOLYLINE
  5
E8
330
1F
100
AcDbEntity
  8
XR$1$TB_314_1
  6
AUSGEZOGEN
 62
     7
440
 33554687
370
    13
100
AcDbPolyline
 90
        3
 70
     0
 43
0.0
 10
12.135012
 20
1.415927
 10
12.134261
 20
1.417116
 10
12.134255
 20
1.417127
  0
LWPOLYLINE
  5
E9
330
1F
100
AcDbEntity
  8
XR$1$TB_314_1
  6
AUSGEZOGEN
 62
     7
440
 33554687
370
    13
100
AcDbPolyline
 90
        3
 70
     0
 43
0.0
 10
12.134255
 20
1.417127
 10
12.134085
 20
1.417484
 10
12.134012
 20
1.417798
  0
ARC
  5
EA
330
1F
100
AcDbEntity
  8
XR$1$TB_314_1
  6
AUSGEZOGEN
 62
     7
440
 33554687
370
    13
100
AcDbCircle
 10
12.137453
 20
1.416327
 30
0.0
 40
0.0008002397722164
100
AcDbArc
 50
43.432537
 51
90.0
  0
LWPOLYLINE
  5
EB
330
1F
100
AcDbEntity
  8
XR$1$TB_314_1
  6
AUSGEZOGEN
 62
     7
440
 33554687
370
    13
100
AcDbPolyline
 90
        4
 70
     0
 43
0.0
 10
12.12728
 20
1.418802
 10
12.128571
 20
1.417264
 10
12.1302
 20
1.416093
 10
12.131011
 20
1.41571
  0
ARC
  5
EC
330
1F
100
AcDbEntity
  8
XR$1$TB_314_1
  6
AUSGEZOGEN
 62
     7
440
 33554687
370
    13
100
AcDbCircle
 10
12.137988
 20
1.415827
 30
0.0
 40
0.0012003596583246
100
AcDbArc
 50
215.685335
 51
270.0
  0
LWPOLYLINE
  5
ED
330
1F
100
AcDbEntity
  8
XR$1$TB_314_1
  6
AUSGEZOGEN
 62
     7
440
 33554687
370
    13
100
AcDbPolyline
 90
        4
 70
     0
 43
0.0
 10
12.150747
 20
1.418802
 10
12.149456
 20
1.417264
 10
12.147827
 20
1.416093
 10
12.147016
 20
1.41571
  0
LWPOLYLINE
  5
EE
330
1F
100
AcDbEntity
  8
XR$1$TB_314_1
  6
AUSGEZOGEN
 62
     7
440
 33554687
370
    13
100
AcDbPolyline
 90
        3
 70
     0
 43
0.0
 10
12.144015
 20
1.417798
 10
12.143942
 20
1.417484
 10
12.143772
 20
1.417127
  0
LWPOLYLINE
  5
EF
330
1F
100
AcDbEntity
  8
XR$1$TB_314_1
  6
AUSGEZOGEN
 62
     7
440
 33554687
370
    13
100
AcDbPolyline
 90
        3
 70
     0
 43
0.0
 10
12.143772
 20
1.417127
 10
12.143766
 20
1.417116
 10
12.143015
 20
1.415927
  0
ARC
  5
F0
330
1F
100
AcDbEntity
  8
XR$1$TB_314_1
  6
AUSGEZOGEN
 62
     7
440
 33554687
370
    13
100
AcDbCircle
 10
12.138615
 20
1.417427
 30
0.0
 40
0.0008002397722164
100
AcDbArc
 50
223.432537
 51
270.0
  0
ARC
  5
F1
330
1F
100
AcDbEntity
  8
XR$1$TB_314_1
  6
AUSGEZOGEN
 62
     7
440
 33554687
370
    13
100
AcDbCircle
 10
12.139411
 20
1.417427
 30
0.0
 40
0.0008002397722164
100
AcDbArc
 50
270.0
 51
316.567463
  0
ARC
  5
F2
330
1F
100
AcDbEntity
  8
XR$1$TB_314_1
  6
AUSGEZOGEN
 62
     7
440
 33554687
370
    13
100
AcDbCircle
 10
12.140573
 20
1.416327
 30
0.0
 40
0.0008002397722164
100
AcDbArc
 50
90.0
 51
136.567463
  0
ARC
  5
F3
330
1F
100
AcDbEntity
  8
XR$1$TB_314_1
  6
AUSGEZOGEN
 62
     7
440
 33554687
370
    13
100
AcDbCircle
 10
12.140039
 20
1.415827
 30
0.0
 40
0.0012003596583246
100
AcDbArc
 50
270.0
 51
324.314665
  0
LWPOLYLINE
  5
F4
330
1F
100
AcDbEntity
  8
XR$1$TB_314_1
  6
AUSGEZOGEN
 62
     7
440
 33554687
370
    13
100
AcDbPolyline
 90
        4
 70
     0
 43
0.0
 10
12.078995
 20
1.415927
 10
12.078244
 20
1.417116
 10
12.078068
 20
1.417484
 10
12.077995
 20
1.417798
  0
LWPOLYLINE
  5
F5
330
1F
100
AcDbEntity
  8
XR$1$TB_314_1
  6
AUSGEZOGEN
 62
     7
440
 33554687
370
    13
100
AcDbPolyline
 90
        4
 70
     0
 43
0.0
 10
12.087998
 20
1.417798
 10
12.087925
 20
1.417484
 10
12.087749
 20
1.417116
 10
12.086998
 20
1.415927
  0
LWPOLYLINE
  5
F6
330
1F
100
AcDbEntity
  8
XR$1$TB_314_1
  6
AUSGEZOGEN
 62
     7
440
 33554687
370
    13
100
AcDbPolyline
 90
        4
 70
     0
 43
0.0
 10
12.072946
 20
1.419884
 10
12.070929
 20
1.423021
 10
12.069797
 20
1.424784
 10
12.068722
 20
1.426456
  0
ARC
  5
F7
330
1F
100
AcDbEntity
  8
XR$1$TB_314_1
  6
AUSGEZOGEN
 62
     7
440
 33554687
370
    13
100
AcDbCircle
 10
12.082599
 20
1.417427
 30
0.0
 40
0.0008002397722164
100
AcDbArc
 50
223.432537
 51
270.0
  0
ARC
  5
F8
330
1F
100
AcDbEntity
  8
XR$1$TB_314_1
  6
AUSGEZOGEN
 62
     7
440
 33554687
370
    13
100
AcDbCircle
 10
12.083394
 20
1.417427
 30
0.0
 40
0.0008002397722164
100
AcDbArc
 50
270.0
 51
316.567463
  0
ARC
  5
F9
330
1F
100
AcDbEntity
  8
XR$1$TB_314_1
  6
AUSGEZOGEN
 62
     7
440
 33554687
370
    13
100
AcDbCircle
 10
12.081436
 20
1.416327
 30
0.0
 40
0.0008002397722164
100
AcDbArc
 50
43.432537
 51
90.0
  0
ARC
  5
FA
330
1F
100
AcDbEntity
  8
XR$1$TB_314_1
  6
AUSGEZOGEN
 62
     7
440
 33554687
370
    13
100
AcDbCircle
 10
12.084557
 20
1.416327
 30
0.0
 40
0.0008002397722164
100
AcDbArc
 50
90.0
 51
136.567463
  0
LWPOLYLINE
  5
FB
330
1F
100
AcDbEntity
  8
XR$1$TB_314_1
  6
AUSGEZOGEN
 62
     7
440
 33554687
370
    13
100
AcDbPolyline
 90
        4
 70
     0
 43
0.0
 10
12.093047
 20
1.419884
 10
12.095064
 20
1.423021
 10
12.096197
 20
1.424784
 10
12.097271
 20
1.426456
  0
LWPOLYLINE
  5
FC
330
1F
100
AcDbEntity
  8
XR$1$TB_314_1
  6
AUSGEZOGEN
 62
     7
440
 33554687
370
    13
100
AcDbPolyline
 90
        4
 70
     0
 43
0.0
 10
12.067039
 20
1.425374
 10
12.067982
 20
1.423907
 10
12.069628
 20
1.421346
 10
12.071263
 20
1.418802
  0
LWPOLYLINE
  5
FD
330
1F
100
AcDbEntity
  8
XR$1$TB_314_1
  6
AUSGEZOGEN
 62
     7
440
 33554687
370
    13
100
AcDbPolyline
 90
        4
 70
     0
 43
0.0
 10
12.071263
 20
1.418802
 10
12.072554
 20
1.417264
 10
12.074183
 20
1.416093
 10
12.074994
 20
1.41571
  0
ARC
  5
FE
330
1F
100
AcDbEntity
  8
XR$1$TB_314_1
  6
AUSGEZOGEN
 62
     7
440
 33554687
370
    13
100
AcDbCircle
 10
12.084022
 20
1.415827
 30
0.0
 40
0.0012003596583246
100
AcDbArc
 50
270.0
 51
324.314665
  0
ARC
  5
FF
330
1F
100
AcDbEntity
  8
XR$1$TB_314_1
  6
AUSGEZOGEN
 62
     7
440
 33554687
370
    13
100
AcDbCircle
 10
12.081971
 20
1.415827
 30
0.0
 40
0.0012003596583246
100
AcDbArc
 50
215.685335
 51
270.0
  0
LWPOLYLINE
  5
100
330
1F
100
AcDbEntity
  8
XR$1$TB_314_1
  6
AUSGEZOGEN
 62
     7
440
 33554687
370
    13
100
AcDbPolyline
 90
        4
 70
     0
 43
0.0
 10
12.09473
 20
1.418802
 10
12.093439
 20
1.417264
 10
12.09181
 20
1.416093
 10
12.090999
 20
1.41571
  0
LWPOLYLINE
  5
101
330
1F
100
AcDbEntity
  8
XR$1$TB_314_1
  6
AUSGEZOGEN
 62
     7
440
 33554687
370
    13
100
AcDbPolyline
 90
        4
 70
     0
 43
0.0
 10
12.098954
 20
1.425374
 10
12.098011
 20
1.423907
 10
12.096365
 20
1.421346
 10
12.09473
 20
1.418802
  0
LWPOLYLINE
  5
102
330
1F
100
AcDbEntity
  8
XR$1$TB_314_1
  6
AUSGEZOGEN
 62
     7
440
 33554687
370
    13
100
AcDbPolyline
 90
        3
 70
     0
 43
0.0
 10
12.128963
 20
1.419884
 10
12.126946
 20
1.423021
 10
12.126363
 20
1.423929
  0
LWPOLYLINE
  5
103
330
1F
100
AcDbEntity
  8
XR$1$TB_314_1
  6
AUSGEZOGEN
 62
     7
440
 33554687
370
    13
100
AcDbPolyline
 90
        3
 70
     0
 43
0.0
 10
12.126363
 20
1.423929
 10
12.125813
 20
1.424784
 10
12.124739
 20
1.426456
  0
LWPOLYLINE
  5
104
330
1F
100
AcDbEntity
  8
XR$1$TB_314_1
  6
AUSGEZOGEN
 62
     7
440
 33554687
370
    13
100
AcDbPolyline
 90
        3
 70
     0
 43
0.0
 10
12.149064
 20
1.419884
 10
12.151081
 20
1.423021
 10
12.151664
 20
1.423929
  0
LWPOLYLINE
  5
105
330
1F
100
AcDbEntity
  8
XR$1$TB_314_1
  6
AUSGEZOGEN
 62
     7
440
 33554687
370
    13
100
AcDbPolyline
 90
        3
 70
     0
 43
0.0
 10
12.151664
 20
1.423929
 10
12.152213
 20
1.424784
 10
12.153288
 20
1.426456
  0
LWPOLYLINE
  5
106
330
1F
100
AcDbEntity
  8
XR$1$TB_314_1
  6
AUSGEZOGEN
 62
     7
440
 33554687
370
    13
100
AcDbPolyline
 90
        4
 70
     0
 43
0.0
 10
12.123984
 20
1.423929
 10
12.123999
 20
1.423907
 10
12.125644
 20
1.421346
 10
12.12728
 20
1.418802
  0
LWPOLYLINE
  5
107
330
1F
100
AcDbEntity
  8
XR$1$TB_314_1
  6
AUSGEZOGEN
 62
     7
440
 33554687
370
    13
100
AcDbPolyline
 90
        4
 70
     0
 43
0.0
 10
12.154042
 20
1.423929
 10
12.154028
 20
1.423907
 10
12.152382
 20
1.421346
 10
12.150747
 20
1.418802
  0
ARC
  5
108
330
1F
100
AcDbEntity
  8
XR$1$TB_314_1
  6
AUSGEZOGEN
 62
     7
440
 33554687
370
    18
100
AcDbCircle
 10
12.573581
 20
1.42813
 30
0.0
 40
0.0015
100
AcDbArc
 50
195.703284
 51
270.0
  0
ARC
  5
109
330
1F
100
AcDbEntity
  8
XR$1$TB_314_1
  6
AUSGEZOGEN
 62
     7
440
 33554687
370
    18
100
AcDbCircle
 10
12.568806
 20
1.42663
 30
0.0
 40
0.0034999999999902
100
AcDbArc
 50
15.0
 51
18.180021
  0
ARC
  5
10A
330
1F
100
AcDbEntity
  8
XR$1$TB_314_1
  6
AUSGEZOGEN
 62
     7
440
 33554687
370
    18
100
AcDbCircle
 10
12.57335
 20
1.42783
 30
0.0
 40
0.0012
100
AcDbArc
 50
195.0
 51
270.0
  0
ARC
  5
10B
330
1F
100
AcDbEntity
  8
XR$1$TB_314_1
  6
AUSGEZOGEN
 62
     7
440
 33554687
370
    18
100
AcDbCircle
 10
12.57335
 20
1.42813
 30
0.0
 40
0.0035
100
AcDbArc
 50
207.080511
 51
270.0
  0
LWPOLYLINE
  5
10C
330
1F
100
AcDbEntity
  8
XR$1$TB_314_1
  6
AUSGEZOGEN
 62
     7
440
 33554687
370
    18
100
AcDbPolyline
 90
        8
 70
     0
 43
0.0
 10
12.561167
 20
1.42813
 10
12.561108
 20
1.428115
 10
12.560641
 20
1.428026
 10
12.560408
 20
1.428004
 10
12.560236
 20
1.427998
 10
12.560061
 20
1.428003
 10
12.559811
 20
1.428031
 10
12.559441
 20
1.42813
  0
LWPOLYLINE
  5
10D
330
1F
100
AcDbEntity
  8
XR$1$TB_314_1
  6
AUSGEZOGEN
 62
     7
440
 33554687
370
    18
100
AcDbPolyline
 90
        8
 70
     0
 43
0.0
 10
12.547172
 20
1.42813
 10
12.546955
 20
1.428074
 10
12.546752
 20
1.428023
 10
12.546521
 20
1.428001
 10
12.54635
 20
1.427998
 10
12.546174
 20
1.428006
 10
12.54592
 20
1.428033
 10
12.545445
 20
1.42813
  0
LWPOLYLINE
  5
10E
330
1F
100
AcDbEntity
  8
XR$1$TB_314_1
  6
AUSGEZOGEN
 62
     7
440
 33554687
370
    18
100
AcDbPolyline
 90
        3
 70
     0
 43
0.0
 10
12.574306
 20
1.42813
 10
12.571399
 20
1.427379
 10
12.569259
 20
1.425375
  0
LWPOLYLINE
  5
10F
330
1F
100
AcDbEntity
  8
XR$1$TB_314_1
  6
AUSGEZOGEN
 62
     7
440
 33554687
370
    18
100
AcDbPolyline
 90
        3
 70
     0
 43
0.0
 10
12.532306
 20
1.42813
 10
12.535213
 20
1.427379
 10
12.537353
 20
1.425375
  0
ARC
  5
110
330
1F
100
AcDbEntity
  8
XR$1$TB_314_1
  6
AUSGEZOGEN
 62
     7
440
 33554687
370
    18
100
AcDbCircle
 10
12.57312
 20
1.42783
 30
0.0
 40
0.0032
100
AcDbArc
 50
204.36612
 51
270.0
  0
LWPOLYLINE
  5
111
330
1F
100
AcDbEntity
  8
XR$1$TB_314_1
  6
AUSGEZOGEN
 62
     7
440
 33554687
370
    13
100
AcDbPolyline
 90
        4
 70
     0
 43
0.0
 10
12.557306
 20
1.41593
 10
12.558057
 20
1.417119
 10
12.558233
 20
1.417487
 10
12.558306
 20
1.417801
  0
LWPOLYLINE
  5
112
330
1F
100
AcDbEntity
  8
XR$1$TB_314_1
  6
AUSGEZOGEN
 62
     7
440
 33554687
370
    13
100
AcDbPolyline
 90
        4
 70
     0
 43
0.0
 10
12.548306
 20
1.417801
 10
12.548379
 20
1.417487
 10
12.548555
 20
1.417119
 10
12.549306
 20
1.41593
  0
LWPOLYLINE
  5
113
330
1F
100
AcDbEntity
  8
XR$1$TB_314_1
  6
AUSGEZOGEN
 62
     7
440
 33554687
370
    13
100
AcDbPolyline
 90
        5
 70
     0
 43
0.0
 10
12.561306
 20
1.417934
 10
12.560176
 20
1.41743
 10
12.559197
 20
1.417197
 10
12.558674
 20
1.417142
 10
12.558306
 20
1.41713
  0
LWPOLYLINE
  5
114
330
1F
100
AcDbEntity
  8
XR$1$TB_314_1
  6
AUSGEZOGEN
 62
     7
440
 33554687
370
    13
100
AcDbPolyline
 90
        5
 70
     0
 43
0.0
 10
12.558306
 20
1.41513
 10
12.559011
 20
1.415162
 10
12.55989
 20
1.415289
 10
12.560588
 20
1.415463
 10
12.561306
 20
1.415714
  0
LWPOLYLINE
  5
115
330
1F
100
AcDbEntity
  8
XR$1$TB_314_1
  6
AUSGEZOGEN
 62
     7
440
 33554687
370
    13
100
AcDbPolyline
 90
        3
 70
     0
 43
0.0
 10
12.56707
 20
1.42197
 10
12.566671
 20
1.421349
 10
12.565036
 20
1.418805
  0
LWPOLYLINE
  5
116
330
1F
100
AcDbEntity
  8
XR$1$TB_314_1
  6
AUSGEZOGEN
 62
     7
440
 33554687
370
    13
100
AcDbPolyline
 90
        3
 70
     0
 43
0.0
 10
12.565036
 20
1.418805
 10
12.562117
 20
1.416096
 10
12.561306
 20
1.415714
  0
LWPOLYLINE
  5
117
330
1F
100
AcDbEntity
  8
XR$1$TB_314_1
  6
AUSGEZOGEN
 62
     7
440
 33554687
370
    13
100
AcDbPolyline
 90
        5
 70
     0
 43
0.0
 10
12.548306
 20
1.41713
 10
12.547611
 20
1.417171
 10
12.546713
 20
1.417347
 10
12.546025
 20
1.417581
 10
12.545306
 20
1.417934
  0
LWPOLYLINE
  5
118
330
1F
100
AcDbEntity
  8
XR$1$TB_314_1
  6
AUSGEZOGEN
 62
     7
440
 33554687
370
    13
100
AcDbPolyline
 90
        5
 70
     0
 43
0.0
 10
12.545306
 20
1.415714
 10
12.546494
 20
1.415339
 10
12.547502
 20
1.415171
 10
12.547972
 20
1.415137
 10
12.548306
 20
1.41513
  0
LWPOLYLINE
  5
119
330
1F
100
AcDbEntity
  8
XR$1$TB_314_1
  6
AUSGEZOGEN
 62
     7
440
 33554687
370
    13
100
AcDbPolyline
 90
        3
 70
     0
 43
0.0
 10
12.541576
 20
1.418805
 10
12.544495
 20
1.416096
 10
12.545306
 20
1.415714
  0
LWPOLYLINE
  5
11A
330
1F
100
AcDbEntity
  8
XR$1$TB_314_1
  6
AUSGEZOGEN
 62
     7
440
 33554687
370
    13
100
AcDbPolyline
 90
        4
 70
     0
 43
0.0
 10
12.537353
 20
1.425375
 10
12.538296
 20
1.423908
 10
12.539941
 20
1.421349
 10
12.541576
 20
1.418805
  0
LWPOLYLINE
  5
11B
330
1F
100
AcDbEntity
  8
XR$1$TB_314_1
  6
AUSGEZOGEN
 62
     7
440
 33554687
370
    13
100
AcDbPolyline
 90
        4
 70
     0
 43
0.0
 10
12.543259
 20
1.419886
 10
12.541243
 20
1.423023
 10
12.54011
 20
1.424785
 10
12.539036
 20
1.426456
  0
ARC
  5
11C
330
1F
100
AcDbEntity
  8
XR$1$TB_314_1
  6
AUSGEZOGEN
 62
     7
440
 33554687
370
    13
100
AcDbCircle
 10
12.552281
 20
1.41583
 30
0.0
 40
0.0012
100
AcDbArc
 50
215.685335
 51
270.0
  0
ARC
  5
11D
330
1F
100
AcDbEntity
  8
XR$1$TB_314_1
  6
AUSGEZOGEN
 62
     7
440
 33554687
370
    13
100
AcDbCircle
 10
12.554331
 20
1.41583
 30
0.0
 40
0.0012
100
AcDbArc
 50
270.0
 51
324.314665
  0
ARC
  5
11E
330
1F
100
AcDbEntity
  8
XR$1$TB_314_1
  6
AUSGEZOGEN
 62
     7
440
 33554687
370
    18
100
AcDbCircle
 10
12.600691
 20
1.430716
 30
0.0
 40
0.0015307337294603
100
AcDbArc
 50
236.011124
 51
33.988876
  0
ARC
  5
11F
330
1F
100
AcDbEntity
  8
XR$1$TB_314_1
  6
AUSGEZOGEN
 62
     7
440
 33554687
370
    18
100
AcDbCircle
 10
12.597599
 20
1.42613
 30
0.0
 40
0.002
100
AcDbArc
 50
56.011124
 51
90.0
  0
ARC
  5
120
330
1F
100
AcDbEntity
  8
XR$1$TB_314_1
  6
AUSGEZOGEN
 62
     7
440
 33554687
370
    18
100
AcDbCircle
 10
12.600691
 20
1.430716
 30
0.0
 40
0.0035307337294603
100
AcDbArc
 50
236.011124
 51
33.988876
  0
ARC
  5
121
330
1F
100
AcDbEntity
  8
XR$1$TB_314_1
  6
AUSGEZOGEN
 62
     7
440
 33554687
370
    18
100
AcDbCircle
 10
12.597599
 20
1.42613
 30
0.0
 40
0.004
100
AcDbArc
 50
56.011124
 51
90.0
  0
ARC
  5
122
330
1F
100
AcDbEntity
  8
XR$1$TB_314_1
  6
AUSGEZOGEN
 62
     7
440
 33554687
370
    18
100
AcDbCircle
 10
12.605277
 20
1.433808
 30
0.0
 40
0.004
100
AcDbArc
 50
186.926293
 51
213.988876
  0
ARC
  5
123
330
1F
100
AcDbEntity
  8
XR$1$TB_314_1
  6
AUSGEZOGEN
 62
     7
440
 33554687
370
    18
100
AcDbCircle
 10
12.605277
 20
1.433808
 30
0.0
 40
0.002
100
AcDbArc
 50
189.801241
 51
213.988876
  0
ARC
  5
124
330
1F
100
AcDbEntity
  8
XR$1$TB_314_1
  6
AUSGEZOGEN
 62
     7
440
 33554687
370
    18
100
AcDbCircle
 10
12.522615
 20
1.432131
 30
0.0
 40
0.002000599430541
100
AcDbArc
 50
210.0
 51
270.0
  0
ARC
  5
125
330
1F
100
AcDbEntity
  8
XR$1$TB_314_1
  6
AUSGEZOGEN
 62
     7
440
 33554687
370
    18
100
AcDbCircle
 10
12.522615
 20
1.432131
 30
0.0
 40
0.0040011988610821
100
AcDbArc
 50
210.0
 51
270.0
  0
ARC
  5
126
330
1F
100
AcDbEntity
  8
XR$1$TB_314_1
  6
AUSGEZOGEN
 62
     7
440
 33554687
370
    18
100
AcDbCircle
 10
12.508758
 20
1.444129
 30
0.0
 40
0.002000599430541
100
AcDbArc
 50
30.0
 51
90.0
  0
ARC
  5
127
330
1F
100
AcDbEntity
  8
XR$1$TB_314_1
  6
AUSGEZOGEN
 62
     7
440
 33554687
370
    18
100
AcDbCircle
 10
12.508758
 20
1.444129
 30
0.0
 40
0.004001198861082
100
AcDbArc
 50
30.0
 51
90.0
  0
MTEXT
  5
128
330
1F
100
AcDbEntity
  8
XR$1$TB_314_1
  6
AUSGEZOGEN
 62
     7
440
 33554687
370
    18
100
AcDbMText
 10
12.415847
 20
0.998035
 30
0.0
 40
0.009
 41
0.418059
 46
0.0
 71
     7
 72
     5
  1
\W1.00;AGROB BUCHTAL GmbH   Architektenservice   D - 92521 Schwarzenfeld
  7
ARIAL
 73
     1
 44
1.0
  0
MTEXT
  5
129
330
1F
100
AcDbEntity
  8
XR$1$TB_314_1
  6
AUSGEZOGEN
 62
     7
440
 33554687
370
    35
100
AcDbMText
 10
12.637391
 20
1.512125
 30
0.0
 40
0.0125
 41
0.170924
 46
0.0
 71
     7
 72
     5
  1
\W0.93;Art.-Nr.: 638-XXX-XXX
  7
ARIAL
 73
     1
 44
1.0
  0
LINE
  5
12A
330
1F
100
AcDbEntity
  8
XR$1$TB_314_1
  6
AUSGEZOGEN
 62
    35
440
 33554687
370
    70
100
AcDbLine
 10
11.88383
 20
0.858486
 30
0.0
 11
12.93383
 21
0.858486
 31
0.0
  0
LINE
  5
12B
330
1F
100
AcDbEntity
  8
XR$1$TB_314_1
  6
AUSGEZOGEN
 62
     1
440
 33554687
370
    70
100
AcDbLine
 10
11.88383
 20
2.343471
 30
0.0
 11
11.88383
 21
0.858486
 31
0.0
  0
LINE
  5
12C
330
1F
100
AcDbEntity
  8
XR$1$TB_314_1
  6
AUSGEZOGEN
 62
     1
440
 33554687
370
    70
100
AcDbLine
 10
12.93382
 20
0.858486
 30
0.0
 11
12.93382
 21
2.343471
 31
0.0
  0
LINE
  5
12D
330
1F
100
AcDbEntity
  8
XR$1$TB_314_1
  6
AUSGEZOGEN
 62
     1
440
 33554687
370
    70
100
AcDbLine
 10
12.93382
 20
2.343471
 30
0.0
 11
11.88383
 21
2.343471
 31
0.0
  0
LINE
  5
12E
330
1F
100
AcDbEntity
  8
XR$1$TB_314_1
  6
AUSGEZOGEN
 62
     7
440
 33554687
370
    13
100
AcDbLine
 10
12.508116
 20
1.64513
 30
0.0
 11
12.487724
 21
1.484665
 31
0.0
  0
LINE
  5
12F
330
1F
100
AcDbEntity
  8
XR$1$TB_314_1
  6
AUSGEZOGEN
 62
     7
440
 33554687
370
    13
100
AcDbLine
 10
12.487724
 20
1.484665
 30
0.0
 11
12.448116
 21
1.64513
 31
0.0
  0
LINE
  5
130
330
1F
100
AcDbEntity
  8
XR$1$TB_314_1
  6
AUSGEZOGEN
 62
     7
440
 33554687
370
    13
100
AcDbLine
 10
12.448116
 20
1.64513
 30
0.0
 11
12.427724
 21
1.484665
 31
0.0
  0
LINE
  5
131
330
1F
100
AcDbEntity
  8
XR$1$TB_314_1
  6
AUSGEZOGEN
 62
     7
440
 33554687
370
    13
100
AcDbLine
 10
12.427724
 20
1.484665
 30
0.0
 11
12.388116
 21
1.64513
 31
0.0
  0
LINE
  5
132
330
1F
100
AcDbEntity
  8
XR$1$TB_314_1
  6
AUSGEZOGEN
 62
     7
440
 33554687
370
    13
100
AcDbLine
 10
12.388116
 20
1.64513
 30
0.0
 11
12.367724
 21
1.484665
 31
0.0
  0
LINE
  5
133
330
1F
100
AcDbEntity
  8
XR$1$TB_314_1
  6
AUSGEZOGEN
 62
     7
440
 33554687
370
    13
100
AcDbLine
 10
12.367724
 20
1.484665
 30
0.0
 11
12.328116
 21
1.64513
 31
0.0
  0
LINE
  5
134
330
1F
100
AcDbEntity
  8
XR$1$TB_314_1
  6
AUSGEZOGEN
 62
     7
440
 33554687
370
    13
100
AcDbLine
 10
12.328116
 20
1.64513
 30
0.0
 11
12.307724
 21
1.484665
 31
0.0
  0
LINE
  5
135
330
1F
100
AcDbEntity
  8
XR$1$TB_314_1
  6
AUSGEZOGEN
 62
     7
440
 33554687
370
    13
100
AcDbLine
 10
12.307724
 20
1.484665
 30
0.0
 11
12.268116
 21
1.64513
 31
0.0
  0
LINE
  5
136
330
1F
100
AcDbEntity
  8
XR$1$TB_314_1
  6
AUSGEZOGEN
 62
     7
440
 33554687
370
    13
100
AcDbLine
 10
12.268116
 20
1.64513
 30
0.0
 11
12.247724
 21
1.484665
 31
0.0
  0
LINE
  5
137
330
1F
100
AcDbEntity
  8
XR$1$TB_314_1
  6
AUSGEZOGEN
 62
     7
440
 33554687
370
    13
100
AcDbLine
 10
12.247724
 20
1.484665
 30
0.0
 11
12.208116
 21
1.64513
 31
0.0
  0
LINE
  5
138
330
1F
100
AcDbEntity
  8
XR$1$TB_314_1
  6
AUSGEZOGEN
 62
     7
440
 33554687
370
    13
100
AcDbLine
 10
12.208116
 20
1.64513
 30
0.0
 11
12.187724
 21
1.484665
 31
0.0
  0
LINE
  5
139
330
1F
100
AcDbEntity
  8
XR$1$TB_314_1
  6
AUSGEZOGEN
 62
     7
440
 33554687
370
    13
100
AcDbLine
 10
12.187724
 20
1.484665
 30
0.0
 11
12.148116
 21
1.64513
 31
0.0
  0
LINE
  5
13A
330
1F
100
AcDbEntity
  8
XR$1$TB_314_1
  6
AUSGEZOGEN
 62
     7
440
 33554687
370
    13
100
AcDbLine
 10
12.148116
 20
1.64513
 30
0.0
 11
12.127724
 21
1.484665
 31
0.0
  0
LINE
  5
13B
330
1F
100
AcDbEntity
  8
XR$1$TB_314_1
  6
AUSGEZOGEN
 62
     7
440
 33554687
370
    13
100
AcDbLine
 10
12.127724
 20
1.484665
 30
0.0
 11
12.088116
 21
1.64513
 31
0.0
  0
LINE
  5
13C
330
1F
100
AcDbEntity
  8
XR$1$TB_314_1
  6
AUSGEZOGEN
 62
     7
440
 33554687
370
    13
100
AcDbLine
 10
12.088116
 20
1.64513
 30
0.0
 11
12.067724
 21
1.484665
 31
0.0
  0
LINE
  5
13D
330
1F
100
AcDbEntity
  8
XR$1$TB_314_1
  6
AUSGEZOGEN
 62
     7
440
 33554687
370
    13
100
AcDbLine
 10
12.007783
 20
1.48513
 30
0.0
 11
12.007724
 21
1.484665
 31
0.0
  0
LINE
  5
13E
330
1F
100
AcDbEntity
  8
XR$1$TB_314_1
  6
AUSGEZOGEN
 62
     7
440
 33554687
370
    13
100
AcDbLine
 10
12.007724
 20
1.484665
 30
0.0
 11
12.007609
 21
1.48513
 31
0.0
  0
LINE
  5
13F
330
1F
100
AcDbEntity
  8
XR$1$TB_314_1
  6
AUSGEZOGEN
 62
     7
440
 33554687
370
    13
100
AcDbLine
 10
12.067724
 20
1.484665
 30
0.0
 11
12.028116
 21
1.64513
 31
0.0
  0
LINE
  5
140
330
1F
100
AcDbEntity
  8
XR$1$TB_314_1
  6
AUSGEZOGEN
 62
     7
440
 33554687
370
    13
100
AcDbLine
 10
12.028116
 20
1.64513
 30
0.0
 11
12.007724
 21
1.484665
 31
0.0
  0
LINE
  5
141
330
1F
100
AcDbEntity
  8
XR$1$TB_314_1
  6
AUSGEZOGEN
 62
     7
440
 33554687
370
    13
100
AcDbLine
 10
12.007783
 20
1.48513
 30
0.0
 11
11.97631
 21
1.612635
 31
0.0
  0
LINE
  5
142
330
1F
100
AcDbEntity
  8
XR$1$TB_314_1
  6
AUSGEZOGEN
 62
     7
440
 33554687
370
    25
100
AcDbLine
 10
12.626806
 20
1.60138
 30
0.0
 11
12.606806
 21
1.60138
 31
0.0
  0
LINE
  5
143
330
1F
100
AcDbEntity
  8
XR$1$TB_314_1
  6
VERDECKT2_S2
 62
    52
440
 33554687
370
    18
100
AcDbLine
 10
12.514315
 20
1.49813
 30
0.0
 11
12.514315
 21
1.52313
 31
0.0
  0
LINE
  5
144
330
1F
100
AcDbEntity
  8
XR$1$TB_314_1
  6
AUSGEZOGEN
 62
     7
440
 33554687
370
    18
100
AcDbLine
 10
12.571306
 20
1.61513
 30
0.0
 11
12.571306
 21
1.64213
 31
0.0
  0
LINE
  5
145
330
1F
100
AcDbEntity
  8
XR$1$TB_314_1
  6
AUSGEZOGEN
 62
     7
440
 33554687
370
    18
100
AcDbLine
 10
12.571306
 20
1.64213
 30
0.0
 11
12.517306
 21
1.64213
 31
0.0
  0
LINE
  5
146
330
1F
100
AcDbEntity
  8
XR$1$TB_314_1
  6
AUSGEZOGEN
 62
     7
440
 33554687
370
    18
100
AcDbLine
 10
12.520306
 20
1.61513
 30
0.0
 11
12.520306
 21
1.63913
 31
0.0
  0
LINE
  5
147
330
1F
100
AcDbEntity
  8
XR$1$TB_314_1
  6
AUSGEZOGEN
 62
     7
440
 33554687
370
    18
100
AcDbLine
 10
12.520306
 20
1.63913
 30
0.0
 11
12.568306
 21
1.63913
 31
0.0
  0
LINE
  5
148
330
1F
100
AcDbEntity
  8
XR$1$TB_314_1
  6
AUSGEZOGEN
 62
     7
440
 33554687
370
    18
100
AcDbLine
 10
12.514306
 20
1.51513
 30
0.0
 11
12.511306
 21
1.51513
 31
0.0
  0
LINE
  5
149
330
1F
100
AcDbEntity
  8
XR$1$TB_314_1
  6
AUSGEZOGEN
 62
     7
440
 33554687
370
    18
100
AcDbLine
 10
12.511306
 20
1.51513
 30
0.0
 11
12.511306
 21
1.48513
 31
0.0
  0
LINE
  5
14A
330
1F
100
AcDbEntity
  8
XR$1$TB_314_1
  6
AUSGEZOGEN
 62
     7
440
 33554687
370
    18
100
AcDbLine
 10
12.568306
 20
1.51813
 30
0.0
 11
12.568306
 21
1.48813
 31
0.0
  0
LINE
  5
14B
330
1F
100
AcDbEntity
  8
XR$1$TB_314_1
  6
AUSGEZOGEN
 62
     7
440
 33554687
370
    18
100
AcDbLine
 10
12.514306
 20
1.48813
 30
0.0
 11
12.568306
 21
1.48813
 31
0.0
  0
LINE
  5
14C
330
1F
100
AcDbEntity
  8
XR$1$TB_314_1
  6
AUSGEZOGEN
 62
     7
440
 33554687
370
    18
100
AcDbLine
 10
12.568306
 20
1.51513
 30
0.0
 11
12.565306
 21
1.51513
 31
0.0
  0
LINE
  5
14D
330
1F
100
AcDbEntity
  8
XR$1$TB_314_1
  6
AUSGEZOGEN
 62
     7
440
 33554687
370
    18
100
AcDbLine
 10
12.565306
 20
1.51513
 30
0.0
 11
12.565306
 21
1.49113
 31
0.0
  0
LINE
  5
14E
330
1F
100
AcDbEntity
  8
XR$1$TB_314_1
  6
AUSGEZOGEN
 62
     7
440
 33554687
370
    18
100
AcDbLine
 10
12.565306
 20
1.49113
 30
0.0
 11
12.517306
 21
1.49113
 31
0.0
  0
LINE
  5
14F
330
1F
100
AcDbEntity
  8
XR$1$TB_314_1
  6
AUSGEZOGEN
 62
     7
440
 33554687
370
    18
100
AcDbLine
 10
12.514306
 20
1.64513
 30
0.0
 11
12.514306
 21
1.572388
 31
0.0
  0
LINE
  5
150
330
1F
100
AcDbEntity
  8
XR$1$TB_314_1
  6
AUSGEZOGEN
 62
     7
440
 33554687
370
    18
100
AcDbLine
 10
12.517306
 20
1.64213
 30
0.0
 11
12.517306
 21
1.57363
 31
0.0
  0
LINE
  5
151
330
1F
100
AcDbEntity
  8
XR$1$TB_314_1
  6
AUSGEZOGEN
 62
     7
440
 33554687
370
    18
100
AcDbLine
 10
12.514306
 20
1.560873
 30
0.0
 11
12.514306
 21
1.48813
 31
0.0
  0
LINE
  5
152
330
1F
100
AcDbEntity
  8
XR$1$TB_314_1
  6
AUSGEZOGEN
 62
     7
440
 33554687
370
    18
100
AcDbLine
 10
12.517306
 20
1.55963
 30
0.0
 11
12.517306
 21
1.49113
 31
0.0
  0
LINE
  5
153
330
1F
100
AcDbEntity
  8
XR$1$TB_314_1
  6
AUSGEZOGEN
 62
     7
440
 33554687
370
    18
100
AcDbLine
 10
12.524306
 20
1.56663
 30
0.0
 11
12.517306
 21
1.55963
 31
0.0
  0
LINE
  5
154
330
1F
100
AcDbEntity
  8
XR$1$TB_314_1
  6
AUSGEZOGEN
 62
     7
440
 33554687
370
    18
100
AcDbLine
 10
12.520063
 20
1.56663
 30
0.0
 11
12.514306
 21
1.560873
 31
0.0
  0
LINE
  5
155
330
1F
100
AcDbEntity
  8
XR$1$TB_314_1
  6
AUSGEZOGEN
 62
     7
440
 33554687
370
    18
100
AcDbLine
 10
12.520063
 20
1.56663
 30
0.0
 11
12.514306
 21
1.572388
 31
0.0
  0
LINE
  5
156
330
1F
100
AcDbEntity
  8
XR$1$TB_314_1
  6
AUSGEZOGEN
 62
     7
440
 33554687
370
    18
100
AcDbLine
 10
12.524306
 20
1.56663
 30
0.0
 11
12.517306
 21
1.57363
 31
0.0
  0
LINE
  5
157
330
1F
100
AcDbEntity
  8
XR$1$TB_314_1
  6
AUSGEZOGEN
 62
     7
440
 33554687
370
    18
100
AcDbLine
 10
12.561306
 20
1.56663
 30
0.0
 11
12.568306
 21
1.55963
 31
0.0
  0
LINE
  5
158
330
1F
100
AcDbEntity
  8
XR$1$TB_314_1
  6
AUSGEZOGEN
 62
     7
440
 33554687
370
    18
100
AcDbLine
 10
12.565549
 20
1.56663
 30
0.0
 11
12.571306
 21
1.560873
 31
0.0
  0
LINE
  5
159
330
1F
100
AcDbEntity
  8
XR$1$TB_314_1
  6
AUSGEZOGEN
 62
     7
440
 33554687
370
    18
100
AcDbLine
 10
12.565549
 20
1.56663
 30
0.0
 11
12.571306
 21
1.572388
 31
0.0
  0
LINE
  5
15A
330
1F
100
AcDbEntity
  8
XR$1$TB_314_1
  6
AUSGEZOGEN
 62
     7
440
 33554687
370
    18
100
AcDbLine
 10
12.561306
 20
1.56663
 30
0.0
 11
12.568306
 21
1.57363
 31
0.0
  0
LINE
  5
15B
330
1F
100
AcDbEntity
  8
XR$1$TB_314_1
  6
AUSGEZOGEN
 62
     7
440
 33554687
370
    18
100
AcDbLine
 10
12.568306
 20
1.55963
 30
0.0
 11
12.568306
 21
1.51813
 31
0.0
  0
LINE
  5
15C
330
1F
100
AcDbEntity
  8
XR$1$TB_314_1
  6
AUSGEZOGEN
 62
     7
440
 33554687
370
    18
100
AcDbLine
 10
12.568306
 20
1.63913
 30
0.0
 11
12.568306
 21
1.57363
 31
0.0
  0
LINE
  5
15D
330
1F
100
AcDbEntity
  8
XR$1$TB_314_1
  6
AUSGEZOGEN
 62
     7
440
 33554687
370
    18
100
AcDbLine
 10
12.571306
 20
1.48513
 30
0.0
 11
12.571306
 21
1.560873
 31
0.0
  0
LINE
  5
15E
330
1F
100
AcDbEntity
  8
XR$1$TB_314_1
  6
AUSGEZOGEN
 62
     7
440
 33554687
370
    18
100
AcDbLine
 10
12.571306
 20
1.572388
 30
0.0
 11
12.571306
 21
1.61513
 31
0.0
  0
LINE
  5
15F
330
1F
100
AcDbEntity
  8
XR$1$TB_314_1
  6
AUSGEZOGEN
 62
     7
440
 33554687
370
    13
100
AcDbLine
 10
12.514306
 20
1.510665
 30
0.0
 11
12.514315
 21
1.5107
 31
0.0
  0
LINE
  5
160
330
1F
100
AcDbEntity
  8
XR$1$TB_314_1
  6
AUSGEZOGEN
 62
     7
440
 33554687
370
    13
100
AcDbLine
 10
12.567889
 20
1.484665
 30
0.0
 11
12.568003
 21
1.48513
 31
0.0
  0
LINE
  5
161
330
1F
100
AcDbEntity
  8
XR$1$TB_314_1
  6
AUSGEZOGEN
 62
     7
440
 33554687
370
    13
100
AcDbLine
 10
12.567829
 20
1.48513
 30
0.0
 11
12.567889
 21
1.484665
 31
0.0
  0
LINE
  5
162
330
1F
100
AcDbEntity
  8
XR$1$TB_314_1
  6
AUSGEZOGEN
 62
     7
440
 33554687
370
    18
100
AcDbLine
 10
12.571306
 20
1.51213
 30
0.0
 11
12.571306
 21
1.50613
 31
0.0
  0
LINE
  5
163
330
1F
100
AcDbEntity
  8
XR$1$TB_314_1
  6
AUSGEZOGEN
 62
     7
440
 33554687
370
    18
100
AcDbLine
 10
12.571306
 20
1.50613
 30
0.0
 11
12.571306
 21
1.50013
 31
0.0
  0
LINE
  5
164
330
1F
100
AcDbEntity
  8
XR$1$TB_314_1
  6
AUSGEZOGEN
 62
     7
440
 33554687
370
    18
100
AcDbLine
 10
12.571306
 20
1.50013
 30
0.0
 11
12.571306
 21
1.49413
 31
0.0
  0
LINE
  5
165
330
1F
100
AcDbEntity
  8
XR$1$TB_314_1
  6
AUSGEZOGEN
 62
     7
440
 33554687
370
    18
100
AcDbLine
 10
12.571306
 20
1.55613
 30
0.0
 11
12.571306
 21
1.55013
 31
0.0
  0
LINE
  5
166
330
1F
100
AcDbEntity
  8
XR$1$TB_314_1
  6
AUSGEZOGEN
 62
     7
440
 33554687
370
    18
100
AcDbLine
 10
12.520306
 20
1.61513
 30
0.0
 11
12.517306
 21
1.61513
 31
0.0
  0
LINE
  5
167
330
1F
100
AcDbEntity
  8
XR$1$TB_314_1
  6
AUSGEZOGEN
 62
     7
440
 33554687
370
    18
100
AcDbLine
 10
12.571306
 20
1.51213
 30
0.0
 11
12.571306
 21
1.560873
 31
0.0
  0
LINE
  5
168
330
1F
100
AcDbEntity
  8
XR$1$TB_314_1
  6
AUSGEZOGEN
 62
     7
440
 33554687
370
    18
100
AcDbLine
 10
12.571306
 20
1.572388
 30
0.0
 11
12.571306
 21
1.59513
 31
0.0
  0
LINE
  5
169
330
1F
100
AcDbEntity
  8
XR$1$TB_314_1
  6
AUSGEZOGEN
 62
     7
440
 33554687
370
    18
100
AcDbLine
 10
12.571306
 20
1.560873
 30
0.0
 11
12.571306
 21
1.55613
 31
0.0
  0
LINE
  5
16A
330
1F
100
AcDbEntity
  8
XR$1$TB_314_1
  6
AUSGEZOGEN
 62
     7
440
 33554687
370
    18
100
AcDbLine
 10
12.574306
 20
1.64513
 30
0.0
 11
12.544306
 21
1.64513
 31
0.0
  0
LINE
  5
16B
330
1F
100
AcDbEntity
  8
XR$1$TB_314_1
  6
AUSGEZOGEN
 62
    32
440
 33554687
370
    35
100
AcDbLine
 10
12.574306
 20
1.66513
 30
0.0
 11
11.97631
 21
1.66513
 31
0.0
  0
LINE
  5
16C
330
1F
100
AcDbEntity
  8
XR$1$TB_314_1
  6
AUSGEZOGEN
 62
    32
440
 33554687
370
    35
100
AcDbLine
 10
12.574306
 20
1.65513
 30
0.0
 11
11.97631
 21
1.65513
 31
0.0
  0
LINE
  5
16D
330
1F
100
AcDbEntity
  8
XR$1$TB_314_1
  6
AUSGEZOGEN
 62
    32
440
 33554687
370
    35
100
AcDbLine
 10
12.574306
 20
1.64513
 30
0.0
 11
11.97631
 21
1.64513
 31
0.0
  0
LINE
  5
16E
330
1F
100
AcDbEntity
  8
XR$1$TB_314_1
  6
AUSGEZOGEN
 62
     7
440
 33554687
370
    35
100
AcDbLine
 10
11.97631
 20
1.48513
 30
0.0
 11
12.571306
 21
1.48513
 31
0.0
  0
LINE
  5
16F
330
1F
100
AcDbEntity
  8
XR$1$TB_314_1
  6
AUSGEZOGEN
 62
     7
440
 33554687
370
    25
100
AcDbLine
 10
11.97631
 20
1.47513
 30
0.0
 11
12.571306
 21
1.47513
 31
0.0
  0
LINE
  5
170
330
1F
100
AcDbEntity
  8
XR$1$TB_314_1
  6
VERDECKT2_S2
 62
     7
440
 33554687
370
    25
100
AcDbLine
 10
11.97631
 20
1.47413
 30
0.0
 11
12.571306
 21
1.47413
 31
0.0
  0
LINE
  5
171
330
1F
100
AcDbEntity
  8
XR$1$TB_314_1
  6
AUSGEZOGEN
 62
     3
440
 33554687
370
    25
100
AcDbLine
 10
12.574306
 20
1.66938
 30
0.0
 11
12.574306
 21
1.61513
 31
0.0
  0
LINE
  5
172
330
1F
100
AcDbEntity
  8
XR$1$TB_314_1
  6
AUSGEZOGEN
 62
     7
440
 33554687
370
    18
100
AcDbLine
 10
12.837208
 20
1.743989
 30
0.0
 11
12.574935
 21
1.743989
 31
0.0
  0
LINE
  5
173
330
1F
100
AcDbEntity
  8
XR$1$TB_314_1
  6
AUSGEZOGEN
 62
     7
440
 33554687
370
    18
100
AcDbLine
 10
12.574306
 20
1.61513
 30
0.0
 11
12.571306
 21
1.61513
 31
0.0
  0
LINE
  5
174
330
1F
100
AcDbEntity
  8
XR$1$TB_314_1
  6
AUSGEZOGEN
 62
     7
440
 33554687
370
    18
100
AcDbLine
 10
12.574306
 20
1.64513
 30
0.0
 11
12.574306
 21
1.61513
 31
0.0
  0
LINE
  5
175
330
1F
100
AcDbEntity
  8
XR$1$TB_314_1
  6
AUSGEZOGEN
 62
     7
440
 33554687
370
    18
100
AcDbLine
 10
12.574306
 20
1.743989
 30
0.0
 11
12.736571
 21
1.743989
 31
0.0
  0
LINE
  5
176
330
1F
100
AcDbEntity
  8
XR$1$TB_314_1
  6
AUSGEZOGEN
 62
     7
440
 33554687
370
    18
100
AcDbLine
 10
12.583306
 20
1.627005
 30
0.0
 11
12.583306
 21
1.614005
 31
0.0
  0
LINE
  5
177
330
1F
100
AcDbEntity
  8
XR$1$TB_314_1
  6
AUSGEZOGEN
 62
     7
440
 33554687
370
    18
100
AcDbLine
 10
12.608306
 20
1.622005
 30
0.0
 11
12.608306
 21
1.602351
 31
0.0
  0
LINE
  5
178
330
1F
100
AcDbEntity
  8
XR$1$TB_314_1
  6
AUSGEZOGEN
 62
     7
440
 33554687
370
    18
100
AcDbLine
 10
12.608306
 20
1.602351
 30
0.0
 11
12.605306
 21
1.602351
 31
0.0
  0
LINE
  5
179
330
1F
100
AcDbEntity
  8
XR$1$TB_314_1
  6
AUSGEZOGEN
 62
     7
440
 33554687
370
    18
100
AcDbLine
 10
12.603306
 20
1.605351
 30
0.0
 11
12.605306
 21
1.602351
 31
0.0
  0
LINE
  5
17A
330
1F
100
AcDbEntity
  8
XR$1$TB_314_1
  6
AUSGEZOGEN
 62
     7
440
 33554687
370
    18
100
AcDbLine
 10
12.605306
 20
1.605351
 30
0.0
 11
12.603306
 21
1.605351
 31
0.0
  0
LINE
  5
17B
330
1F
100
AcDbEntity
  8
XR$1$TB_314_1
  6
AUSGEZOGEN
 62
     7
440
 33554687
370
    18
100
AcDbLine
 10
12.605306
 20
1.619005
 30
0.0
 11
12.605306
 21
1.605351
 31
0.0
  0
LINE
  5
17C
330
1F
100
AcDbEntity
  8
XR$1$TB_314_1
  6
AUSGEZOGEN
 62
     7
440
 33554687
370
    18
100
AcDbLine
 10
12.601306
 20
1.619005
 30
0.0
 11
12.601306
 21
1.622005
 31
0.0
  0
LINE
  5
17D
330
1F
100
AcDbEntity
  8
XR$1$TB_314_1
  6
AUSGEZOGEN
 62
     7
440
 33554687
370
    18
100
AcDbLine
 10
12.603306
 20
1.622005
 30
0.0
 11
12.603306
 21
1.619005
 31
0.0
  0
LINE
  5
17E
330
1F
100
AcDbEntity
  8
XR$1$TB_314_1
  6
AUSGEZOGEN
 62
     7
440
 33554687
370
    18
100
AcDbLine
 10
12.603306
 20
1.615005
 30
0.0
 11
12.601306
 21
1.615005
 31
0.0
  0
LINE
  5
17F
330
1F
100
AcDbEntity
  8
XR$1$TB_314_1
  6
AUSGEZOGEN
 62
     7
440
 33554687
370
    18
100
AcDbLine
 10
12.574306
 20
1.622005
 30
0.0
 11
12.574306
 21
1.619005
 31
0.0
  0
LINE
  5
180
330
1F
100
AcDbEntity
  8
XR$1$TB_314_1
  6
AUSGEZOGEN
 62
     7
440
 33554687
370
    18
100
AcDbLine
 10
12.605306
 20
1.619005
 30
0.0
 11
12.599306
 21
1.619005
 31
0.0
  0
LINE
  5
181
330
1F
100
AcDbEntity
  8
XR$1$TB_314_1
  6
AUSGEZOGEN
 62
     7
440
 33554687
370
    18
100
AcDbLine
 10
12.596306
 20
1.619005
 30
0.0
 11
12.596306
 21
1.602351
 31
0.0
  0
LINE
  5
182
330
1F
100
AcDbEntity
  8
XR$1$TB_314_1
  6
AUSGEZOGEN
 62
     7
440
 33554687
370
    18
100
AcDbLine
 10
12.599306
 20
1.602351
 30
0.0
 11
12.596306
 21
1.602351
 31
0.0
  0
LINE
  5
183
330
1F
100
AcDbEntity
  8
XR$1$TB_314_1
  6
AUSGEZOGEN
 62
     7
440
 33554687
370
    18
100
AcDbLine
 10
12.601306
 20
1.605351
 30
0.0
 11
12.599306
 21
1.602351
 31
0.0
  0
LINE
  5
184
330
1F
100
AcDbEntity
  8
XR$1$TB_314_1
  6
AUSGEZOGEN
 62
     7
440
 33554687
370
    18
100
AcDbLine
 10
12.599306
 20
1.605351
 30
0.0
 11
12.601306
 21
1.605351
 31
0.0
  0
LINE
  5
185
330
1F
100
AcDbEntity
  8
XR$1$TB_314_1
  6
AUSGEZOGEN
 62
     7
440
 33554687
370
    18
100
AcDbLine
 10
12.599306
 20
1.619005
 30
0.0
 11
12.599306
 21
1.605351
 31
0.0
  0
LINE
  5
186
330
1F
100
AcDbEntity
  8
XR$1$TB_314_1
  6
AUSGEZOGEN
 62
     7
440
 33554687
370
    18
100
AcDbLine
 10
12.596306
 20
1.619005
 30
0.0
 11
12.574306
 21
1.619005
 31
0.0
  0
LINE
  5
187
330
1F
100
AcDbEntity
  8
XR$1$TB_314_1
  6
STRICHPUNKT2_S5
 62
     7
440
 33554687
370
    18
100
AcDbLine
 10
12.837208
 20
1.763989
 30
0.0
 11
12.837208
 21
1.37478
 31
0.0
  0
LINE
  5
188
330
1F
100
AcDbEntity
  8
XR$1$TB_314_1
  6
AUSGEZOGEN
 62
     7
440
 33554687
370
    18
100
AcDbLine
 10
12.603306
 20
1.54513
 30
0.0
 11
12.603306
 21
1.55113
 31
0.0
  0
LINE
  5
189
330
1F
100
AcDbEntity
  8
XR$1$TB_314_1
  6
AUSGEZOGEN
 62
     7
440
 33554687
370
    18
100
AcDbLine
 10
12.603306
 20
1.55113
 30
0.0
 11
12.603306
 21
1.55713
 31
0.0
  0
LINE
  5
18A
330
1F
100
AcDbEntity
  8
XR$1$TB_314_1
  6
AUSGEZOGEN
 62
     7
440
 33554687
370
    18
100
AcDbLine
 10
12.603306
 20
1.55713
 30
0.0
 11
12.603306
 21
1.56313
 31
0.0
  0
LINE
  5
18B
330
1F
100
AcDbEntity
  8
XR$1$TB_314_1
  6
AUSGEZOGEN
 62
     7
440
 33554687
370
    18
100
AcDbLine
 10
12.603306
 20
1.53863
 30
0.0
 11
12.605021
 21
1.53863
 31
0.0
  0
LINE
  5
18C
330
1F
100
AcDbEntity
  8
XR$1$TB_314_1
  6
AUSGEZOGEN
 62
     7
440
 33554687
370
    18
100
AcDbLine
 10
12.605021
 20
1.54463
 30
0.0
 11
12.603306
 21
1.54463
 31
0.0
  0
LINE
  5
18D
330
1F
100
AcDbEntity
  8
XR$1$TB_314_1
  6
AUSGEZOGEN
 62
     7
440
 33554687
370
    18
100
AcDbLine
 10
12.603306
 20
1.55913
 30
0.0
 11
12.603388
 21
1.55913
 31
0.0
  0
LINE
  5
18E
330
1F
100
AcDbEntity
  8
XR$1$TB_314_1
  6
AUSGEZOGEN
 62
     7
440
 33554687
370
    18
100
AcDbLine
 10
12.603388
 20
1.54913
 30
0.0
 11
12.603306
 21
1.54913
 31
0.0
  0
LINE
  5
18F
330
1F
100
AcDbEntity
  8
XR$1$TB_314_1
  6
AUSGEZOGEN
 62
     7
440
 33554687
370
    18
100
AcDbLine
 10
12.606062
 20
1.538178
 30
0.0
 11
12.606766
 21
1.53863
 31
0.0
  0
LINE
  5
190
330
1F
100
AcDbEntity
  8
XR$1$TB_314_1
  6
AUSGEZOGEN
 62
     7
440
 33554687
370
    18
100
AcDbLine
 10
12.603498
 20
1.538629
 30
0.0
 11
12.603307
 21
1.53842
 31
0.0
  0
LINE
  5
191
330
1F
100
AcDbEntity
  8
XR$1$TB_314_1
  6
AUSGEZOGEN
 62
     7
440
 33554687
370
    18
100
AcDbLine
 10
12.60498
 20
1.568401
 30
0.0
 11
12.603307
 21
1.56984
 31
0.0
  0
LINE
  5
192
330
1F
100
AcDbEntity
  8
XR$1$TB_314_1
  6
AUSGEZOGEN
 62
     7
440
 33554687
370
    18
100
AcDbLine
 10
12.60822
 20
1.53863
 30
0.0
 11
12.606806
 21
1.53863
 31
0.0
  0
LINE
  5
193
330
1F
100
AcDbEntity
  8
XR$1$TB_314_1
  6
AUSGEZOGEN
 62
     7
440
 33554687
370
    18
100
AcDbLine
 10
12.606806
 20
1.53863
 30
0.0
 11
12.605021
 21
1.53863
 31
0.0
  0
LINE
  5
194
330
1F
100
AcDbEntity
  8
XR$1$TB_314_1
  6
AUSGEZOGEN
 62
     7
440
 33554687
370
    18
100
AcDbLine
 10
12.605021
 20
1.54463
 30
0.0
 11
12.606806
 21
1.54463
 31
0.0
  0
LINE
  5
195
330
1F
100
AcDbEntity
  8
XR$1$TB_314_1
  6
AUSGEZOGEN
 62
     7
440
 33554687
370
    18
100
AcDbLine
 10
12.606806
 20
1.54463
 30
0.0
 11
12.60822
 21
1.54463
 31
0.0
  0
LINE
  5
196
330
1F
100
AcDbEntity
  8
XR$1$TB_314_1
  6
AUSGEZOGEN
 62
     7
440
 33554687
370
    18
100
AcDbLine
 10
12.603388
 20
1.55913
 30
0.0
 11
12.606806
 21
1.55913
 31
0.0
  0
LINE
  5
197
330
1F
100
AcDbEntity
  8
XR$1$TB_314_1
  6
AUSGEZOGEN
 62
     7
440
 33554687
370
    18
100
AcDbLine
 10
12.606806
 20
1.54913
 30
0.0
 11
12.603388
 21
1.54913
 31
0.0
  0
LINE
  5
198
330
1F
100
AcDbEntity
  8
XR$1$TB_314_1
  6
AUSGEZOGEN
 62
     7
440
 33554687
370
    18
100
AcDbLine
 10
12.606062
 20
1.570083
 30
0.0
 11
12.606806
 21
1.569605
 31
0.0
  0
LINE
  5
199
330
1F
100
AcDbEntity
  8
XR$1$TB_314_1
  6
AUSGEZOGEN
 62
     7
440
 33554687
370
    13
100
AcDbLine
 10
12.609467
 20
1.54463
 30
0.0
 11
12.609467
 21
1.53863
 31
0.0
  0
LINE
  5
19A
330
1F
100
AcDbEntity
  8
XR$1$TB_314_1
  6
AUSGEZOGEN
 62
     7
440
 33554687
370
    13
100
AcDbLine
 10
12.60822
 20
1.53863
 30
0.0
 11
12.609467
 21
1.53863
 31
0.0
  0
LINE
  5
19B
330
1F
100
AcDbEntity
  8
XR$1$TB_314_1
  6
AUSGEZOGEN
 62
     7
440
 33554687
370
    13
100
AcDbLine
 10
12.609467
 20
1.54463
 30
0.0
 11
12.60822
 21
1.54463
 31
0.0
  0
LINE
  5
19C
330
1F
100
AcDbEntity
  8
XR$1$TB_314_1
  6
AUSGEZOGEN
 62
     7
440
 33554687
370
    13
100
AcDbLine
 10
12.608806
 20
1.55913
 30
0.0
 11
12.608641
 21
1.55913
 31
0.0
  0
LINE
  5
19D
330
1F
100
AcDbEntity
  8
XR$1$TB_314_1
  6
AUSGEZOGEN
 62
     7
440
 33554687
370
    13
100
AcDbLine
 10
12.608641
 20
1.54913
 30
0.0
 11
12.608806
 21
1.54913
 31
0.0
  0
LINE
  5
19E
330
1F
100
AcDbEntity
  8
XR$1$TB_314_1
  6
AUSGEZOGEN
 62
     7
440
 33554687
370
    13
100
AcDbLine
 10
12.615506
 20
1.55013
 30
0.0
 11
12.615506
 21
1.54913
 31
0.0
  0
LINE
  5
19F
330
1F
100
AcDbEntity
  8
XR$1$TB_314_1
  6
AUSGEZOGEN
 62
     7
440
 33554687
370
    13
100
AcDbLine
 10
12.613635
 20
1.54913
 30
0.0
 11
12.615506
 21
1.54913
 31
0.0
  0
LINE
  5
1A0
330
1F
100
AcDbEntity
  8
XR$1$TB_314_1
  6
AUSGEZOGEN
 62
     7
440
 33554687
370
    13
100
AcDbLine
 10
12.613635
 20
1.55913
 30
0.0
 11
12.615506
 21
1.55913
 31
0.0
  0
LINE
  5
1A1
330
1F
100
AcDbEntity
  8
XR$1$TB_314_1
  6
AUSGEZOGEN
 62
     7
440
 33554687
370
    13
100
AcDbLine
 10
12.615506
 20
1.55913
 30
0.0
 11
12.615506
 21
1.55813
 31
0.0
  0
LINE
  5
1A2
330
1F
100
AcDbEntity
  8
XR$1$TB_314_1
  6
AUSGEZOGEN
 62
     7
440
 33554687
370
    13
100
AcDbLine
 10
12.615506
 20
1.54913
 30
0.0
 11
12.616306
 21
1.54913
 31
0.0
  0
LINE
  5
1A3
330
1F
100
AcDbEntity
  8
XR$1$TB_314_1
  6
AUSGEZOGEN
 62
     7
440
 33554687
370
    13
100
AcDbLine
 10
12.613635
 20
1.54913
 30
0.0
 11
12.613256
 21
1.54913
 31
0.0
  0
LINE
  5
1A4
330
1F
100
AcDbEntity
  8
XR$1$TB_314_1
  6
AUSGEZOGEN
 62
     7
440
 33554687
370
    13
100
AcDbLine
 10
12.615722
 20
1.54613
 30
0.0
 11
12.616306
 21
1.54913
 31
0.0
  0
LINE
  5
1A5
330
1F
100
AcDbEntity
  8
XR$1$TB_314_1
  6
AUSGEZOGEN
 62
     7
440
 33554687
370
    13
100
AcDbLine
 10
12.61155
 20
1.544083
 30
0.0
 11
12.609467
 21
1.542744
 31
0.0
  0
LINE
  5
1A6
330
1F
100
AcDbEntity
  8
XR$1$TB_314_1
  6
AUSGEZOGEN
 62
     7
440
 33554687
370
    13
100
AcDbLine
 10
12.613502
 20
1.54613
 30
0.0
 11
12.61155
 21
1.544083
 31
0.0
  0
LINE
  5
1A7
330
1F
100
AcDbEntity
  8
XR$1$TB_314_1
  6
AUSGEZOGEN
 62
     7
440
 33554687
370
    13
100
AcDbLine
 10
12.615722
 20
1.56213
 30
0.0
 11
12.616306
 21
1.55913
 31
0.0
  0
LINE
  5
1A8
330
1F
100
AcDbEntity
  8
XR$1$TB_314_1
  6
AUSGEZOGEN
 62
     7
440
 33554687
370
    13
100
AcDbLine
 10
12.613502
 20
1.56213
 30
0.0
 11
12.61155
 21
1.564178
 31
0.0
  0
LINE
  5
1A9
330
1F
100
AcDbEntity
  8
XR$1$TB_314_1
  6
AUSGEZOGEN
 62
     7
440
 33554687
370
    13
100
AcDbLine
 10
12.616306
 20
1.55913
 30
0.0
 11
12.615506
 21
1.55913
 31
0.0
  0
LINE
  5
1AA
330
1F
100
AcDbEntity
  8
XR$1$TB_314_1
  6
AUSGEZOGEN
 62
     7
440
 33554687
370
    13
100
AcDbLine
 10
12.616306
 20
1.54913
 30
0.0
 11
12.616306
 21
1.55913
 31
0.0
  0
LINE
  5
1AB
330
1F
100
AcDbEntity
  8
XR$1$TB_314_1
  6
AUSGEZOGEN
 62
     7
440
 33554687
370
    13
100
AcDbLine
 10
12.615506
 20
1.55013
 30
0.0
 11
12.615506
 21
1.55813
 31
0.0
  0
LINE
  5
1AC
330
1F
100
AcDbEntity
  8
XR$1$TB_314_1
  6
AUSGEZOGEN
 62
     7
440
 33554687
370
    13
100
AcDbLine
 10
12.613256
 20
1.55913
 30
0.0
 11
12.613635
 21
1.55913
 31
0.0
  0
LINE
  5
1AD
330
1F
100
AcDbEntity
  8
XR$1$TB_314_1
  6
AUSGEZOGEN
 62
     7
440
 33554687
370
    13
100
AcDbLine
 10
12.616806
 20
1.553105
 30
0.0
 11
12.616806
 21
1.555156
 31
0.0
  0
LINE
  5
1AE
330
1F
100
AcDbEntity
  8
XR$1$TB_314_1
  6
AUSGEZOGEN
 62
     7
440
 33554687
370
    13
100
AcDbLine
 10
12.608806
 20
1.54913
 30
0.0
 11
12.608806
 21
1.55913
 31
0.0
  0
LINE
  5
1AF
330
1F
100
AcDbEntity
  8
XR$1$TB_314_1
  6
AUSGEZOGEN
 62
     7
440
 33554687
370
    13
100
AcDbLine
 10
12.613256
 20
1.55913
 30
0.0
 11
12.613256
 21
1.54913
 31
0.0
  0
LINE
  5
1B0
330
1F
100
AcDbEntity
  8
XR$1$TB_314_1
  6
AUSGEZOGEN
 62
     7
440
 33554687
370
    13
100
AcDbLine
 10
12.606806
 20
1.55913
 30
0.0
 11
12.608641
 21
1.55913
 31
0.0
  0
LINE
  5
1B1
330
1F
100
AcDbEntity
  8
XR$1$TB_314_1
  6
AUSGEZOGEN
 62
     7
440
 33554687
370
    13
100
AcDbLine
 10
12.608641
 20
1.54913
 30
0.0
 11
12.606806
 21
1.54913
 31
0.0
  0
LINE
  5
1B2
330
1F
100
AcDbEntity
  8
XR$1$TB_314_1
  6
AUSGEZOGEN
 62
     7
440
 33554687
370
    18
100
AcDbLine
 10
12.603306
 20
1.46913
 30
0.0
 11
12.603306
 21
1.47513
 31
0.0
  0
LINE
  5
1B3
330
1F
100
AcDbEntity
  8
XR$1$TB_314_1
  6
AUSGEZOGEN
 62
     7
440
 33554687
370
    18
100
AcDbLine
 10
12.603306
 20
1.47513
 30
0.0
 11
12.603306
 21
1.48113
 31
0.0
  0
LINE
  5
1B4
330
1F
100
AcDbEntity
  8
XR$1$TB_314_1
  6
AUSGEZOGEN
 62
     7
440
 33554687
370
    18
100
AcDbLine
 10
12.603306
 20
1.48113
 30
0.0
 11
12.603306
 21
1.48713
 31
0.0
  0
LINE
  5
1B5
330
1F
100
AcDbEntity
  8
XR$1$TB_314_1
  6
AUSGEZOGEN
 62
     7
440
 33554687
370
    18
100
AcDbLine
 10
12.603917
 20
1.459245
 30
0.0
 11
12.6039
 21
1.45925
 31
0.0
  0
LINE
  5
1B6
330
1F
100
AcDbEntity
  8
XR$1$TB_314_1
  6
AUSGEZOGEN
 62
     7
440
 33554687
370
    18
100
AcDbLine
 10
12.604806
 20
1.45588
 30
0.0
 11
12.604806
 21
1.458086
 31
0.0
  0
LINE
  5
1B7
330
1F
100
AcDbEntity
  8
XR$1$TB_314_1
  6
AUSGEZOGEN
 62
     7
440
 33554687
370
    18
100
AcDbLine
 10
12.606806
 20
1.458086
 30
0.0
 11
12.606806
 21
1.45588
 31
0.0
  0
LINE
  5
1B8
330
1F
100
AcDbEntity
  8
XR$1$TB_314_1
  6
AUSGEZOGEN
 62
     7
440
 33554687
370
    18
100
AcDbLine
 10
12.603306
 20
1.46263
 30
0.0
 11
12.605021
 21
1.46263
 31
0.0
  0
LINE
  5
1B9
330
1F
100
AcDbEntity
  8
XR$1$TB_314_1
  6
AUSGEZOGEN
 62
     7
440
 33554687
370
    18
100
AcDbLine
 10
12.605021
 20
1.46863
 30
0.0
 11
12.603306
 21
1.46863
 31
0.0
  0
LINE
  5
1BA
330
1F
100
AcDbEntity
  8
XR$1$TB_314_1
  6
AUSGEZOGEN
 62
     7
440
 33554687
370
    18
100
AcDbLine
 10
12.603306
 20
1.48313
 30
0.0
 11
12.603388
 21
1.48313
 31
0.0
  0
LINE
  5
1BB
330
1F
100
AcDbEntity
  8
XR$1$TB_314_1
  6
AUSGEZOGEN
 62
     7
440
 33554687
370
    18
100
AcDbLine
 10
12.603388
 20
1.47313
 30
0.0
 11
12.603306
 21
1.47313
 31
0.0
  0
LINE
  5
1BC
330
1F
100
AcDbEntity
  8
XR$1$TB_314_1
  6
AUSGEZOGEN
 62
     7
440
 33554687
370
    18
100
AcDbLine
 10
12.606062
 20
1.462178
 30
0.0
 11
12.606766
 21
1.46263
 31
0.0
  0
LINE
  5
1BD
330
1F
100
AcDbEntity
  8
XR$1$TB_314_1
  6
AUSGEZOGEN
 62
     7
440
 33554687
370
    18
100
AcDbLine
 10
12.603498
 20
1.462629
 30
0.0
 11
12.603307
 21
1.46242
 31
0.0
  0
LINE
  5
1BE
330
1F
100
AcDbEntity
  8
XR$1$TB_314_1
  6
AUSGEZOGEN
 62
     7
440
 33554687
370
    18
100
AcDbLine
 10
12.60498
 20
1.492401
 30
0.0
 11
12.603307
 21
1.49384
 31
0.0
  0
LINE
  5
1BF
330
1F
100
AcDbEntity
  8
XR$1$TB_314_1
  6
AUSGEZOGEN
 62
     7
440
 33554687
370
    18
100
AcDbLine
 10
12.606806
 20
1.458316
 30
0.0
 11
12.606806
 21
1.458086
 31
0.0
  0
LINE
  5
1C0
330
1F
100
AcDbEntity
  8
XR$1$TB_314_1
  6
AUSGEZOGEN
 62
     7
440
 33554687
370
    18
100
AcDbLine
 10
12.603712
 20
1.4593
 30
0.0
 11
12.6039
 21
1.45925
 31
0.0
  0
LINE
  5
1C1
330
1F
100
AcDbEntity
  8
XR$1$TB_314_1
  6
AUSGEZOGEN
 62
     7
440
 33554687
370
    18
100
AcDbLine
 10
12.606806
 20
1.45588
 30
0.0
 11
12.604806
 21
1.45588
 31
0.0
  0
LINE
  5
1C2
330
1F
100
AcDbEntity
  8
XR$1$TB_314_1
  6
AUSGEZOGEN
 62
     7
440
 33554687
370
    18
100
AcDbLine
 10
12.60822
 20
1.46263
 30
0.0
 11
12.606806
 21
1.46263
 31
0.0
  0
LINE
  5
1C3
330
1F
100
AcDbEntity
  8
XR$1$TB_314_1
  6
AUSGEZOGEN
 62
     7
440
 33554687
370
    18
100
AcDbLine
 10
12.606806
 20
1.46263
 30
0.0
 11
12.605021
 21
1.46263
 31
0.0
  0
LINE
  5
1C4
330
1F
100
AcDbEntity
  8
XR$1$TB_314_1
  6
AUSGEZOGEN
 62
     7
440
 33554687
370
    18
100
AcDbLine
 10
12.605021
 20
1.46863
 30
0.0
 11
12.606806
 21
1.46863
 31
0.0
  0
LINE
  5
1C5
330
1F
100
AcDbEntity
  8
XR$1$TB_314_1
  6
AUSGEZOGEN
 62
     7
440
 33554687
370
    18
100
AcDbLine
 10
12.606806
 20
1.46863
 30
0.0
 11
12.60822
 21
1.46863
 31
0.0
  0
LINE
  5
1C6
330
1F
100
AcDbEntity
  8
XR$1$TB_314_1
  6
AUSGEZOGEN
 62
     7
440
 33554687
370
    18
100
AcDbLine
 10
12.603388
 20
1.48313
 30
0.0
 11
12.606806
 21
1.48313
 31
0.0
  0
LINE
  5
1C7
330
1F
100
AcDbEntity
  8
XR$1$TB_314_1
  6
AUSGEZOGEN
 62
     7
440
 33554687
370
    18
100
AcDbLine
 10
12.606806
 20
1.47313
 30
0.0
 11
12.603388
 21
1.47313
 31
0.0
  0
LINE
  5
1C8
330
1F
100
AcDbEntity
  8
XR$1$TB_314_1
  6
AUSGEZOGEN
 62
     7
440
 33554687
370
    18
100
AcDbLine
 10
12.606062
 20
1.494083
 30
0.0
 11
12.606806
 21
1.493605
 31
0.0
  0
LINE
  5
1C9
330
1F
100
AcDbEntity
  8
XR$1$TB_314_1
  6
AUSGEZOGEN
 62
     7
440
 33554687
370
    13
100
AcDbLine
 10
12.609467
 20
1.46863
 30
0.0
 11
12.609467
 21
1.46263
 31
0.0
  0
LINE
  5
1CA
330
1F
100
AcDbEntity
  8
XR$1$TB_314_1
  6
AUSGEZOGEN
 62
     7
440
 33554687
370
    13
100
AcDbLine
 10
12.60822
 20
1.46263
 30
0.0
 11
12.609467
 21
1.46263
 31
0.0
  0
LINE
  5
1CB
330
1F
100
AcDbEntity
  8
XR$1$TB_314_1
  6
AUSGEZOGEN
 62
     7
440
 33554687
370
    13
100
AcDbLine
 10
12.609467
 20
1.46863
 30
0.0
 11
12.60822
 21
1.46863
 31
0.0
  0
LINE
  5
1CC
330
1F
100
AcDbEntity
  8
XR$1$TB_314_1
  6
AUSGEZOGEN
 62
     7
440
 33554687
370
    13
100
AcDbLine
 10
12.608806
 20
1.48313
 30
0.0
 11
12.608641
 21
1.48313
 31
0.0
  0
LINE
  5
1CD
330
1F
100
AcDbEntity
  8
XR$1$TB_314_1
  6
AUSGEZOGEN
 62
     7
440
 33554687
370
    13
100
AcDbLine
 10
12.608641
 20
1.47313
 30
0.0
 11
12.608806
 21
1.47313
 31
0.0
  0
LINE
  5
1CE
330
1F
100
AcDbEntity
  8
XR$1$TB_314_1
  6
AUSGEZOGEN
 62
     7
440
 33554687
370
    13
100
AcDbLine
 10
12.615506
 20
1.47413
 30
0.0
 11
12.615506
 21
1.47313
 31
0.0
  0
LINE
  5
1CF
330
1F
100
AcDbEntity
  8
XR$1$TB_314_1
  6
AUSGEZOGEN
 62
     7
440
 33554687
370
    13
100
AcDbLine
 10
12.613635
 20
1.47313
 30
0.0
 11
12.615506
 21
1.47313
 31
0.0
  0
LINE
  5
1D0
330
1F
100
AcDbEntity
  8
XR$1$TB_314_1
  6
AUSGEZOGEN
 62
     7
440
 33554687
370
    13
100
AcDbLine
 10
12.613635
 20
1.48313
 30
0.0
 11
12.615506
 21
1.48313
 31
0.0
  0
LINE
  5
1D1
330
1F
100
AcDbEntity
  8
XR$1$TB_314_1
  6
AUSGEZOGEN
 62
     7
440
 33554687
370
    13
100
AcDbLine
 10
12.615506
 20
1.48313
 30
0.0
 11
12.615506
 21
1.48213
 31
0.0
  0
LINE
  5
1D2
330
1F
100
AcDbEntity
  8
XR$1$TB_314_1
  6
AUSGEZOGEN
 62
     7
440
 33554687
370
    13
100
AcDbLine
 10
12.615506
 20
1.47313
 30
0.0
 11
12.616306
 21
1.47313
 31
0.0
  0
LINE
  5
1D3
330
1F
100
AcDbEntity
  8
XR$1$TB_314_1
  6
AUSGEZOGEN
 62
     7
440
 33554687
370
    13
100
AcDbLine
 10
12.613635
 20
1.47313
 30
0.0
 11
12.613256
 21
1.47313
 31
0.0
  0
LINE
  5
1D4
330
1F
100
AcDbEntity
  8
XR$1$TB_314_1
  6
AUSGEZOGEN
 62
     7
440
 33554687
370
    13
100
AcDbLine
 10
12.615722
 20
1.47013
 30
0.0
 11
12.616306
 21
1.47313
 31
0.0
  0
LINE
  5
1D5
330
1F
100
AcDbEntity
  8
XR$1$TB_314_1
  6
AUSGEZOGEN
 62
     7
440
 33554687
370
    13
100
AcDbLine
 10
12.61155
 20
1.468083
 30
0.0
 11
12.609467
 21
1.466744
 31
0.0
  0
LINE
  5
1D6
330
1F
100
AcDbEntity
  8
XR$1$TB_314_1
  6
AUSGEZOGEN
 62
     7
440
 33554687
370
    13
100
AcDbLine
 10
12.613502
 20
1.47013
 30
0.0
 11
12.61155
 21
1.468083
 31
0.0
  0
LINE
  5
1D7
330
1F
100
AcDbEntity
  8
XR$1$TB_314_1
  6
AUSGEZOGEN
 62
     7
440
 33554687
370
    13
100
AcDbLine
 10
12.615722
 20
1.48613
 30
0.0
 11
12.616306
 21
1.48313
 31
0.0
  0
LINE
  5
1D8
330
1F
100
AcDbEntity
  8
XR$1$TB_314_1
  6
AUSGEZOGEN
 62
     7
440
 33554687
370
    13
100
AcDbLine
 10
12.613502
 20
1.48613
 30
0.0
 11
12.61155
 21
1.488178
 31
0.0
  0
LINE
  5
1D9
330
1F
100
AcDbEntity
  8
XR$1$TB_314_1
  6
AUSGEZOGEN
 62
     7
440
 33554687
370
    13
100
AcDbLine
 10
12.616306
 20
1.48313
 30
0.0
 11
12.615506
 21
1.48313
 31
0.0
  0
LINE
  5
1DA
330
1F
100
AcDbEntity
  8
XR$1$TB_314_1
  6
AUSGEZOGEN
 62
     7
440
 33554687
370
    13
100
AcDbLine
 10
12.616306
 20
1.47313
 30
0.0
 11
12.616306
 21
1.48313
 31
0.0
  0
LINE
  5
1DB
330
1F
100
AcDbEntity
  8
XR$1$TB_314_1
  6
AUSGEZOGEN
 62
     7
440
 33554687
370
    13
100
AcDbLine
 10
12.615506
 20
1.47413
 30
0.0
 11
12.615506
 21
1.48213
 31
0.0
  0
LINE
  5
1DC
330
1F
100
AcDbEntity
  8
XR$1$TB_314_1
  6
AUSGEZOGEN
 62
     7
440
 33554687
370
    13
100
AcDbLine
 10
12.613256
 20
1.48313
 30
0.0
 11
12.613635
 21
1.48313
 31
0.0
  0
LINE
  5
1DD
330
1F
100
AcDbEntity
  8
XR$1$TB_314_1
  6
AUSGEZOGEN
 62
     7
440
 33554687
370
    13
100
AcDbLine
 10
12.616806
 20
1.477105
 30
0.0
 11
12.616806
 21
1.479156
 31
0.0
  0
LINE
  5
1DE
330
1F
100
AcDbEntity
  8
XR$1$TB_314_1
  6
AUSGEZOGEN
 62
     7
440
 33554687
370
    13
100
AcDbLine
 10
12.608806
 20
1.47313
 30
0.0
 11
12.608806
 21
1.48313
 31
0.0
  0
LINE
  5
1DF
330
1F
100
AcDbEntity
  8
XR$1$TB_314_1
  6
AUSGEZOGEN
 62
     7
440
 33554687
370
    13
100
AcDbLine
 10
12.613256
 20
1.48313
 30
0.0
 11
12.613256
 21
1.47313
 31
0.0
  0
LINE
  5
1E0
330
1F
100
AcDbEntity
  8
XR$1$TB_314_1
  6
AUSGEZOGEN
 62
     7
440
 33554687
370
    13
100
AcDbLine
 10
12.606806
 20
1.48313
 30
0.0
 11
12.608641
 21
1.48313
 31
0.0
  0
LINE
  5
1E1
330
1F
100
AcDbEntity
  8
XR$1$TB_314_1
  6
AUSGEZOGEN
 62
     7
440
 33554687
370
    13
100
AcDbLine
 10
12.608641
 20
1.47313
 30
0.0
 11
12.606806
 21
1.47313
 31
0.0
  0
LINE
  5
1E2
330
1F
100
AcDbEntity
  8
XR$1$TB_314_1
  6
AUSGEZOGEN
 62
     7
440
 33554687
370
    13
100
AcDbLine
 10
12.540306
 20
1.42513
 30
0.0
 11
12.540306
 21
1.42313
 31
0.0
  0
LINE
  5
1E3
330
1F
100
AcDbEntity
  8
XR$1$TB_314_1
  6
AUSGEZOGEN
 62
     7
440
 33554687
370
    25
100
AcDbLine
 10
12.107005
 20
1.404426
 30
0.0
 11
12.107005
 21
1.424426
 31
0.0
  0
LINE
  5
1E4
330
1F
100
AcDbEntity
  8
XR$1$TB_314_1
  6
AUSGEZOGEN
 62
     7
440
 33554687
370
    25
100
AcDbLine
 10
12.115005
 20
1.404426
 30
0.0
 11
12.115005
 21
1.424426
 31
0.0
  0
LINE
  5
1E5
330
1F
100
AcDbEntity
  8
XR$1$TB_314_1
  6
AUSGEZOGEN
 62
     7
440
 33554687
370
    25
100
AcDbLine
 10
12.107005
 20
1.404426
 30
0.0
 11
11.97631
 21
1.404426
 31
0.0
  0
LINE
  5
1E6
330
1F
100
AcDbEntity
  8
XR$1$TB_314_1
  6
AUSGEZOGEN
 62
     7
440
 33554687
370
    25
100
AcDbLine
 10
12.107005
 20
1.424426
 30
0.0
 11
11.97631
 21
1.424426
 31
0.0
  0
LINE
  5
1E7
330
1F
100
AcDbEntity
  8
XR$1$TB_314_1
  6
VERDECKT2_S2
 62
     7
440
 33554687
370
    13
100
AcDbLine
 10
12.107005
 20
1.418421
 30
0.0
 11
11.97631
 21
1.418421
 31
0.0
  0
LINE
  5
1E8
330
1F
100
AcDbEntity
  8
XR$1$TB_314_1
  6
VERDECKT2_S2
 62
     7
440
 33554687
370
    13
100
AcDbLine
 10
12.107005
 20
1.410426
 30
0.0
 11
11.97631
 21
1.410426
 31
0.0
  0
LINE
  5
1E9
330
1F
100
AcDbEntity
  8
XR$1$TB_314_1
  6
AUSGEZOGEN
 62
     7
440
 33554687
370
    25
100
AcDbLine
 10
12.098501
 20
1.424521
 30
0.0
 11
12.098501
 21
1.424669
 31
0.0
  0
LINE
  5
1EA
330
1F
100
AcDbEntity
  8
XR$1$TB_314_1
  6
AUSGEZOGEN
 62
     7
440
 33554687
370
    25
100
AcDbLine
 10
12.101833
 20
1.427724
 30
0.0
 11
12.101883
 21
1.427536
 31
0.0
  0
LINE
  5
1EB
330
1F
100
AcDbEntity
  8
XR$1$TB_314_1
  6
AUSGEZOGEN
 62
     7
440
 33554687
370
    13
100
AcDbLine
 10
12.101828
 20
1.427742
 30
0.0
 11
12.101833
 21
1.427724
 31
0.0
  0
LINE
  5
1EC
330
1F
100
AcDbEntity
  8
XR$1$TB_314_1
  6
AUSGEZOGEN
 62
     7
440
 33554687
370
    13
100
AcDbLine
 10
12.099912
 20
1.42714
 30
0.0
 11
12.099985
 21
1.42694
 31
0.0
  0
LINE
  5
1ED
330
1F
100
AcDbEntity
  8
XR$1$TB_314_1
  6
AUSGEZOGEN
 62
     7
440
 33554687
370
    18
100
AcDbLine
 10
12.085997
 20
1.42813
 30
0.0
 11
12.091999
 21
1.42813
 31
0.0
  0
LINE
  5
1EE
330
1F
100
AcDbEntity
  8
XR$1$TB_314_1
  6
AUSGEZOGEN
 62
     7
440
 33554687
370
    18
100
AcDbLine
 10
12.080996
 20
1.42813
 30
0.0
 11
12.085997
 21
1.42813
 31
0.0
  0
LINE
  5
1EF
330
1F
100
AcDbEntity
  8
XR$1$TB_314_1
  6
AUSGEZOGEN
 62
     7
440
 33554687
370
    18
100
AcDbLine
 10
12.074994
 20
1.42813
 30
0.0
 11
12.080996
 21
1.42813
 31
0.0
  0
LINE
  5
1F0
330
1F
100
AcDbEntity
  8
XR$1$TB_314_1
  6
AUSGEZOGEN
 62
     7
440
 33554687
370
    18
100
AcDbLine
 10
12.080996
 20
1.430131
 30
0.0
 11
12.074994
 21
1.430131
 31
0.0
  0
LINE
  5
1F1
330
1F
100
AcDbEntity
  8
XR$1$TB_314_1
  6
AUSGEZOGEN
 62
     7
440
 33554687
370
    18
100
AcDbLine
 10
12.085997
 20
1.430131
 30
0.0
 11
12.080996
 21
1.430131
 31
0.0
  0
LINE
  5
1F2
330
1F
100
AcDbEntity
  8
XR$1$TB_314_1
  6
AUSGEZOGEN
 62
     7
440
 33554687
370
    18
100
AcDbLine
 10
12.091999
 20
1.430131
 30
0.0
 11
12.085997
 21
1.430131
 31
0.0
  0
LINE
  5
1F3
330
1F
100
AcDbEntity
  8
XR$1$TB_314_1
  6
AUSGEZOGEN
 62
     7
440
 33554687
370
    18
100
AcDbLine
 10
12.074994
 20
1.430131
 30
0.0
 11
12.046565
 21
1.430131
 31
0.0
  0
LINE
  5
1F4
330
1F
100
AcDbEntity
  8
XR$1$TB_314_1
  6
AUSGEZOGEN
 62
     7
440
 33554687
370
    18
100
AcDbLine
 10
12.046565
 20
1.42813
 30
0.0
 11
12.074994
 21
1.42813
 31
0.0
  0
LINE
  5
1F5
330
1F
100
AcDbEntity
  8
XR$1$TB_314_1
  6
AUSGEZOGEN
 62
     7
440
 33554687
370
    18
100
AcDbLine
 10
12.103277
 20
1.424629
 30
0.0
 11
12.105253
 21
1.424629
 31
0.0
  0
LINE
  5
1F6
330
1F
100
AcDbEntity
  8
XR$1$TB_314_1
  6
AUSGEZOGEN
 62
     7
440
 33554687
370
    18
100
AcDbLine
 10
12.105253
 20
1.424629
 30
0.0
 11
12.105253
 21
1.42663
 31
0.0
  0
LINE
  5
1F7
330
1F
100
AcDbEntity
  8
XR$1$TB_314_1
  6
AUSGEZOGEN
 62
     7
440
 33554687
370
    18
100
AcDbLine
 10
12.105253
 20
1.42663
 30
0.0
 11
12.103277
 21
1.42663
 31
0.0
  0
LINE
  5
1F8
330
1F
100
AcDbEntity
  8
XR$1$TB_314_1
  6
AUSGEZOGEN
 62
     7
440
 33554687
370
    18
100
AcDbLine
 10
12.098501
 20
1.423737
 30
0.0
 11
12.098501
 21
1.424521
 31
0.0
  0
LINE
  5
1F9
330
1F
100
AcDbEntity
  8
XR$1$TB_314_1
  6
AUSGEZOGEN
 62
     7
440
 33554687
370
    18
100
AcDbLine
 10
12.116757
 20
1.42663
 30
0.0
 11
12.116757
 21
1.424629
 31
0.0
  0
LINE
  5
1FA
330
1F
100
AcDbEntity
  8
XR$1$TB_314_1
  6
AUSGEZOGEN
 62
     7
440
 33554687
370
    18
100
AcDbLine
 10
12.118733
 20
1.42663
 30
0.0
 11
12.116757
 21
1.42663
 31
0.0
  0
LINE
  5
1FB
330
1F
100
AcDbEntity
  8
XR$1$TB_314_1
  6
AUSGEZOGEN
 62
     7
440
 33554687
370
    18
100
AcDbLine
 10
12.116757
 20
1.424629
 30
0.0
 11
12.118733
 21
1.424629
 31
0.0
  0
LINE
  5
1FC
330
1F
100
AcDbEntity
  8
XR$1$TB_314_1
  6
AUSGEZOGEN
 62
     7
440
 33554687
370
    18
100
AcDbLine
 10
12.120177
 20
1.427724
 30
0.0
 11
12.120182
 21
1.427742
 31
0.0
  0
LINE
  5
1FD
330
1F
100
AcDbEntity
  8
XR$1$TB_314_1
  6
AUSGEZOGEN
 62
     7
440
 33554687
370
    18
100
AcDbLine
 10
12.120127
 20
1.427536
 30
0.0
 11
12.120177
 21
1.427724
 31
0.0
  0
LINE
  5
1FE
330
1F
100
AcDbEntity
  8
XR$1$TB_314_1
  6
AUSGEZOGEN
 62
     7
440
 33554687
370
    18
100
AcDbLine
 10
12.123509
 20
1.422086
 30
0.0
 11
12.123509
 21
1.423737
 31
0.0
  0
LINE
  5
1FF
330
1F
100
AcDbEntity
  8
XR$1$TB_314_1
  6
AUSGEZOGEN
 62
     7
440
 33554687
370
    18
100
AcDbLine
 10
12.123509
 20
1.424521
 30
0.0
 11
12.123509
 21
1.424669
 31
0.0
  0
LINE
  5
200
330
1F
100
AcDbEntity
  8
XR$1$TB_314_1
  6
AUSGEZOGEN
 62
     7
440
 33554687
370
    18
100
AcDbLine
 10
12.123509
 20
1.422086
 30
0.0
 11
12.125169
 21
1.422086
 31
0.0
  0
LINE
  5
201
330
1F
100
AcDbEntity
  8
XR$1$TB_314_1
  6
AUSGEZOGEN
 62
     7
440
 33554687
370
    18
100
AcDbLine
 10
12.141014
 20
1.42813
 30
0.0
 11
12.147016
 21
1.42813
 31
0.0
  0
LINE
  5
202
330
1F
100
AcDbEntity
  8
XR$1$TB_314_1
  6
AUSGEZOGEN
 62
     7
440
 33554687
370
    18
100
AcDbLine
 10
12.136012
 20
1.42813
 30
0.0
 11
12.141014
 21
1.42813
 31
0.0
  0
LINE
  5
203
330
1F
100
AcDbEntity
  8
XR$1$TB_314_1
  6
AUSGEZOGEN
 62
     7
440
 33554687
370
    18
100
AcDbLine
 10
12.130011
 20
1.42813
 30
0.0
 11
12.136012
 21
1.42813
 31
0.0
  0
LINE
  5
204
330
1F
100
AcDbEntity
  8
XR$1$TB_314_1
  6
AUSGEZOGEN
 62
     7
440
 33554687
370
    18
100
AcDbLine
 10
12.136012
 20
1.430131
 30
0.0
 11
12.130011
 21
1.430131
 31
0.0
  0
LINE
  5
205
330
1F
100
AcDbEntity
  8
XR$1$TB_314_1
  6
AUSGEZOGEN
 62
     7
440
 33554687
370
    18
100
AcDbLine
 10
12.141014
 20
1.430131
 30
0.0
 11
12.136012
 21
1.430131
 31
0.0
  0
LINE
  5
206
330
1F
100
AcDbEntity
  8
XR$1$TB_314_1
  6
AUSGEZOGEN
 62
     7
440
 33554687
370
    18
100
AcDbLine
 10
12.147016
 20
1.430131
 30
0.0
 11
12.141014
 21
1.430131
 31
0.0
  0
LINE
  5
207
330
1F
100
AcDbEntity
  8
XR$1$TB_314_1
  6
AUSGEZOGEN
 62
     7
440
 33554687
370
    18
100
AcDbLine
 10
12.091999
 20
1.42813
 30
0.0
 11
12.130011
 21
1.42813
 31
0.0
  0
LINE
  5
208
330
1F
100
AcDbEntity
  8
XR$1$TB_314_1
  6
AUSGEZOGEN
 62
     7
440
 33554687
370
    18
100
AcDbLine
 10
12.130011
 20
1.430131
 30
0.0
 11
12.091999
 21
1.430131
 31
0.0
  0
LINE
  5
209
330
1F
100
AcDbEntity
  8
XR$1$TB_314_1
  6
AUSGEZOGEN
 62
     7
440
 33554687
370
    18
100
AcDbLine
 10
12.175445
 20
1.430131
 30
0.0
 11
12.147016
 21
1.430131
 31
0.0
  0
LINE
  5
20A
330
1F
100
AcDbEntity
  8
XR$1$TB_314_1
  6
AUSGEZOGEN
 62
     7
440
 33554687
370
    18
100
AcDbLine
 10
12.147016
 20
1.42813
 30
0.0
 11
12.175445
 21
1.42813
 31
0.0
  0
LINE
  5
20B
330
1F
100
AcDbEntity
  8
XR$1$TB_314_1
  6
AUSGEZOGEN
 62
     7
440
 33554687
370
    18
100
AcDbLine
 10
12.005009
 20
1.44613
 30
0.0
 11
12.032708
 21
1.44613
 31
0.0
  0
LINE
  5
20C
330
1F
100
AcDbEntity
  8
XR$1$TB_314_1
  6
AUSGEZOGEN
 62
     7
440
 33554687
370
    18
100
AcDbLine
 10
12.0431
 20
1.430131
 30
0.0
 11
12.034441
 21
1.445129
 31
0.0
  0
LINE
  5
20D
330
1F
100
AcDbEntity
  8
XR$1$TB_314_1
  6
AUSGEZOGEN
 62
     7
440
 33554687
370
    18
100
AcDbLine
 10
12.044832
 20
1.431131
 30
0.0
 11
12.036173
 21
1.44613
 31
0.0
  0
LINE
  5
20E
330
1F
100
AcDbEntity
  8
XR$1$TB_314_1
  6
AUSGEZOGEN
 62
     7
440
 33554687
370
    18
100
AcDbLine
 10
12.217001
 20
1.44613
 30
0.0
 11
12.189302
 21
1.44613
 31
0.0
  0
LINE
  5
20F
330
1F
100
AcDbEntity
  8
XR$1$TB_314_1
  6
AUSGEZOGEN
 62
     7
440
 33554687
370
    18
100
AcDbLine
 10
12.17891
 20
1.430131
 30
0.0
 11
12.187569
 21
1.445129
 31
0.0
  0
LINE
  5
210
330
1F
100
AcDbEntity
  8
XR$1$TB_314_1
  6
AUSGEZOGEN
 62
     7
440
 33554687
370
    18
100
AcDbLine
 10
12.177177
 20
1.431131
 30
0.0
 11
12.185837
 21
1.44613
 31
0.0
  0
LINE
  5
211
330
1F
100
AcDbEntity
  8
XR$1$TB_314_1
  6
AUSGEZOGEN
 62
     7
440
 33554687
370
    13
100
AcDbLine
 10
12.134012
 20
1.415126
 30
0.0
 11
12.134012
 21
1.417127
 31
0.0
  0
LINE
  5
212
330
1F
100
AcDbEntity
  8
XR$1$TB_314_1
  6
AUSGEZOGEN
 62
     7
440
 33554687
370
    13
100
AcDbLine
 10
12.134012
 20
1.418177
 30
0.0
 11
12.134012
 21
1.417127
 31
0.0
  0
LINE
  5
213
330
1F
100
AcDbEntity
  8
XR$1$TB_314_1
  6
AUSGEZOGEN
 62
     7
440
 33554687
370
    13
100
AcDbLine
 10
12.131104
 20
1.417879
 30
0.0
 11
12.131011
 21
1.417931
 31
0.0
  0
LINE
  5
214
330
1F
100
AcDbEntity
  8
XR$1$TB_314_1
  6
AUSGEZOGEN
 62
     7
440
 33554687
370
    13
100
AcDbLine
 10
12.131011
 20
1.417931
 30
0.0
 11
12.128963
 21
1.419884
 31
0.0
  0
LINE
  5
215
330
1F
100
AcDbEntity
  8
XR$1$TB_314_1
  6
AUSGEZOGEN
 62
     7
440
 33554687
370
    13
100
AcDbLine
 10
12.144015
 20
1.415927
 30
0.0
 11
12.134012
 21
1.415927
 31
0.0
  0
LINE
  5
216
330
1F
100
AcDbEntity
  8
XR$1$TB_314_1
  6
AUSGEZOGEN
 62
     7
440
 33554687
370
    13
100
AcDbLine
 10
12.134012
 20
1.417127
 30
0.0
 11
12.139013
 21
1.417127
 31
0.0
  0
LINE
  5
217
330
1F
100
AcDbEntity
  8
XR$1$TB_314_1
  6
AUSGEZOGEN
 62
     7
440
 33554687
370
    13
100
AcDbLine
 10
12.144015
 20
1.418177
 30
0.0
 11
12.134012
 21
1.418177
 31
0.0
  0
LINE
  5
218
330
1F
100
AcDbEntity
  8
XR$1$TB_314_1
  6
AUSGEZOGEN
 62
     7
440
 33554687
370
    13
100
AcDbLine
 10
12.134012
 20
1.417127
 30
0.0
 11
12.131104
 21
1.417879
 31
0.0
  0
LINE
  5
219
330
1F
100
AcDbEntity
  8
XR$1$TB_314_1
  6
AUSGEZOGEN
 62
     7
440
 33554687
370
    13
100
AcDbLine
 10
12.139013
 20
1.415126
 30
0.0
 11
12.134012
 21
1.415126
 31
0.0
  0
LINE
  5
21A
330
1F
100
AcDbEntity
  8
XR$1$TB_314_1
  6
AUSGEZOGEN
 62
     7
440
 33554687
370
    13
100
AcDbLine
 10
12.131011
 20
1.41571
 30
0.0
 11
12.134012
 21
1.415126
 31
0.0
  0
LINE
  5
21B
330
1F
100
AcDbEntity
  8
XR$1$TB_314_1
  6
AUSGEZOGEN
 62
     7
440
 33554687
370
    13
100
AcDbLine
 10
12.146923
 20
1.417879
 30
0.0
 11
12.147016
 21
1.417931
 31
0.0
  0
LINE
  5
21C
330
1F
100
AcDbEntity
  8
XR$1$TB_314_1
  6
AUSGEZOGEN
 62
     7
440
 33554687
370
    13
100
AcDbLine
 10
12.144015
 20
1.417127
 30
0.0
 11
12.144015
 21
1.415126
 31
0.0
  0
LINE
  5
21D
330
1F
100
AcDbEntity
  8
XR$1$TB_314_1
  6
AUSGEZOGEN
 62
     7
440
 33554687
370
    13
100
AcDbLine
 10
12.144015
 20
1.417127
 30
0.0
 11
12.146923
 21
1.417879
 31
0.0
  0
LINE
  5
21E
330
1F
100
AcDbEntity
  8
XR$1$TB_314_1
  6
AUSGEZOGEN
 62
     7
440
 33554687
370
    13
100
AcDbLine
 10
12.144015
 20
1.417127
 30
0.0
 11
12.144015
 21
1.418177
 31
0.0
  0
LINE
  5
21F
330
1F
100
AcDbEntity
  8
XR$1$TB_314_1
  6
AUSGEZOGEN
 62
     7
440
 33554687
370
    13
100
AcDbLine
 10
12.139013
 20
1.417127
 30
0.0
 11
12.144015
 21
1.417127
 31
0.0
  0
LINE
  5
220
330
1F
100
AcDbEntity
  8
XR$1$TB_314_1
  6
AUSGEZOGEN
 62
     7
440
 33554687
370
    13
100
AcDbLine
 10
12.138615
 20
1.416627
 30
0.0
 11
12.139411
 21
1.416627
 31
0.0
  0
LINE
  5
221
330
1F
100
AcDbEntity
  8
XR$1$TB_314_1
  6
AUSGEZOGEN
 62
     7
440
 33554687
370
    13
100
AcDbLine
 10
12.147016
 20
1.417931
 30
0.0
 11
12.149064
 21
1.419884
 31
0.0
  0
LINE
  5
222
330
1F
100
AcDbEntity
  8
XR$1$TB_314_1
  6
AUSGEZOGEN
 62
     7
440
 33554687
370
    13
100
AcDbLine
 10
12.140039
 20
1.414626
 30
0.0
 11
12.137988
 21
1.414626
 31
0.0
  0
LINE
  5
223
330
1F
100
AcDbEntity
  8
XR$1$TB_314_1
  6
AUSGEZOGEN
 62
     7
440
 33554687
370
    13
100
AcDbLine
 10
12.144015
 20
1.415126
 30
0.0
 11
12.139013
 21
1.415126
 31
0.0
  0
LINE
  5
224
330
1F
100
AcDbEntity
  8
XR$1$TB_314_1
  6
AUSGEZOGEN
 62
     7
440
 33554687
370
    13
100
AcDbLine
 10
12.147016
 20
1.41571
 30
0.0
 11
12.144015
 21
1.415126
 31
0.0
  0
LINE
  5
225
330
1F
100
AcDbEntity
  8
XR$1$TB_314_1
  6
AUSGEZOGEN
 62
     7
440
 33554687
370
    13
100
AcDbLine
 10
12.074994
 20
1.41571
 30
0.0
 11
12.077995
 21
1.415126
 31
0.0
  0
LINE
  5
226
330
1F
100
AcDbEntity
  8
XR$1$TB_314_1
  6
AUSGEZOGEN
 62
     7
440
 33554687
370
    13
100
AcDbLine
 10
12.090999
 20
1.41571
 30
0.0
 11
12.087998
 21
1.415126
 31
0.0
  0
LINE
  5
227
330
1F
100
AcDbEntity
  8
XR$1$TB_314_1
  6
STRICHLINIE_S4
 62
     7
440
 33554687
370
    13
100
AcDbLine
 10
12.090906
 20
1.417879
 30
0.0
 11
12.087998
 21
1.417127
 31
0.0
  0
LINE
  5
228
330
1F
100
AcDbEntity
  8
XR$1$TB_314_1
  6
AUSGEZOGEN
 62
     7
440
 33554687
370
    13
100
AcDbLine
 10
12.077995
 20
1.415126
 30
0.0
 11
12.077995
 21
1.417127
 31
0.0
  0
LINE
  5
229
330
1F
100
AcDbEntity
  8
XR$1$TB_314_1
  6
AUSGEZOGEN
 62
     7
440
 33554687
370
    13
100
AcDbLine
 10
12.077995
 20
1.418177
 30
0.0
 11
12.077995
 21
1.417127
 31
0.0
  0
LINE
  5
22A
330
1F
100
AcDbEntity
  8
XR$1$TB_314_1
  6
AUSGEZOGEN
 62
     7
440
 33554687
370
    13
100
AcDbLine
 10
12.075087
 20
1.417879
 30
0.0
 11
12.074994
 21
1.417931
 31
0.0
  0
LINE
  5
22B
330
1F
100
AcDbEntity
  8
XR$1$TB_314_1
  6
AUSGEZOGEN
 62
     7
440
 33554687
370
    13
100
AcDbLine
 10
12.077995
 20
1.417127
 30
0.0
 11
12.075087
 21
1.417879
 31
0.0
  0
LINE
  5
22C
330
1F
100
AcDbEntity
  8
XR$1$TB_314_1
  6
AUSGEZOGEN
 62
     7
440
 33554687
370
    13
100
AcDbLine
 10
12.074994
 20
1.417931
 30
0.0
 11
12.072946
 21
1.419884
 31
0.0
  0
LINE
  5
22D
330
1F
100
AcDbEntity
  8
XR$1$TB_314_1
  6
AUSGEZOGEN
 62
     7
440
 33554687
370
    13
100
AcDbLine
 10
12.090906
 20
1.417879
 30
0.0
 11
12.090999
 21
1.417931
 31
0.0
  0
LINE
  5
22E
330
1F
100
AcDbEntity
  8
XR$1$TB_314_1
  6
AUSGEZOGEN
 62
     7
440
 33554687
370
    13
100
AcDbLine
 10
12.087998
 20
1.417127
 30
0.0
 11
12.087998
 21
1.415126
 31
0.0
  0
LINE
  5
22F
330
1F
100
AcDbEntity
  8
XR$1$TB_314_1
  6
AUSGEZOGEN
 62
     7
440
 33554687
370
    13
100
AcDbLine
 10
12.087998
 20
1.417127
 30
0.0
 11
12.090906
 21
1.417879
 31
0.0
  0
LINE
  5
230
330
1F
100
AcDbEntity
  8
XR$1$TB_314_1
  6
AUSGEZOGEN
 62
     7
440
 33554687
370
    13
100
AcDbLine
 10
12.087998
 20
1.415927
 30
0.0
 11
12.077995
 21
1.415927
 31
0.0
  0
LINE
  5
231
330
1F
100
AcDbEntity
  8
XR$1$TB_314_1
  6
AUSGEZOGEN
 62
     7
440
 33554687
370
    13
100
AcDbLine
 10
12.087998
 20
1.417127
 30
0.0
 11
12.087998
 21
1.418177
 31
0.0
  0
LINE
  5
232
330
1F
100
AcDbEntity
  8
XR$1$TB_314_1
  6
AUSGEZOGEN
 62
     7
440
 33554687
370
    13
100
AcDbLine
 10
12.077995
 20
1.417127
 30
0.0
 11
12.082997
 21
1.417127
 31
0.0
  0
LINE
  5
233
330
1F
100
AcDbEntity
  8
XR$1$TB_314_1
  6
AUSGEZOGEN
 62
     7
440
 33554687
370
    13
100
AcDbLine
 10
12.082997
 20
1.417127
 30
0.0
 11
12.087998
 21
1.417127
 31
0.0
  0
LINE
  5
234
330
1F
100
AcDbEntity
  8
XR$1$TB_314_1
  6
AUSGEZOGEN
 62
     7
440
 33554687
370
    13
100
AcDbLine
 10
12.082599
 20
1.416627
 30
0.0
 11
12.083394
 21
1.416627
 31
0.0
  0
LINE
  5
235
330
1F
100
AcDbEntity
  8
XR$1$TB_314_1
  6
AUSGEZOGEN
 62
     7
440
 33554687
370
    13
100
AcDbLine
 10
12.087998
 20
1.418177
 30
0.0
 11
12.077995
 21
1.418177
 31
0.0
  0
LINE
  5
236
330
1F
100
AcDbEntity
  8
XR$1$TB_314_1
  6
AUSGEZOGEN
 62
     7
440
 33554687
370
    13
100
AcDbLine
 10
12.090999
 20
1.417931
 30
0.0
 11
12.093047
 21
1.419884
 31
0.0
  0
LINE
  5
237
330
1F
100
AcDbEntity
  8
XR$1$TB_314_1
  6
AUSGEZOGEN
 62
     7
440
 33554687
370
    13
100
AcDbLine
 10
12.084022
 20
1.414626
 30
0.0
 11
12.081971
 21
1.414626
 31
0.0
  0
LINE
  5
238
330
1F
100
AcDbEntity
  8
XR$1$TB_314_1
  6
AUSGEZOGEN
 62
     7
440
 33554687
370
    13
100
AcDbLine
 10
12.082997
 20
1.415126
 30
0.0
 11
12.077995
 21
1.415126
 31
0.0
  0
LINE
  5
239
330
1F
100
AcDbEntity
  8
XR$1$TB_314_1
  6
AUSGEZOGEN
 62
     7
440
 33554687
370
    13
100
AcDbLine
 10
12.087998
 20
1.415126
 30
0.0
 11
12.082997
 21
1.415126
 31
0.0
  0
LINE
  5
23A
330
1F
100
AcDbEntity
  8
XR$1$TB_314_1
  6
AUSGEZOGEN
 62
     7
440
 33554687
370
    13
100
AcDbLine
 10
12.096841
 20
1.422086
 30
0.0
 11
12.098501
 21
1.422086
 31
0.0
  0
LINE
  5
23B
330
1F
100
AcDbEntity
  8
XR$1$TB_314_1
  6
AUSGEZOGEN
 62
     7
440
 33554687
370
    13
100
AcDbLine
 10
12.098501
 20
1.423737
 30
0.0
 11
12.098501
 21
1.422086
 31
0.0
  0
LINE
  5
23C
330
1F
100
AcDbEntity
  8
XR$1$TB_314_1
  6
AUSGEZOGEN
 62
     7
440
 33554687
370
    18
100
AcDbLine
 10
12.123509
 20
1.424521
 30
0.0
 11
12.123509
 21
1.423929
 31
0.0
  0
LINE
  5
23D
330
1F
100
AcDbEntity
  8
XR$1$TB_314_1
  6
AUSGEZOGEN
 62
     7
440
 33554687
370
    18
100
AcDbLine
 10
12.123509
 20
1.423929
 30
0.0
 11
12.123509
 21
1.423737
 31
0.0
  0
LINE
  5
23E
330
1F
100
AcDbEntity
  8
XR$1$TB_314_1
  6
AUSGEZOGEN
 62
     7
440
 33554687
370
    13
100
AcDbLine
 10
12.123056
 20
1.425374
 30
0.0
 11
12.123984
 21
1.423929
 31
0.0
  0
LINE
  5
23F
330
1F
100
AcDbEntity
  8
XR$1$TB_314_1
  6
AUSGEZOGEN
 62
     7
440
 33554687
370
    13
100
AcDbLine
 10
12.154971
 20
1.425374
 30
0.0
 11
12.154042
 21
1.423929
 31
0.0
  0
LINE
  5
240
330
1F
100
AcDbEntity
  8
XR$1$TB_314_1
  6
AUSGEZOGEN
 62
     7
440
 33554687
370
    25
100
AcDbLine
 10
12.621685
 20
1.407556
 30
0.0
 11
12.621685
 21
1.404556
 31
0.0
  0
LINE
  5
241
330
1F
100
AcDbEntity
  8
XR$1$TB_314_1
  6
AUSGEZOGEN
 62
     7
440
 33554687
370
    25
100
AcDbLine
 10
12.604685
 20
1.424556
 30
0.0
 11
12.621685
 21
1.407556
 31
0.0
  0
LINE
  5
242
330
1F
100
AcDbEntity
  8
XR$1$TB_314_1
  6
AUSGEZOGEN
 62
     7
440
 33554687
370
    25
100
AcDbLine
 10
12.623806
 20
1.409677
 30
0.0
 11
12.626806
 21
1.409677
 31
0.0
  0
LINE
  5
243
330
1F
100
AcDbEntity
  8
XR$1$TB_314_1
  6
AUSGEZOGEN
 62
     7
440
 33554687
370
    25
100
AcDbLine
 10
12.606806
 20
1.426677
 30
0.0
 11
12.623806
 21
1.409677
 31
0.0
  0
LINE
  5
244
330
1F
100
AcDbEntity
  8
XR$1$TB_314_1
  6
AUSGEZOGEN
 62
     7
440
 33554687
370
    18
100
AcDbLine
 10
12.590403
 20
1.404556
 30
0.0
 11
12.590403
 21
1.38194
 31
0.0
  0
LINE
  5
245
330
1F
100
AcDbEntity
  8
XR$1$TB_314_1
  6
AUSGEZOGEN
 62
    52
440
 33554687
370
    18
100
AcDbLine
 10
12.592403
 20
1.404556
 30
0.0
 11
12.592403
 21
1.38194
 31
0.0
  0
LINE
  5
246
330
1F
100
AcDbEntity
  8
XR$1$TB_314_1
  6
AUSGEZOGEN
 62
     7
440
 33554687
370
    18
100
AcDbLine
 10
12.544306
 20
1.43013
 30
0.0
 11
12.522615
 21
1.43013
 31
0.0
  0
LINE
  5
247
330
1F
100
AcDbEntity
  8
XR$1$TB_314_1
  6
AUSGEZOGEN
 62
     7
440
 33554687
370
    18
100
AcDbLine
 10
12.522615
 20
1.42813
 30
0.0
 11
12.544306
 21
1.42813
 31
0.0
  0
LINE
  5
248
330
1F
100
AcDbEntity
  8
XR$1$TB_314_1
  6
AUSGEZOGEN
 62
     7
440
 33554687
370
    18
100
AcDbLine
 10
12.556306
 20
1.43013
 30
0.0
 11
12.562306
 21
1.43013
 31
0.0
  0
LINE
  5
249
330
1F
100
AcDbEntity
  8
XR$1$TB_314_1
  6
AUSGEZOGEN
 62
     7
440
 33554687
370
    18
100
AcDbLine
 10
12.550306
 20
1.43013
 30
0.0
 11
12.556306
 21
1.43013
 31
0.0
  0
LINE
  5
24A
330
1F
100
AcDbEntity
  8
XR$1$TB_314_1
  6
AUSGEZOGEN
 62
     7
440
 33554687
370
    18
100
AcDbLine
 10
12.544306
 20
1.43013
 30
0.0
 11
12.550306
 21
1.43013
 31
0.0
  0
LINE
  5
24B
330
1F
100
AcDbEntity
  8
XR$1$TB_314_1
  6
AUSGEZOGEN
 62
     7
440
 33554687
370
    18
100
AcDbLine
 10
12.550306
 20
1.42813
 30
0.0
 11
12.544306
 21
1.42813
 31
0.0
  0
LINE
  5
24C
330
1F
100
AcDbEntity
  8
XR$1$TB_314_1
  6
AUSGEZOGEN
 62
     7
440
 33554687
370
    18
100
AcDbLine
 10
12.556306
 20
1.42813
 30
0.0
 11
12.550306
 21
1.42813
 31
0.0
  0
LINE
  5
24D
330
1F
100
AcDbEntity
  8
XR$1$TB_314_1
  6
AUSGEZOGEN
 62
     7
440
 33554687
370
    18
100
AcDbLine
 10
12.562306
 20
1.42813
 30
0.0
 11
12.556306
 21
1.42813
 31
0.0
  0
LINE
  5
24E
330
1F
100
AcDbEntity
  8
XR$1$TB_314_1
  6
AUSGEZOGEN
 62
     7
440
 33554687
370
    18
100
AcDbLine
 10
12.572136
 20
1.427724
 30
0.0
 11
12.572187
 21
1.427536
 31
0.0
  0
LINE
  5
24F
330
1F
100
AcDbEntity
  8
XR$1$TB_314_1
  6
AUSGEZOGEN
 62
     7
440
 33554687
370
    18
100
AcDbLine
 10
12.572191
 20
1.42752
 30
0.0
 11
12.572187
 21
1.427536
 31
0.0
  0
LINE
  5
250
330
1F
100
AcDbEntity
  8
XR$1$TB_314_1
  6
AUSGEZOGEN
 62
     7
440
 33554687
370
    18
100
AcDbLine
 10
12.575556
 20
1.42663
 30
0.0
 11
12.57335
 21
1.42663
 31
0.0
  0
LINE
  5
251
330
1F
100
AcDbEntity
  8
XR$1$TB_314_1
  6
AUSGEZOGEN
 62
     7
440
 33554687
370
    18
100
AcDbLine
 10
12.575556
 20
1.42463
 30
0.0
 11
12.575556
 21
1.42663
 31
0.0
  0
LINE
  5
252
330
1F
100
AcDbEntity
  8
XR$1$TB_314_1
  6
AUSGEZOGEN
 62
     7
440
 33554687
370
    18
100
AcDbLine
 10
12.57335
 20
1.42463
 30
0.0
 11
12.575556
 21
1.42463
 31
0.0
  0
LINE
  5
253
330
1F
100
AcDbEntity
  8
XR$1$TB_314_1
  6
AUSGEZOGEN
 62
     7
440
 33554687
370
    18
100
AcDbLine
 10
12.568806
 20
1.42813
 30
0.0
 11
12.568806
 21
1.426416
 31
0.0
  0
LINE
  5
254
330
1F
100
AcDbEntity
  8
XR$1$TB_314_1
  6
AUSGEZOGEN
 62
     7
440
 33554687
370
    18
100
AcDbLine
 10
12.562806
 20
1.426416
 30
0.0
 11
12.562806
 21
1.42813
 31
0.0
  0
LINE
  5
255
330
1F
100
AcDbEntity
  8
XR$1$TB_314_1
  6
AUSGEZOGEN
 62
     7
440
 33554687
370
    18
100
AcDbLine
 10
12.548306
 20
1.42813
 30
0.0
 11
12.548306
 21
1.428048
 31
0.0
  0
LINE
  5
256
330
1F
100
AcDbEntity
  8
XR$1$TB_314_1
  6
AUSGEZOGEN
 62
     7
440
 33554687
370
    18
100
AcDbLine
 10
12.558306
 20
1.428048
 30
0.0
 11
12.558306
 21
1.42813
 31
0.0
  0
LINE
  5
257
330
1F
100
AcDbEntity
  8
XR$1$TB_314_1
  6
AUSGEZOGEN
 62
     7
440
 33554687
370
    18
100
AcDbLine
 10
12.568808
 20
1.427939
 30
0.0
 11
12.569016
 21
1.428129
 31
0.0
  0
LINE
  5
258
330
1F
100
AcDbEntity
  8
XR$1$TB_314_1
  6
AUSGEZOGEN
 62
     7
440
 33554687
370
    18
100
AcDbLine
 10
12.569259
 20
1.425375
 30
0.0
 11
12.568806
 21
1.42467
 31
0.0
  0
LINE
  5
259
330
1F
100
AcDbEntity
  8
XR$1$TB_314_1
  6
AUSGEZOGEN
 62
     7
440
 33554687
370
    18
100
AcDbLine
 10
12.539036
 20
1.426456
 30
0.0
 11
12.537596
 21
1.428129
 31
0.0
  0
LINE
  5
25A
330
1F
100
AcDbEntity
  8
XR$1$TB_314_1
  6
AUSGEZOGEN
 62
     7
440
 33554687
370
    18
100
AcDbLine
 10
12.57312
 20
1.42463
 30
0.0
 11
12.57335
 21
1.42463
 31
0.0
  0
LINE
  5
25B
330
1F
100
AcDbEntity
  8
XR$1$TB_314_1
  6
AUSGEZOGEN
 62
     7
440
 33554687
370
    13
100
AcDbLine
 10
12.562806
 20
1.42197
 30
0.0
 11
12.568806
 21
1.42197
 31
0.0
  0
LINE
  5
25C
330
1F
100
AcDbEntity
  8
XR$1$TB_314_1
  6
AUSGEZOGEN
 62
     7
440
 33554687
370
    13
100
AcDbLine
 10
12.568806
 20
1.423216
 30
0.0
 11
12.568806
 21
1.42197
 31
0.0
  0
LINE
  5
25D
330
1F
100
AcDbEntity
  8
XR$1$TB_314_1
  6
AUSGEZOGEN
 62
     7
440
 33554687
370
    13
100
AcDbLine
 10
12.562806
 20
1.42197
 30
0.0
 11
12.562806
 21
1.423216
 31
0.0
  0
LINE
  5
25E
330
1F
100
AcDbEntity
  8
XR$1$TB_314_1
  6
AUSGEZOGEN
 62
     7
440
 33554687
370
    13
100
AcDbLine
 10
12.568806
 20
1.423216
 30
0.0
 11
12.568806
 21
1.426416
 31
0.0
  0
LINE
  5
25F
330
1F
100
AcDbEntity
  8
XR$1$TB_314_1
  6
AUSGEZOGEN
 62
     7
440
 33554687
370
    13
100
AcDbLine
 10
12.562806
 20
1.426416
 30
0.0
 11
12.562806
 21
1.423216
 31
0.0
  0
LINE
  5
260
330
1F
100
AcDbEntity
  8
XR$1$TB_314_1
  6
AUSGEZOGEN
 62
     7
440
 33554687
370
    13
100
AcDbLine
 10
12.548306
 20
1.42263
 30
0.0
 11
12.548306
 21
1.422795
 31
0.0
  0
LINE
  5
261
330
1F
100
AcDbEntity
  8
XR$1$TB_314_1
  6
AUSGEZOGEN
 62
     7
440
 33554687
370
    13
100
AcDbLine
 10
12.558306
 20
1.422795
 30
0.0
 11
12.558306
 21
1.42263
 31
0.0
  0
LINE
  5
262
330
1F
100
AcDbEntity
  8
XR$1$TB_314_1
  6
AUSGEZOGEN
 62
     7
440
 33554687
370
    13
100
AcDbLine
 10
12.548306
 20
1.428048
 30
0.0
 11
12.548306
 21
1.422795
 31
0.0
  0
LINE
  5
263
330
1F
100
AcDbEntity
  8
XR$1$TB_314_1
  6
AUSGEZOGEN
 62
     7
440
 33554687
370
    13
100
AcDbLine
 10
12.558306
 20
1.422795
 30
0.0
 11
12.558306
 21
1.428048
 31
0.0
  0
LINE
  5
264
330
1F
100
AcDbEntity
  8
XR$1$TB_314_1
  6
AUSGEZOGEN
 62
     7
440
 33554687
370
    13
100
AcDbLine
 10
12.558306
 20
1.417801
 30
0.0
 11
12.558306
 21
1.41593
 31
0.0
  0
LINE
  5
265
330
1F
100
AcDbEntity
  8
XR$1$TB_314_1
  6
AUSGEZOGEN
 62
     7
440
 33554687
370
    13
100
AcDbLine
 10
12.557306
 20
1.41593
 30
0.0
 11
12.558306
 21
1.41593
 31
0.0
  0
LINE
  5
266
330
1F
100
AcDbEntity
  8
XR$1$TB_314_1
  6
AUSGEZOGEN
 62
     7
440
 33554687
370
    13
100
AcDbLine
 10
12.548306
 20
1.41593
 30
0.0
 11
12.549306
 21
1.41593
 31
0.0
  0
LINE
  5
267
330
1F
100
AcDbEntity
  8
XR$1$TB_314_1
  6
AUSGEZOGEN
 62
     7
440
 33554687
370
    13
100
AcDbLine
 10
12.548306
 20
1.417801
 30
0.0
 11
12.548306
 21
1.41593
 31
0.0
  0
LINE
  5
268
330
1F
100
AcDbEntity
  8
XR$1$TB_314_1
  6
AUSGEZOGEN
 62
     7
440
 33554687
370
    13
100
AcDbLine
 10
12.558306
 20
1.417801
 30
0.0
 11
12.558306
 21
1.41818
 31
0.0
  0
LINE
  5
269
330
1F
100
AcDbEntity
  8
XR$1$TB_314_1
  6
AUSGEZOGEN
 62
     7
440
 33554687
370
    13
100
AcDbLine
 10
12.558306
 20
1.41593
 30
0.0
 11
12.558306
 21
1.41513
 31
0.0
  0
LINE
  5
26A
330
1F
100
AcDbEntity
  8
XR$1$TB_314_1
  6
AUSGEZOGEN
 62
     7
440
 33554687
370
    13
100
AcDbLine
 10
12.561306
 20
1.415714
 30
0.0
 11
12.558306
 21
1.41513
 31
0.0
  0
LINE
  5
26B
330
1F
100
AcDbEntity
  8
XR$1$TB_314_1
  6
AUSGEZOGEN
 62
     7
440
 33554687
370
    13
100
AcDbLine
 10
12.561306
 20
1.417934
 30
0.0
 11
12.563353
 21
1.419886
 31
0.0
  0
LINE
  5
26C
330
1F
100
AcDbEntity
  8
XR$1$TB_314_1
  6
AUSGEZOGEN
 62
     7
440
 33554687
370
    13
100
AcDbLine
 10
12.563353
 20
1.419886
 30
0.0
 11
12.564693
 21
1.42197
 31
0.0
  0
LINE
  5
26D
330
1F
100
AcDbEntity
  8
XR$1$TB_314_1
  6
AUSGEZOGEN
 62
     7
440
 33554687
370
    13
100
AcDbLine
 10
12.545306
 20
1.415714
 30
0.0
 11
12.548306
 21
1.41513
 31
0.0
  0
LINE
  5
26E
330
1F
100
AcDbEntity
  8
XR$1$TB_314_1
  6
AUSGEZOGEN
 62
     7
440
 33554687
370
    13
100
AcDbLine
 10
12.545306
 20
1.417934
 30
0.0
 11
12.543259
 21
1.419886
 31
0.0
  0
LINE
  5
26F
330
1F
100
AcDbEntity
  8
XR$1$TB_314_1
  6
AUSGEZOGEN
 62
     7
440
 33554687
370
    13
100
AcDbLine
 10
12.548306
 20
1.41513
 30
0.0
 11
12.548306
 21
1.41593
 31
0.0
  0
LINE
  5
270
330
1F
100
AcDbEntity
  8
XR$1$TB_314_1
  6
AUSGEZOGEN
 62
     7
440
 33554687
370
    13
100
AcDbLine
 10
12.558306
 20
1.41513
 30
0.0
 11
12.548306
 21
1.41513
 31
0.0
  0
LINE
  5
271
330
1F
100
AcDbEntity
  8
XR$1$TB_314_1
  6
AUSGEZOGEN
 62
     7
440
 33554687
370
    13
100
AcDbLine
 10
12.557306
 20
1.41593
 30
0.0
 11
12.549306
 21
1.41593
 31
0.0
  0
LINE
  5
272
330
1F
100
AcDbEntity
  8
XR$1$TB_314_1
  6
AUSGEZOGEN
 62
     7
440
 33554687
370
    13
100
AcDbLine
 10
12.548306
 20
1.41818
 30
0.0
 11
12.548306
 21
1.417801
 31
0.0
  0
LINE
  5
273
330
1F
100
AcDbEntity
  8
XR$1$TB_314_1
  6
AUSGEZOGEN
 62
     7
440
 33554687
370
    13
100
AcDbLine
 10
12.554331
 20
1.41463
 30
0.0
 11
12.552281
 21
1.41463
 31
0.0
  0
LINE
  5
274
330
1F
100
AcDbEntity
  8
XR$1$TB_314_1
  6
AUSGEZOGEN
 62
     7
440
 33554687
370
    13
100
AcDbLine
 10
12.548306
 20
1.42263
 30
0.0
 11
12.558306
 21
1.42263
 31
0.0
  0
LINE
  5
275
330
1F
100
AcDbEntity
  8
XR$1$TB_314_1
  6
AUSGEZOGEN
 62
     7
440
 33554687
370
    13
100
AcDbLine
 10
12.558306
 20
1.41818
 30
0.0
 11
12.548306
 21
1.41818
 31
0.0
  0
LINE
  5
276
330
1F
100
AcDbEntity
  8
XR$1$TB_314_1
  6
AUSGEZOGEN
 62
     7
440
 33554687
370
    25
100
AcDbLine
 10
12.604685
 20
1.424556
 30
0.0
 11
12.115005
 21
1.424556
 31
0.0
  0
LINE
  5
277
330
1F
100
AcDbEntity
  8
XR$1$TB_314_1
  6
AUSGEZOGEN
 62
     7
440
 33554687
370
    25
100
AcDbLine
 10
12.621685
 20
1.404556
 30
0.0
 11
12.115005
 21
1.404556
 31
0.0
  0
LINE
  5
278
330
1F
100
AcDbEntity
  8
XR$1$TB_314_1
  6
VERDECKT2_S2
 62
     7
440
 33554687
370
    13
100
AcDbLine
 10
12.618685
 20
1.410556
 30
0.0
 11
12.115005
 21
1.410556
 31
0.0
  0
LINE
  5
279
330
1F
100
AcDbEntity
  8
XR$1$TB_314_1
  6
VERDECKT2_S2
 62
     7
440
 33554687
370
    13
100
AcDbLine
 10
12.61069
 20
1.418551
 30
0.0
 11
12.115005
 21
1.418551
 31
0.0
  0
LINE
  5
27A
330
1F
100
AcDbEntity
  8
XR$1$TB_314_1
  6
AUSGEZOGEN
 62
     7
440
 33554687
370
    18
100
AcDbLine
 10
12.597599
 20
1.43013
 30
0.0
 11
12.562306
 21
1.43013
 31
0.0
  0
LINE
  5
27B
330
1F
100
AcDbEntity
  8
XR$1$TB_314_1
  6
AUSGEZOGEN
 62
     7
440
 33554687
370
    18
100
AcDbLine
 10
12.562306
 20
1.42813
 30
0.0
 11
12.597599
 21
1.42813
 31
0.0
  0
LINE
  5
27C
330
1F
100
AcDbEntity
  8
XR$1$TB_314_1
  6
AUSGEZOGEN
 62
     7
440
 33554687
370
    18
100
AcDbLine
 10
12.032708
 20
1.44813
 30
0.0
 11
12.005009
 21
1.44813
 31
0.0
  0
LINE
  5
27D
330
1F
100
AcDbEntity
  8
XR$1$TB_314_1
  6
AUSGEZOGEN
 62
     7
440
 33554687
370
    18
100
AcDbLine
 10
12.189302
 20
1.44813
 30
0.0
 11
12.217001
 21
1.44813
 31
0.0
  0
LINE
  5
27E
330
1F
100
AcDbEntity
  8
XR$1$TB_314_1
  6
STRICHLINIE_S4
 62
     7
440
 33554687
370
    13
100
AcDbLine
 10
12.017513
 20
1.44613
 30
0.0
 11
12.017513
 21
1.44813
 31
0.0
  0
LINE
  5
27F
330
1F
100
AcDbEntity
  8
XR$1$TB_314_1
  6
STRICHLINIE_S4
 62
     7
440
 33554687
370
    13
100
AcDbLine
 10
12.012511
 20
1.44613
 30
0.0
 11
12.012511
 21
1.44813
 31
0.0
  0
LINE
  5
280
330
1F
100
AcDbEntity
  8
XR$1$TB_314_1
  6
STRICHLINIE_S4
 62
     7
440
 33554687
370
    13
100
AcDbLine
 10
12.025206
 20
1.44613
 30
0.0
 11
12.025206
 21
1.44813
 31
0.0
  0
LINE
  5
281
330
1F
100
AcDbEntity
  8
XR$1$TB_314_1
  6
STRICHLINIE_S4
 62
     7
440
 33554687
370
    13
100
AcDbLine
 10
12.020204
 20
1.44613
 30
0.0
 11
12.020204
 21
1.44813
 31
0.0
  0
LINE
  5
282
330
1F
100
AcDbEntity
  8
XR$1$TB_314_1
  6
AUSGEZOGEN
 62
     7
440
 33554687
370
    18
100
AcDbLine
 10
12.005009
 20
1.44813
 30
0.0
 11
12.005009
 21
1.44613
 31
0.0
  0
LINE
  5
283
330
1F
100
AcDbEntity
  8
XR$1$TB_314_1
  6
STRICHLINIE_S4
 62
     7
440
 33554687
370
    13
100
AcDbLine
 10
12.204497
 20
1.44613
 30
0.0
 11
12.204497
 21
1.44813
 31
0.0
  0
LINE
  5
284
330
1F
100
AcDbEntity
  8
XR$1$TB_314_1
  6
STRICHLINIE_S4
 62
     7
440
 33554687
370
    13
100
AcDbLine
 10
12.209499
 20
1.44613
 30
0.0
 11
12.209499
 21
1.44813
 31
0.0
  0
LINE
  5
285
330
1F
100
AcDbEntity
  8
XR$1$TB_314_1
  6
STRICHLINIE_S4
 62
     7
440
 33554687
370
    13
100
AcDbLine
 10
12.196804
 20
1.44613
 30
0.0
 11
12.196804
 21
1.44813
 31
0.0
  0
LINE
  5
286
330
1F
100
AcDbEntity
  8
XR$1$TB_314_1
  6
STRICHLINIE_S4
 62
     7
440
 33554687
370
    13
100
AcDbLine
 10
12.201806
 20
1.44613
 30
0.0
 11
12.201806
 21
1.44813
 31
0.0
  0
LINE
  5
287
330
1F
100
AcDbEntity
  8
XR$1$TB_314_1
  6
AUSGEZOGEN
 62
     7
440
 33554687
370
    18
100
AcDbLine
 10
12.217001
 20
1.44813
 30
0.0
 11
12.217001
 21
1.44613
 31
0.0
  0
LINE
  5
288
330
1F
100
AcDbEntity
  8
XR$1$TB_314_1
  6
AUSGEZOGEN
 62
     7
440
 33554687
370
    18
100
AcDbLine
 10
12.603306
 20
1.48913
 30
0.0
 11
12.603306
 21
1.433467
 31
0.0
  0
LINE
  5
289
330
1F
100
AcDbEntity
  8
XR$1$TB_314_1
  6
STRICHPUNKT2_S5
 62
     7
440
 33554687
370
    18
100
AcDbLine
 10
12.016152
 20
1.437929
 30
0.0
 11
12.016152
 21
1.460992
 31
0.0
  0
LINE
  5
28A
330
1F
100
AcDbEntity
  8
XR$1$TB_314_1
  6
STRICHPUNKT2_S5
 62
     7
440
 33554687
370
    18
100
AcDbLine
 10
12.20315
 20
1.437306
 30
0.0
 11
12.20315
 21
1.456629
 31
0.0
  0
LINE
  5
28B
330
1F
100
AcDbEntity
  8
XR$1$TB_314_1
  6
AUSGEZOGEN
 62
     1
440
 33554687
370
    18
100
AcDbLine
 10
11.97631
 20
1.46613
 30
0.0
 11
12.571306
 21
1.46613
 31
0.0
  0
LINE
  5
28C
330
1F
100
AcDbEntity
  8
XR$1$TB_314_1
  6
AUSGEZOGEN
 62
     7
440
 33554687
370
    18
100
AcDbLine
 10
11.97631
 20
1.46813
 30
0.0
 11
12.571306
 21
1.46813
 31
0.0
  0
LINE
  5
28D
330
1F
100
AcDbEntity
  8
XR$1$TB_314_1
  6
AUSGEZOGEN
 62
     7
440
 33554687
370
    18
100
AcDbLine
 10
11.97631
 20
1.44813
 30
0.0
 11
12.571306
 21
1.44813
 31
0.0
  0
LINE
  5
28E
330
1F
100
AcDbEntity
  8
XR$1$TB_314_1
  6
AUSGEZOGEN
 62
     7
440
 33554687
370
    18
100
AcDbLine
 10
12.837084
 20
1.38194
 30
0.0
 11
12.590403
 21
1.38194
 31
0.0
  0
LINE
  5
28F
330
1F
100
AcDbEntity
  8
XR$1$TB_314_1
  6
AUSGEZOGEN
 62
     7
440
 33554687
370
    18
100
AcDbLine
 10
12.508758
 20
1.44813
 30
0.0
 11
12.481059
 21
1.44813
 31
0.0
  0
LINE
  5
290
330
1F
100
AcDbEntity
  8
XR$1$TB_314_1
  6
STRICHLINIE_S4
 62
     7
440
 33554687
370
    13
100
AcDbLine
 10
12.488562
 20
1.44613
 30
0.0
 11
12.488562
 21
1.44813
 31
0.0
  0
LINE
  5
291
330
1F
100
AcDbEntity
  8
XR$1$TB_314_1
  6
AUSGEZOGEN
 62
     7
440
 33554687
370
    18
100
AcDbLine
 10
12.481059
 20
1.44813
 30
0.0
 11
12.481059
 21
1.44613
 31
0.0
  0
LINE
  5
292
330
1F
100
AcDbEntity
  8
XR$1$TB_314_1
  6
STRICHPUNKT2_S5
 62
     7
440
 33554687
370
    18
100
AcDbLine
 10
12.492203
 20
1.437929
 30
0.0
 11
12.492203
 21
1.460992
 31
0.0
  0
LINE
  5
293
330
1F
100
AcDbEntity
  8
XR$1$TB_314_1
  6
AUSGEZOGEN
 62
     7
440
 33554687
370
    18
100
AcDbLine
 10
12.481059
 20
1.44613
 30
0.0
 11
12.508758
 21
1.44613
 31
0.0
  0
LINE
  5
294
330
1F
100
AcDbEntity
  8
XR$1$TB_314_1
  6
AUSGEZOGEN
 62
     7
440
 33554687
370
    18
100
AcDbLine
 10
12.51915
 20
1.430131
 30
0.0
 11
12.510491
 21
1.445129
 31
0.0
  0
LINE
  5
295
330
1F
100
AcDbEntity
  8
XR$1$TB_314_1
  6
AUSGEZOGEN
 62
     7
440
 33554687
370
    18
100
AcDbLine
 10
12.520883
 20
1.431131
 30
0.0
 11
12.512224
 21
1.44613
 31
0.0
  0
LINE
  5
296
330
1F
100
AcDbEntity
  8
XR$1$TB_314_1
  6
STRICHLINIE_S4
 62
     7
440
 33554687
370
    13
100
AcDbLine
 10
12.493563
 20
1.44613
 30
0.0
 11
12.493563
 21
1.44813
 31
0.0
  0
LINE
  5
297
330
1F
100
AcDbEntity
  8
XR$1$TB_314_1
  6
STRICHLINIE_S4
 62
     7
440
 33554687
370
    13
100
AcDbLine
 10
12.501256
 20
1.44613
 30
0.0
 11
12.501256
 21
1.44813
 31
0.0
  0
LINE
  5
298
330
1F
100
AcDbEntity
  8
XR$1$TB_314_1
  6
STRICHLINIE_S4
 62
     7
440
 33554687
370
    13
100
AcDbLine
 10
12.496255
 20
1.44613
 30
0.0
 11
12.496255
 21
1.44813
 31
0.0
  0
LINE
  5
299
330
1F
100
AcDbEntity
  8
XR$1$TB_314_1
  6
AUSGEZOGEN
 62
     7
440
 33554687
370
    18
100
AcDbLine
 10
12.571306
 20
1.51813
 30
0.0
 11
12.571306
 21
1.44813
 31
0.0
  0
LINE
  5
29A
330
1F
100
AcDbEntity
  8
XR$1$TB_314_1
  6
AUSGEZOGEN
 62
     7
440
 33554687
370
    25
100
AcDbLine
 10
11.97631
 20
1.47313
 30
0.0
 11
12.571306
 21
1.47313
 31
0.0
  0
LINE
  5
29B
330
1F
100
AcDbEntity
  8
XR$1$TB_314_1
  6
STRICHPUNKT2_S5
 62
     7
440
 33554687
370
    18
100
AcDbLine
 10
11.97631
 20
1.683989
 30
0.0
 11
11.97631
 21
1.37478
 31
0.0
  0
LINE
  5
29C
330
1F
100
AcDbEntity
  8
XR$1$TB_314_1
  6
AUSGEZOGEN
 62
     7
440
 33554687
370
    25
100
AcDbLine
 10
12.626806
 20
1.409677
 30
0.0
 11
12.626806
 21
1.60138
 31
0.0
  0
LINE
  5
29D
330
1F
100
AcDbEntity
  8
XR$1$TB_314_1
  6
VERDECKT2_S2
 62
     7
440
 33554687
370
    13
100
AcDbLine
 10
12.620806
 20
1.412677
 30
0.0
 11
12.620806
 21
1.60138
 31
0.0
  0
LINE
  5
29E
330
1F
100
AcDbEntity
  8
XR$1$TB_314_1
  6
VERDECKT2_S2
 62
     7
440
 33554687
370
    13
100
AcDbLine
 10
12.612812
 20
1.420672
 30
0.0
 11
12.612812
 21
1.60138
 31
0.0
  0
LINE
  5
29F
330
1F
100
AcDbEntity
  8
XR$1$TB_314_1
  6
AUSGEZOGEN
 62
     7
440
 33554687
370
    25
100
AcDbLine
 10
12.606806
 20
1.426677
 30
0.0
 11
12.606806
 21
1.60138
 31
0.0
  0
LINE
  5
2A0
330
1F
100
AcDbEntity
  8
XR$1$TB_314_1
  6
AUSGEZOGEN
 62
     7
440
 33554687
370
    18
100
AcDbLine
 10
12.601306
 20
1.433326
 30
0.0
 11
12.601306
 21
1.615005
 31
0.0
  0
LINE
  5
2A1
330
1F
100
AcDbEntity
  8
XR$1$TB_314_1
  6
AUSGEZOGEN
 62
     7
440
 33554687
370
    18
100
AcDbLine
 10
12.603306
 20
1.615005
 30
0.0
 11
12.603306
 21
1.48913
 31
0.0
  0
LINE
  5
2A2
330
1F
100
AcDbEntity
  8
XR$1$TB_314_1
  6
STRICHPUNKT2_S5
 62
     7
440
 33554687
370
    18
100
AcDbLine
 10
12.541306
 20
1.459599
 30
0.0
 11
12.541306
 21
1.502662
 31
0.0
  0
LINE
  5
2A3
330
1F
100
AcDbEntity
  8
XR$1$TB_314_1
  6
AUSGEZOGEN
 62
     7
440
 33554687
370
    18
100
AcDbLine
 10
12.556306
 20
1.46813
 30
0.0
 11
12.556306
 21
1.47313
 31
0.0
  0
LINE
  5
2A4
330
1F
100
AcDbEntity
  8
XR$1$TB_314_1
  6
AUSGEZOGEN
 62
     7
440
 33554687
370
    18
100
AcDbLine
 10
12.526306
 20
1.46813
 30
0.0
 11
12.526306
 21
1.47313
 31
0.0
  0
LINE
  5
2A5
330
1F
100
AcDbEntity
  8
XR$1$TB_314_1
  6
AUSGEZOGEN
 62
     7
440
 33554687
370
    13
100
AcDbLine
 10
12.514306
 20
1.62005
 30
0.0
 11
12.508116
 21
1.64513
 31
0.0
  0
LINE
  5
2A6
330
1F
100
AcDbEntity
  8
XR$1$TB_314_1
  6
AUSGEZOGEN
 62
     3
440
 33554687
370
    25
100
AcDbLine
 10
12.584306
 20
1.682005
 30
0.0
 11
12.584306
 21
1.622005
 31
0.0
  0
LINE
  5
2A7
330
1F
100
AcDbEntity
  8
XR$1$TB_314_1
  6
AUSGEZOGEN
 62
     3
440
 33554687
370
    25
100
AcDbLine
 10
12.634306
 20
1.702005
 30
0.0
 11
12.634306
 21
1.717005
 31
0.0
  0
LINE
  5
2A8
330
1F
100
AcDbEntity
  8
XR$1$TB_314_1
  6
AUSGEZOGEN
 62
     3
440
 33554687
370
    25
100
AcDbLine
 10
12.714306
 20
1.717005
 30
0.0
 11
12.714306
 21
1.657005
 31
0.0
  0
LINE
  5
2A9
330
1F
100
AcDbEntity
  8
XR$1$TB_314_1
  6
AUSGEZOGEN
 62
     3
440
 33554687
370
    25
100
AcDbLine
 10
12.659306
 20
1.657005
 30
0.0
 11
12.714306
 21
1.657005
 31
0.0
  0
LINE
  5
2AA
330
1F
100
AcDbEntity
  8
XR$1$TB_314_1
  6
AUSGEZOGEN
 62
     3
440
 33554687
370
    25
100
AcDbLine
 10
12.634306
 20
1.717005
 30
0.0
 11
12.714306
 21
1.717005
 31
0.0
  0
LINE
  5
2AB
330
1F
100
AcDbEntity
  8
XR$1$TB_314_1
  6
AUSGEZOGEN
 62
     3
440
 33554687
370
    25
100
AcDbLine
 10
12.659306
 20
1.702005
 30
0.0
 11
12.574306
 21
1.702005
 31
0.0
  0
LINE
  5
2AC
330
1F
100
AcDbEntity
  8
XR$1$TB_314_1
  6
AUSGEZOGEN
 62
     3
440
 33554687
370
    25
100
AcDbLine
 10
12.584306
 20
1.702005
 30
0.0
 11
12.584306
 21
1.622005
 31
0.0
  0
LINE
  5
2AD
330
1F
100
AcDbEntity
  8
XR$1$TB_314_1
  6
AUSGEZOGEN
 62
     3
440
 33554687
370
    25
100
AcDbLine
 10
12.659306
 20
1.702005
 30
0.0
 11
12.659306
 21
1.622005
 31
0.0
  0
LINE
  5
2AE
330
1F
100
AcDbEntity
  8
XR$1$TB_314_1
  6
AUSGEZOGEN
 62
     7
440
 33554687
370
    18
100
AcDbLine
 10
12.836139
 20
1.717005
 30
0.0
 11
12.714306
 21
1.717005
 31
0.0
  0
LINE
  5
2AF
330
1F
100
AcDbEntity
  8
XR$1$TB_314_1
  6
AUSGEZOGEN
 62
     7
440
 33554687
370
    18
100
AcDbLine
 10
12.836139
 20
1.699005
 30
0.0
 11
12.714306
 21
1.699005
 31
0.0
  0
LINE
  5
2B0
330
1F
100
AcDbEntity
  8
XR$1$TB_314_1
  6
AUSGEZOGEN
 62
     7
440
 33554687
370
    18
100
AcDbLine
 10
12.836139
 20
1.695005
 30
0.0
 11
12.714306
 21
1.695005
 31
0.0
  0
LINE
  5
2B1
330
1F
100
AcDbEntity
  8
XR$1$TB_314_1
  6
AUSGEZOGEN
 62
     7
440
 33554687
370
    18
100
AcDbLine
 10
12.836139
 20
1.679005
 30
0.0
 11
12.714306
 21
1.679005
 31
0.0
  0
LINE
  5
2B2
330
1F
100
AcDbEntity
  8
XR$1$TB_314_1
  6
AUSGEZOGEN
 62
     7
440
 33554687
370
    18
100
AcDbLine
 10
12.836139
 20
1.675005
 30
0.0
 11
12.714306
 21
1.675005
 31
0.0
  0
LINE
  5
2B3
330
1F
100
AcDbEntity
  8
XR$1$TB_314_1
  6
AUSGEZOGEN
 62
     7
440
 33554687
370
    18
100
AcDbLine
 10
12.836139
 20
1.657005
 30
0.0
 11
12.714306
 21
1.657005
 31
0.0
  0
LINE
  5
2B4
330
1F
100
AcDbEntity
  8
XR$1$TB_314_1
  6
AUSGEZOGEN
 62
     3
440
 33554687
370
    25
100
AcDbLine
 10
12.659306
 20
1.622005
 30
0.0
 11
12.574306
 21
1.622005
 31
0.0
  0
LINE
  5
2B5
330
1F
100
AcDbEntity
  8
XR$1$TB_314_1
  6
AUSGEZOGEN
 62
     7
440
 33554687
370
    18
100
AcDbLine
 10
12.837208
 20
1.622005
 30
0.0
 11
12.659306
 21
1.622005
 31
0.0
  0
LINE
  5
2B6
330
1F
100
AcDbEntity
  8
XR$1$TB_314_1
  6
AUSGEZOGEN
 62
     7
440
 33554687
370
    18
100
AcDbLine
 10
12.574306
 20
1.664138
 30
0.0
 11
12.574306
 21
1.743989
 31
0.0
  0
LINE
  5
2B7
330
1F
100
AcDbEntity
  8
XR$1$TB_314_1
  6
AUSGEZOGEN
 62
     3
440
 33554687
370
    25
100
AcDbLine
 10
12.574306
 20
1.702005
 30
0.0
 11
12.574306
 21
1.641013
 31
0.0
  0
LINE
  5
2B9
102
{ACAD_REACTORS
330
2B8
102
}
330
1F
100
AcDbEntity
  8
XR$1$TB_314_1
  6
AUSGEZOGEN
 62
     7
440
 33554687
370
    18
100
AcDbLine
 10
12.637391
 20
1.517959
 30
0.0
 11
12.605049
 21
1.493534
 31
0.0
  0
LINE
  5
2BA
102
{ACAD_REACTORS
330
2B8
102
}
330
1F
100
AcDbEntity
  8
XR$1$TB_314_1
  6
AUSGEZOGEN
 62
     7
440
 33554687
370
    18
100
AcDbLine
 10
12.613428
 20
1.499862
 30
0.0
 11
12.614026
 21
1.500314
 31
0.0
  0
LINE
  5
2BB
102
{ACAD_REACTORS
330
2B8
102
}
330
1F
100
AcDbEntity
  8
XR$1$TB_314_1
  6
AUSGEZOGEN
 62
     7
440
 33554687
370
    18
100
AcDbLine
 10
12.605049
 20
1.493534
 30
0.0
 11
12.605049
 21
1.493534
 31
0.0
  0
LINE
  5
2BC
102
{ACAD_REACTORS
330
2B8
102
}
330
1F
100
AcDbEntity
  8
XR$1$TB_314_1
  6
AUSGEZOGEN
 62
     7
440
 33554687
370
    18
100
AcDbLine
 10
12.605049
 20
1.493534
 30
0.0
 11
12.605049
 21
1.493534
 31
0.0
  0
LINE
  5
2BD
102
{ACAD_REACTORS
330
2B8
102
}
330
1F
100
AcDbEntity
  8
XR$1$TB_314_1
  6
AUSGEZOGEN
 62
     7
440
 33554687
370
    18
100
AcDbLine
 10
12.605049
 20
1.493534
 30
0.0
 11
12.605049
 21
1.493534
 31
0.0
  0
LINE
  5
2BE
102
{ACAD_REACTORS
330
2B8
102
}
330
1F
100
AcDbEntity
  8
XR$1$TB_314_1
  6
AUSGEZOGEN
 62
     7
440
 33554687
370
    18
100
AcDbLine
 10
12.605049
 20
1.493534
 30
0.0
 11
12.614332
 21
1.498665
 31
0.0
  0
LINE
  5
2BF
102
{ACAD_REACTORS
330
2B8
102
}
330
1F
100
AcDbEntity
  8
XR$1$TB_314_1
  6
AUSGEZOGEN
 62
     7
440
 33554687
370
    18
100
AcDbLine
 10
12.614332
 20
1.498665
 30
0.0
 11
12.612524
 21
1.501059
 31
0.0
  0
LINE
  5
2C0
102
{ACAD_REACTORS
330
2B8
102
}
330
1F
100
AcDbEntity
  8
XR$1$TB_314_1
  6
AUSGEZOGEN
 62
     7
440
 33554687
370
    18
100
AcDbLine
 10
12.612524
 20
1.501059
 30
0.0
 11
12.605049
 21
1.493534
 31
0.0
  0
HATCH
  5
2C1
102
{ACAD_REACTORS
330
2B8
102
}
330
1F
100
AcDbEntity
  8
XR$1$TB_314_1
  6
AUSGEZOGEN
 62
     7
440
 33554687
370
    18
100
AcDbHatch
 10
0.0
 20
0.0
 30
0.0
210
0.0
220
0.0
230
1.0
  2
SOLID
 70
     1
 71
     0
 91
        1
 92
        3
 72
     0
 73
     1
 93
        3
 10
12.61252362060547
 20
1.501058654785156
 10
12.60504858398438
 20
1.493533813476563
 10
12.61433154296875
 20
1.498664672851562
 97
        0
 75
     0
 76
     1
 98
        0
  0
INSERT
  5
2DC
330
1F
100
AcDbEntity
  8
XR$1$TB_314_1
  6
AUSGEZOGEN
 62
     7
440
 33554687
370
    25
100
AcDbBlockReference
  2
COMPLEXOBJECT_0
 10
0.0
 20
0.0
 30
0.0
  0
MTEXT
  5
2DD
330
1F
100
AcDbEntity
  8
XR$1$TB_314_1
  6
AUSGEZOGEN
 62
     7
440
 33554687
370
    35
100
AcDbMText
 10
12.011108
 20
1.378251
 30
0.0
 40
0.0125
 41
0.094694
 46
0.0
 71
     7
 72
     5
  1
\W0.93;Art.-Nr.: 640
  7
ARIAL
 73
     1
 44
1.0
  0
LINE
  5
2DF
102
{ACAD_REACTORS
330
2DE
102
}
330
1F
100
AcDbEntity
  8
XR$1$TB_314_1
  6
AUSGEZOGEN
 62
     7
440
 33554687
370
    18
100
AcDbLine
 10
12.099969
 20
1.384084
 30
0.0
 11
12.110997
 21
1.40348
 31
0.0
  0
LINE
  5
2E0
102
{ACAD_REACTORS
330
2DE
102
}
330
1F
100
AcDbEntity
  8
XR$1$TB_314_1
  6
AUSGEZOGEN
 62
     7
440
 33554687
370
    18
100
AcDbLine
 10
12.105807
 20
1.394352
 30
0.0
 11
12.105437
 21
1.3937
 31
0.0
  0
LINE
  5
2E1
102
{ACAD_REACTORS
330
2DE
102
}
330
1F
100
AcDbEntity
  8
XR$1$TB_314_1
  6
AUSGEZOGEN
 62
     7
440
 33554687
370
    18
100
AcDbLine
 10
12.110997
 20
1.40348
 30
0.0
 11
12.110997
 21
1.40348
 31
0.0
  0
LINE
  5
2E2
102
{ACAD_REACTORS
330
2DE
102
}
330
1F
100
AcDbEntity
  8
XR$1$TB_314_1
  6
AUSGEZOGEN
 62
     7
440
 33554687
370
    18
100
AcDbLine
 10
12.110997
 20
1.40348
 30
0.0
 11
12.110997
 21
1.40348
 31
0.0
  0
LINE
  5
2E3
102
{ACAD_REACTORS
330
2DE
102
}
330
1F
100
AcDbEntity
  8
XR$1$TB_314_1
  6
AUSGEZOGEN
 62
     7
440
 33554687
370
    18
100
AcDbLine
 10
12.110997
 20
1.40348
 30
0.0
 11
12.110997
 21
1.40348
 31
0.0
  0
LINE
  5
2E4
102
{ACAD_REACTORS
330
2DE
102
}
330
1F
100
AcDbEntity
  8
XR$1$TB_314_1
  6
AUSGEZOGEN
 62
     7
440
 33554687
370
    18
100
AcDbLine
 10
12.110997
 20
1.40348
 30
0.0
 11
12.104503
 21
1.395094
 31
0.0
  0
LINE
  5
2E5
102
{ACAD_REACTORS
330
2DE
102
}
330
1F
100
AcDbEntity
  8
XR$1$TB_314_1
  6
AUSGEZOGEN
 62
     7
440
 33554687
370
    18
100
AcDbLine
 10
12.104503
 20
1.395094
 30
0.0
 11
12.107111
 21
1.393611
 31
0.0
  0
LINE
  5
2E6
102
{ACAD_REACTORS
330
2DE
102
}
330
1F
100
AcDbEntity
  8
XR$1$TB_314_1
  6
AUSGEZOGEN
 62
     7
440
 33554687
370
    18
100
AcDbLine
 10
12.107111
 20
1.393611
 30
0.0
 11
12.110997
 21
1.40348
 31
0.0
  0
HATCH
  5
2E7
102
{ACAD_REACTORS
330
2DE
102
}
330
1F
100
AcDbEntity
  8
XR$1$TB_314_1
  6
AUSGEZOGEN
 62
     7
440
 33554687
370
    18
100
AcDbHatch
 10
0.0
 20
0.0
 30
0.0
210
0.0
220
0.0
230
1.0
  2
SOLID
 70
     1
 71
     0
 91
        1
 92
        3
 72
     0
 73
     1
 93
        3
 10
12.10711120605469
 20
1.393611083984375
 10
12.11099676513672
 20
1.403480346679687
 10
12.10450329589844
 20
1.39509375
 97
        0
 75
     0
 76
     1
 98
        0
  0
MTEXT
  5
2E8
330
1F
100
AcDbEntity
  8
XR$1$TB_314_1
  6
AUSGEZOGEN
 62
     7
440
 33554687
370
    18
100
AcDbMText
 10
12.161108
 20
1.378251
 30
0.0
 40
0.0125
 41
0.13281
 46
0.0
 71
     7
 72
     5
  1
\W0.93;Art.-Nr.: 627-XXX
  7
ARIAL
 73
     1
 44
1.0
  0
LINE
  5
2EA
102
{ACAD_REACTORS
330
2E9
102
}
330
1F
100
AcDbEntity
  8
XR$1$TB_314_1
  6
AUSGEZOGEN
 62
     7
440
 33554687
370
    18
100
AcDbLine
 10
12.161108
 20
1.384084
 30
0.0
 11
12.155012
 21
1.427281
 31
0.0
  0
LINE
  5
2EB
102
{ACAD_REACTORS
330
2E9
102
}
330
1F
100
AcDbEntity
  8
XR$1$TB_314_1
  6
AUSGEZOGEN
 62
     7
440
 33554687
370
    18
100
AcDbLine
 10
12.15648
 20
1.416884
 30
0.0
 11
12.156584
 21
1.416142
 31
0.0
  0
LINE
  5
2EC
102
{ACAD_REACTORS
330
2E9
102
}
330
1F
100
AcDbEntity
  8
XR$1$TB_314_1
  6
AUSGEZOGEN
 62
     7
440
 33554687
370
    18
100
AcDbLine
 10
12.155012
 20
1.427281
 30
0.0
 11
12.155012
 21
1.427281
 31
0.0
  0
LINE
  5
2ED
102
{ACAD_REACTORS
330
2E9
102
}
330
1F
100
AcDbEntity
  8
XR$1$TB_314_1
  6
AUSGEZOGEN
 62
     7
440
 33554687
370
    18
100
AcDbLine
 10
12.155012
 20
1.427281
 30
0.0
 11
12.155012
 21
1.427281
 31
0.0
  0
LINE
  5
2EE
102
{ACAD_REACTORS
330
2E9
102
}
330
1F
100
AcDbEntity
  8
XR$1$TB_314_1
  6
AUSGEZOGEN
 62
     7
440
 33554687
370
    18
100
AcDbLine
 10
12.155012
 20
1.427281
 30
0.0
 11
12.155012
 21
1.427281
 31
0.0
  0
LINE
  5
2EF
102
{ACAD_REACTORS
330
2E9
102
}
330
1F
100
AcDbEntity
  8
XR$1$TB_314_1
  6
AUSGEZOGEN
 62
     7
440
 33554687
370
    18
100
AcDbLine
 10
12.155012
 20
1.427281
 30
0.0
 11
12.154994
 21
1.416675
 31
0.0
  0
LINE
  5
2F0
102
{ACAD_REACTORS
330
2E9
102
}
330
1F
100
AcDbEntity
  8
XR$1$TB_314_1
  6
AUSGEZOGEN
 62
     7
440
 33554687
370
    18
100
AcDbLine
 10
12.154994
 20
1.416675
 30
0.0
 11
12.157965
 21
1.417094
 31
0.0
  0
LINE
  5
2F1
102
{ACAD_REACTORS
330
2E9
102
}
330
1F
100
AcDbEntity
  8
XR$1$TB_314_1
  6
AUSGEZOGEN
 62
     7
440
 33554687
370
    18
100
AcDbLine
 10
12.157965
 20
1.417094
 30
0.0
 11
12.155012
 21
1.427281
 31
0.0
  0
HATCH
  5
2F2
102
{ACAD_REACTORS
330
2E9
102
}
330
1F
100
AcDbEntity
  8
XR$1$TB_314_1
  6
AUSGEZOGEN
 62
     7
440
 33554687
370
    18
100
AcDbHatch
 10
0.0
 20
0.0
 30
0.0
210
0.0
220
0.0
230
1.0
  2
SOLID
 70
     1
 71
     0
 91
        1
 92
        3
 72
     0
 73
     1
 93
        3
 10
12.15796484375
 20
1.417093994140625
 10
12.15501239013672
 20
1.427281433105469
 10
12.15499426269531
 20
1.416674865722656
 97
        0
 75
     0
 76
     1
 98
        0
  0
LINE
  5
2F3
330
1F
100
AcDbEntity
  8
XR$1$TB_314_1
  6
AUSGEZOGEN
 62
    52
440
 33554687
370
    13
100
AcDbLine
 10
12.596306
 20
1.44813
 30
0.0
 11
12.571306
 21
1.44813
 31
0.0
  0
LINE
  5
2F4
330
1F
100
AcDbEntity
  8
XR$1$TB_314_1
  6
AUSGEZOGEN
 62
    52
440
 33554687
370
    13
100
AcDbLine
 10
12.596306
 20
1.602351
 30
0.0
 11
12.596306
 21
1.44813
 31
0.0
  0
LINE
  5
2F5
330
1F
100
AcDbEntity
  8
XR$1$TB_314_1
  6
AUSGEZOGEN
 62
    52
440
 33554687
370
    13
100
AcDbLine
 10
12.596306
 20
1.45813
 30
0.0
 11
12.571306
 21
1.467298
 31
0.0
  0
LINE
  5
2F6
330
1F
100
AcDbEntity
  8
XR$1$TB_314_1
  6
AUSGEZOGEN
 62
    52
440
 33554687
370
    13
100
AcDbLine
 10
12.571306
 20
1.44813
 30
0.0
 11
12.596306
 21
1.45813
 31
0.0
  0
LINE
  5
2F7
330
1F
100
AcDbEntity
  8
XR$1$TB_314_1
  6
AUSGEZOGEN
 62
    52
440
 33554687
370
    13
100
AcDbLine
 10
12.596306
 20
1.477298
 30
0.0
 11
12.571306
 21
1.486465
 31
0.0
  0
LINE
  5
2F8
330
1F
100
AcDbEntity
  8
XR$1$TB_314_1
  6
AUSGEZOGEN
 62
    52
440
 33554687
370
    13
100
AcDbLine
 10
12.571306
 20
1.467298
 30
0.0
 11
12.596306
 21
1.477298
 31
0.0
  0
LINE
  5
2F9
330
1F
100
AcDbEntity
  8
XR$1$TB_314_1
  6
AUSGEZOGEN
 62
    52
440
 33554687
370
    13
100
AcDbLine
 10
12.596306
 20
1.496465
 30
0.0
 11
12.571306
 21
1.505632
 31
0.0
  0
LINE
  5
2FA
330
1F
100
AcDbEntity
  8
XR$1$TB_314_1
  6
AUSGEZOGEN
 62
    52
440
 33554687
370
    13
100
AcDbLine
 10
12.571306
 20
1.486465
 30
0.0
 11
12.596306
 21
1.496465
 31
0.0
  0
LINE
  5
2FB
330
1F
100
AcDbEntity
  8
XR$1$TB_314_1
  6
AUSGEZOGEN
 62
    52
440
 33554687
370
    13
100
AcDbLine
 10
12.596306
 20
1.515632
 30
0.0
 11
12.571306
 21
1.5248
 31
0.0
  0
LINE
  5
2FC
330
1F
100
AcDbEntity
  8
XR$1$TB_314_1
  6
AUSGEZOGEN
 62
    52
440
 33554687
370
    13
100
AcDbLine
 10
12.571306
 20
1.505632
 30
0.0
 11
12.596306
 21
1.515632
 31
0.0
  0
LINE
  5
2FD
330
1F
100
AcDbEntity
  8
XR$1$TB_314_1
  6
AUSGEZOGEN
 62
    52
440
 33554687
370
    13
100
AcDbLine
 10
12.596306
 20
1.5348
 30
0.0
 11
12.571306
 21
1.543967
 31
0.0
  0
LINE
  5
2FE
330
1F
100
AcDbEntity
  8
XR$1$TB_314_1
  6
AUSGEZOGEN
 62
    52
440
 33554687
370
    13
100
AcDbLine
 10
12.571306
 20
1.5248
 30
0.0
 11
12.596306
 21
1.5348
 31
0.0
  0
LINE
  5
2FF
330
1F
100
AcDbEntity
  8
XR$1$TB_314_1
  6
AUSGEZOGEN
 62
    52
440
 33554687
370
    13
100
AcDbLine
 10
12.596306
 20
1.553967
 30
0.0
 11
12.571306
 21
1.563135
 31
0.0
  0
LINE
  5
300
330
1F
100
AcDbEntity
  8
XR$1$TB_314_1
  6
AUSGEZOGEN
 62
    52
440
 33554687
370
    13
100
AcDbLine
 10
12.571306
 20
1.543967
 30
0.0
 11
12.596306
 21
1.553967
 31
0.0
  0
LINE
  5
301
330
1F
100
AcDbEntity
  8
XR$1$TB_314_1
  6
AUSGEZOGEN
 62
    52
440
 33554687
370
    13
100
AcDbLine
 10
12.596306
 20
1.573135
 30
0.0
 11
12.571306
 21
1.582302
 31
0.0
  0
LINE
  5
302
330
1F
100
AcDbEntity
  8
XR$1$TB_314_1
  6
AUSGEZOGEN
 62
    52
440
 33554687
370
    13
100
AcDbLine
 10
12.571306
 20
1.563135
 30
0.0
 11
12.596306
 21
1.573135
 31
0.0
  0
LINE
  5
303
330
1F
100
AcDbEntity
  8
XR$1$TB_314_1
  6
AUSGEZOGEN
 62
    52
440
 33554687
370
    13
100
AcDbLine
 10
12.596306
 20
1.592302
 30
0.0
 11
12.571306
 21
1.601469
 31
0.0
  0
LINE
  5
304
330
1F
100
AcDbEntity
  8
XR$1$TB_314_1
  6
AUSGEZOGEN
 62
    52
440
 33554687
370
    13
100
AcDbLine
 10
12.571306
 20
1.582302
 30
0.0
 11
12.596306
 21
1.592302
 31
0.0
  0
LINE
  5
305
330
1F
100
AcDbEntity
  8
XR$1$TB_314_1
  6
AUSGEZOGEN
 62
    52
440
 33554687
370
    13
100
AcDbLine
 10
12.571306
 20
1.601469
 30
0.0
 11
12.596306
 21
1.611469
 31
0.0
  0
LINE
  5
306
330
1F
100
AcDbEntity
  8
XR$1$TB_314_1
  6
AUSGEZOGEN
 62
    52
440
 33554687
370
    13
100
AcDbLine
 10
12.596306
 20
1.611469
 30
0.0
 11
12.575757
 21
1.619005
 31
0.0
  0
LINE
  5
307
330
1F
100
AcDbEntity
  8
XR$1$TB_314_1
  6
AUSGEZOGEN
 62
    52
440
 33554687
370
    13
100
AcDbLine
 10
12.571306
 20
1.602351
 30
0.0
 11
12.571306
 21
1.44813
 31
0.0
  0
MTEXT
  5
308
330
1F
100
AcDbEntity
  8
XR$1$TB_314_1
  6
AUSGEZOGEN
 62
     7
440
 33554687
370
    18
100
AcDbMText
 10
12.750806
 20
0.962149
 30
0.0
 40
0.009
 41
0.134495
 46
0.0
 71
     7
 72
     5
  1
\W0.91;STAND: September 2020
  7
ARIAL
 73
     1
 44
1.0
  0
VIEWPORT
  5
72
330
6E
100
AcDbEntity
 67
     1
  8
0
100
AcDbViewport
 10
0.105
 20
0.148499
 30
0.0
 40
0.2102
 41
0.297197
 68
     1
 69
     1
 12
0.105
 22
0.148499
 13
0.0
 23
0.0
 14
0.5
 24
0.5
 15
0.5
 25
0.5
 16
0.0
 26
0.0
 36
1.0
 17
0.0
 27
0.0
 37
0.0
 42
50.0
 43
0.0
 44
0.0
 45
0.297197
 50
0.0
 51
0.0
 72
   100
 90
   557152
  1

281
     0
 71
     1
 74
     0
110
0.0
120
0.0
130
0.0
111
1.0
121
0.0
131
0.0
112
0.0
122
1.0
132
0.0
 79
     0
146
0.0
170
     0
 61
     5
348
2F
292
     1
282
     1
141
0.0
142
0.0
 63
   256
361
73
  0
VIEWPORT
  5
30B
330
6E
100
AcDbEntity
 67
     1
  8
PLAN_314
  6
AUSGEZOGEN
 62
     7
370
    18
100
AcDbViewport
 10
0.105
 20
0.148499
 30
0.0
 40
0.2102
 41
0.297197
 68
     2
 69
     2
 12
0.0
 22
0.0
 13
0.0
 23
0.0
 14
1.0
 24
1.0
 15
0.0
 25
0.0
 16
0.0
 26
0.0
 36
1.0
 17
12.40883
 27
1.600979
 37
0.0
 42
50.0
 43
0.0
 44
0.0
 45
1.485985
 50
0.0
 51
0.0
 72
   100
331
10
331
76
331
78
 90
   557280
  1

281
     0
 71
     1
 74
     0
110
0.0
120
0.0
130
0.0
111
1.0
121
0.0
131
0.0
112
0.0
122
1.0
132
0.0
 79
     0
146
0.0
170
     0
 61
     5
348
2F
292
     1
282
     1
141
0.0
142
0.0
 63
   256
361
30C
  0
ENDSEC
  0
SECTION
  2
OBJECTS
  0
DICTIONARY
  5
C
330
0
100
AcDbDictionary
281
     1
  3
ACAD_DETAILVIEWSTYLE
350
344
  3
ACAD_GROUP
350
D
  3
ACAD_LAYOUT
350
1A
  3
ACAD_MATERIAL
350
43
  3
ACAD_MLEADERSTYLE
350
6B
  3
ACAD_MLINESTYLE
350
17
  3
ACAD_PLOTSETTINGS
350
19
  3
ACAD_PLOTSTYLENAME
350
E
  3
ACAD_SCALELIST
350
47
  3
ACAD_SECTIONVIEWSTYLE
350
345
  3
ACAD_TABLESTYLE
350
69
  3
ACAD_VISUALSTYLE
350
2A
  3
ACDB_RECOMPOSE_DATA
350
341
  3
AcDbVariableDictionary
350
30D
  0
SUN
  5
6D
330
29
100
AcDbSun
 90
        1
290
     0
 63
     7
421
 16777215
 40
1.0
291
     1
 91
  2455826
 92
 54000000
292
     0
 70
     2
 71
   256
280
     1
  0
DICTIONARY
  5
309
330
1F
100
AcDbDictionary
280
     1
281
     1
  3
ACAD_SORTENTS
360
30A
  0
SUN
  5
73
330
72
100
AcDbSun
 90
        1
290
     0
 63
     7
421
 16777215
 40
1.0
291
     1
 91
  2455826
 92
 54000000
292
     0
 70
     2
 71
   256
280
     1
  0
SUN
  5
30C
330
30B
100
AcDbSun
 90
        1
290
     0
 63
     7
421
 16777215
 40
1.0
291
     1
 91
  2455826
 92
 54000000
292
     0
 70
     2
 71
   256
280
     1
  0
DICTIONARY
  5
344
102
{ACAD_REACTORS
330
C
102
}
330
C
100
AcDbDictionary
281
     1
  0
DICTIONARY
  5
D
102
{ACAD_REACTORS
330
C
102
}
330
C
100
AcDbDictionary
281
     1
  3
VERBUNDBLOCK_0
350
84
  3
VERBUNDBLOCK_1
350
8D
  3
VERBUNDBLOCK_2
350
2B8
  3
VERBUNDBLOCK_3
350
2DE
  3
VERBUNDBLOCK_4
350
2E9
  0
DICTIONARY
  5
1A
102
{ACAD_REACTORS
330
C
102
}
330
C
100
AcDbDictionary
281
     1
  3
K20 vertikales Omegaprofil 20 15
350
6F
  3
Model
350
22
  0
DICTIONARY
  5
43
102
{ACAD_REACTORS
330
C
102
}
330
C
100
AcDbDictionary
281
     1
  3
ByBlock
350
45
  3
ByLayer
350
44
  3
Global
350
46
  0
DICTIONARY
  5
6B
102
{ACAD_REACTORS
330
C
102
}
330
C
100
AcDbDictionary
281
     1
  3
Standard
350
6C
  0
DICTIONARY
  5
17
102
{ACAD_REACTORS
330
C
102
}
330
C
100
AcDbDictionary
281
     1
  3
Standard
350
18
  0
DICTIONARY
  5
19
102
{ACAD_REACTORS
330
C
102
}
330
C
100
AcDbDictionary
281
     1
  0
ACDBDICTIONARYWDFLT
  5
E
102
{ACAD_REACTORS
330
C
102
}
330
C
100
AcDbDictionary
281
     1
  3
Normal
350
F
100
AcDbDictionaryWithDefault
340
F
  0
DICTIONARY
  5
47
102
{ACAD_REACTORS
330
C
102
}
330
C
100
AcDbDictionary
281
     1
  3
A0
350
48
  3
A1
350
49
  3
A2
350
4A
  3
A3
350
4B
  3
A4
350
4C
  3
A5
350
4D
  3
A6
350
4E
  3
A7
350
4F
  3
A8
350
50
  3
A9
350
51
  3
B0
350
52
  3
B1
350
53
  3
B2
350
54
  3
B3
350
55
  3
B4
350
56
  3
B5
350
57
  3
B6
350
58
  3
B7
350
59
  3
B8
350
5A
  3
B9
350
5B
  3
C0
350
5C
  3
C1
350
5D
  3
C2
350
5E
  3
C3
350
5F
  3
C4
350
60
  3
C5
350
61
  3
C6
350
62
  3
C7
350
63
  3
C8
350
64
  3
C9
350
65
  3
D0
350
66
  3
D1
350
67
  3
D2
350
68
  0
DICTIONARY
  5
345
102
{ACAD_REACTORS
330
C
102
}
330
C
100
AcDbDictionary
281
     1
  0
DICTIONARY
  5
69
102
{ACAD_REACTORS
330
C
102
}
330
C
100
AcDbDictionary
281
     1
  3
Standard
350
6A
  0
DICTIONARY
  5
2A
102
{ACAD_REACTORS
330
C
102
}
330
C
100
AcDbDictionary
281
     1
  3
2dWireframe
350
2F
  3
Basic
350
32
  3
Brighten
350
36
  3
ColorChange
350
3A
  3
Conceptual
350
34
  3
Dim
350
35
  3
EdgeColorOff
350
3D
  3
Facepattern
350
39
  3
Flat
350
2B
  3
FlatWithEdges
350
2C
  3
Gouraud
350
2D
  3
GouraudWithEdges
350
2E
  3
Hidden
350
31
  3
JitterOff
350
3B
  3
Linepattern
350
38
  3
OverhangOff
350
3C
  3
Realistic
350
33
  3
Shaded
350
42
  3
Shaded with edges
350
41
  3
Shades of Gray
350
3E
  3
Sketchy
350
3F
  3
Thicken
350
37
  3
Wireframe
350
30
  3
X-Ray
350
40
  0
XRECORD
  5
341
102
{ACAD_REACTORS
330
C
102
}
330
C
100
AcDbXrecord
280
     1
 90
        1
330
6A
  0
DICTIONARY
  5
30D
102
{ACAD_REACTORS
330
C
102
}
330
C
100
AcDbDictionary
281
     1
  3
CANNOSCALE
350
30E
  3
CMLEADERSTYLE
350
343
  3
CTABLESTYLE
350
342
  0
SORTENTSTABLE
  5
30A
102
{ACAD_REACTORS
330
309
102
}
330
309
100
AcDbSortentsTable
330
1F
331
7F
  5
92
331
80
  5
93
331
81
  5
94
331
82
  5
7F
331
83
  5
80
331
85
  5
81
331
86
  5
82
331
87
  5
83
331
88
  5
85
331
89
  5
86
331
8A
  5
87
331
8B
  5
88
331
8C
  5
89
331
8E
  5
8A
331
8F
  5
8B
331
90
  5
8C
331
91
  5
8E
331
92
  5
95
331
93
  5
96
331
94
  5
97
331
95
  5
98
331
96
  5
99
331
97
  5
9A
331
98
  5
9B
331
99
  5
9C
331
9A
  5
9D
331
9B
  5
9E
331
9C
  5
9F
331
9D
  5
A0
331
9E
  5
A1
331
9F
  5
A2
331
A0
  5
A3
331
A1
  5
A4
331
A2
  5
A5
331
A3
  5
A6
331
A4
  5
A7
331
A5
  5
A8
331
A6
  5
A9
331
A7
  5
AA
331
A8
  5
AB
331
A9
  5
AC
331
AA
  5
AD
331
AB
  5
AE
331
AC
  5
AF
331
AD
  5
B0
331
AE
  5
B1
331
AF
  5
B2
331
B0
  5
B3
331
B1
  5
B4
331
B2
  5
B5
331
B3
  5
B6
331
B4
  5
B7
331
B5
  5
B8
331
B6
  5
B9
331
B7
  5
BA
331
B8
  5
BB
331
B9
  5
BC
331
BA
  5
BD
331
BB
  5
BE
331
BC
  5
BF
331
BD
  5
C0
331
BE
  5
C1
331
BF
  5
C2
331
C0
  5
C3
331
C1
  5
C4
331
C2
  5
C5
331
C3
  5
C6
331
C4
  5
C7
331
C5
  5
C8
331
C6
  5
C9
331
C7
  5
CA
331
C8
  5
CB
331
C9
  5
CC
331
CA
  5
CD
331
CB
  5
CE
331
CC
  5
CF
331
CD
  5
D0
331
CE
  5
D1
331
CF
  5
D2
331
D0
  5
D3
331
D1
  5
D4
331
D2
  5
D5
331
D3
  5
D6
331
D4
  5
D7
331
D5
  5
D8
331
D6
  5
D9
331
D7
  5
DA
331
D8
  5
DB
331
D9
  5
DC
331
DA
  5
DD
331
DB
  5
DE
331
DC
  5
DF
331
DD
  5
E0
331
DE
  5
E1
331
DF
  5
E2
331
E0
  5
E3
331
E1
  5
E4
331
E2
  5
E5
331
E3
  5
E6
331
E4
  5
E7
331
E5
  5
E8
331
E6
  5
E9
331
E7
  5
EA
331
E8
  5
EB
331
E9
  5
EC
331
EA
  5
ED
331
EB
  5
EE
331
EC
  5
EF
331
ED
  5
F0
331
EE
  5
F1
331
EF
  5
F2
331
F0
  5
F3
331
F1
  5
F4
331
F2
  5
F5
331
F3
  5
F6
331
F4
  5
F7
331
F5
  5
F8
331
F6
  5
F9
331
F7
  5
FA
331
F8
  5
FB
331
F9
  5
FC
331
FA
  5
FD
331
FB
  5
FE
331
FC
  5
FF
331
FD
  5
100
331
FE
  5
101
331
FF
  5
102
331
100
  5
103
331
101
  5
104
331
102
  5
105
331
103
  5
106
331
104
  5
107
331
105
  5
108
331
106
  5
109
331
107
  5
10A
331
108
  5
10B
331
109
  5
10C
331
10A
  5
10D
331
10B
  5
10E
331
10C
  5
10F
331
10D
  5
110
331
10E
  5
111
331
10F
  5
112
331
110
  5
113
331
111
  5
114
331
112
  5
115
331
113
  5
116
331
114
  5
117
331
115
  5
118
331
116
  5
119
331
117
  5
11A
331
118
  5
11B
331
119
  5
11C
331
11A
  5
11D
331
11B
  5
11E
331
11C
  5
11F
331
11D
  5
120
331
11E
  5
121
331
11F
  5
122
331
120
  5
123
331
121
  5
124
331
122
  5
125
331
123
  5
126
331
124
  5
127
331
125
  5
128
331
126
  5
129
331
127
  5
12A
331
128
  5
12B
331
129
  5
12C
331
12A
  5
12D
331
12B
  5
12E
331
12C
  5
12F
331
12D
  5
130
331
12E
  5
131
331
12F
  5
132
331
130
  5
133
331
131
  5
134
331
132
  5
135
331
133
  5
136
331
134
  5
137
331
135
  5
138
331
136
  5
139
331
137
  5
13A
331
138
  5
13B
331
139
  5
13C
331
13A
  5
13D
331
13B
  5
13E
331
13C
  5
13F
331
13D
  5
140
331
13E
  5
141
331
13F
  5
142
331
140
  5
143
331
141
  5
144
331
142
  5
145
331
143
  5
146
331
144
  5
147
331
145
  5
148
331
146
  5
149
331
147
  5
14A
331
148
  5
14B
331
149
  5
14C
331
14A
  5
14D
331
14B
  5
14E
331
14C
  5
14F
331
14D
  5
150
331
14E
  5
151
331
14F
  5
152
331
150
  5
153
331
151
  5
154
331
152
  5
155
331
153
  5
156
331
154
  5
157
331
155
  5
158
331
156
  5
159
331
157
  5
15A
331
158
  5
15B
331
159
  5
15C
331
15A
  5
15D
331
15B
  5
15E
331
15C
  5
15F
331
15D
  5
160
331
15E
  5
161
331
15F
  5
162
331
160
  5
163
331
161
  5
164
331
162
  5
165
331
163
  5
166
331
164
  5
167
331
165
  5
168
331
166
  5
169
331
167
  5
16A
331
168
  5
16B
331
169
  5
16C
331
16A
  5
16D
331
16B
  5
16E
331
16C
  5
16F
331
16D
  5
170
331
16E
  5
171
331
16F
  5
172
331
170
  5
173
331
171
  5
174
331
172
  5
175
331
173
  5
176
331
174
  5
177
331
175
  5
178
331
176
  5
179
331
177
  5
17A
331
178
  5
17B
331
179
  5
17C
331
17A
  5
17D
331
17B
  5
17E
331
17C
  5
17F
331
17D
  5
180
331
17E
  5
181
331
17F
  5
182
331
180
  5
183
331
181
  5
184
331
182
  5
185
331
183
  5
186
331
184
  5
187
331
185
  5
188
331
186
  5
189
331
187
  5
18A
331
188
  5
18B
331
189
  5
18C
331
18A
  5
18D
331
18B
  5
18E
331
18C
  5
18F
331
18D
  5
190
331
18E
  5
191
331
18F
  5
192
331
190
  5
193
331
191
  5
194
331
192
  5
195
331
193
  5
196
331
194
  5
197
331
195
  5
198
331
196
  5
199
331
197
  5
19A
331
198
  5
19B
331
199
  5
19C
331
19A
  5
19D
331
19B
  5
19E
331
19C
  5
19F
331
19D
  5
1A0
331
19E
  5
1A1
331
19F
  5
1A2
331
1A0
  5
1A3
331
1A1
  5
1A4
331
1A2
  5
1A5
331
1A3
  5
1A6
331
1A4
  5
1A7
331
1A5
  5
1A8
331
1A6
  5
1A9
331
1A7
  5
1AA
331
1A8
  5
1AB
331
1A9
  5
1AC
331
1AA
  5
1AD
331
1AB
  5
1AE
331
1AC
  5
1AF
331
1AD
  5
1B0
331
1AE
  5
1B1
331
1AF
  5
1B2
331
1B0
  5
1B3
331
1B1
  5
1B4
331
1B2
  5
1B5
331
1B3
  5
1B6
331
1B4
  5
1B7
331
1B5
  5
1B8
331
1B6
  5
1B9
331
1B7
  5
1BA
331
1B8
  5
1BB
331
1B9
  5
1BC
331
1BA
  5
1BD
331
1BB
  5
1BE
331
1BC
  5
1BF
331
1BD
  5
1C0
331
1BE
  5
1C1
331
1BF
  5
1C2
331
1C0
  5
1C3
331
1C1
  5
1C4
331
1C2
  5
1C5
331
1C3
  5
1C6
331
1C4
  5
1C7
331
1C5
  5
1C8
331
1C6
  5
1C9
331
1C7
  5
1CA
331
1C8
  5
1CB
331
1C9
  5
1CC
331
1CA
  5
1CD
331
1CB
  5
1CE
331
1CC
  5
1CF
331
1CD
  5
1D0
331
1CE
  5
1D1
331
1CF
  5
1D2
331
1D0
  5
1D3
331
1D1
  5
1D4
331
1D2
  5
1D5
331
1D3
  5
1D6
331
1D4
  5
1D7
331
1D5
  5
1D8
331
1D6
  5
1D9
331
1D7
  5
1DA
331
1D8
  5
1DB
331
1D9
  5
1DC
331
1DA
  5
1DD
331
1DB
  5
1DE
331
1DC
  5
1DF
331
1DD
  5
1E0
331
1DE
  5
1E1
331
1DF
  5
1E2
331
1E0
  5
1E3
331
1E1
  5
1E4
331
1E2
  5
1E5
331
1E3
  5
1E6
331
1E4
  5
1E7
331
1E5
  5
1E8
331
1E6
  5
1E9
331
1E7
  5
1EA
331
1E8
  5
1EB
331
1E9
  5
1EC
331
1EA
  5
1ED
331
1EB
  5
1EE
331
1EC
  5
1EF
331
1ED
  5
1F0
331
1EE
  5
1F1
331
1EF
  5
1F2
331
1F0
  5
1F3
331
1F1
  5
1F4
331
1F2
  5
1F5
331
1F3
  5
1F6
331
1F4
  5
1F7
331
1F5
  5
1F8
331
1F6
  5
1F9
331
1F7
  5
1FA
331
1F8
  5
1FB
331
1F9
  5
1FC
331
1FA
  5
1FD
331
1FB
  5
1FE
331
1FC
  5
1FF
331
1FD
  5
200
331
1FE
  5
201
331
1FF
  5
202
331
200
  5
203
331
201
  5
204
331
202
  5
205
331
203
  5
206
331
204
  5
207
331
205
  5
208
331
206
  5
209
331
207
  5
20A
331
208
  5
20B
331
209
  5
20C
331
20A
  5
20D
331
20B
  5
20E
331
20C
  5
20F
331
20D
  5
210
331
20E
  5
211
331
20F
  5
212
331
210
  5
213
331
211
  5
214
331
212
  5
215
331
213
  5
216
331
214
  5
217
331
215
  5
218
331
216
  5
219
331
217
  5
21A
331
218
  5
21B
331
219
  5
21C
331
21A
  5
21D
331
21B
  5
21E
331
21C
  5
21F
331
21D
  5
220
331
21E
  5
221
331
21F
  5
222
331
220
  5
223
331
221
  5
224
331
222
  5
225
331
223
  5
226
331
224
  5
227
331
225
  5
228
331
226
  5
229
331
227
  5
22A
331
228
  5
22B
331
229
  5
22C
331
22A
  5
22D
331
22B
  5
22E
331
22C
  5
22F
331
22D
  5
230
331
22E
  5
231
331
22F
  5
232
331
230
  5
233
331
231
  5
234
331
232
  5
235
331
233
  5
236
331
234
  5
237
331
235
  5
238
331
236
  5
239
331
237
  5
23A
331
238
  5
23B
331
239
  5
23C
331
23A
  5
23D
331
23B
  5
23E
331
23C
  5
23F
331
23D
  5
240
331
23E
  5
241
331
23F
  5
242
331
240
  5
243
331
241
  5
244
331
242
  5
245
331
243
  5
246
331
244
  5
247
331
245
  5
248
331
246
  5
249
331
247
  5
24A
331
248
  5
24B
331
249
  5
24C
331
24A
  5
24D
331
24B
  5
24E
331
24C
  5
24F
331
24D
  5
250
331
24E
  5
251
331
24F
  5
252
331
250
  5
253
331
251
  5
254
331
252
  5
255
331
253
  5
256
331
254
  5
257
331
255
  5
258
331
256
  5
259
331
257
  5
25A
331
258
  5
25B
331
259
  5
25C
331
25A
  5
25D
331
25B
  5
25E
331
25C
  5
25F
331
25D
  5
260
331
25E
  5
261
331
25F
  5
262
331
260
  5
263
331
261
  5
264
331
262
  5
265
331
263
  5
266
331
264
  5
267
331
265
  5
268
331
266
  5
269
331
267
  5
26A
331
268
  5
26B
331
269
  5
26C
331
26A
  5
26D
331
26B
  5
26E
331
26C
  5
26F
331
26D
  5
270
331
26E
  5
271
331
26F
  5
272
331
270
  5
273
331
271
  5
274
331
272
  5
275
331
273
  5
276
331
274
  5
277
331
275
  5
278
331
276
  5
279
331
277
  5
27A
331
278
  5
27B
331
279
  5
27C
331
27A
  5
27D
331
27B
  5
27E
331
27C
  5
27F
331
27D
  5
280
331
27E
  5
281
331
27F
  5
282
331
280
  5
283
331
281
  5
284
331
282
  5
285
331
283
  5
286
331
284
  5
287
331
285
  5
288
331
286
  5
289
331
287
  5
28A
331
288
  5
28B
331
289
  5
28C
331
28A
  5
28D
331
28B
  5
28E
331
28C
  5
28F
331
28D
  5
290
331
28E
  5
291
331
28F
  5
292
331
290
  5
293
331
291
  5
294
331
292
  5
295
331
293
  5
296
331
294
  5
297
331
295
  5
298
331
296
  5
299
331
297
  5
29A
331
298
  5
29B
331
299
  5
29C
331
29A
  5
29D
331
29B
  5
29E
331
29C
  5
29F
331
29D
  5
2A0
331
29E
  5
2A1
331
29F
  5
2A2
331
2A0
  5
2A3
331
2A1
  5
2A4
331
2A2
  5
2A5
331
2A3
  5
2A6
331
2A4
  5
2A7
331
2A5
  5
2A8
331
2A6
  5
2A9
331
2A7
  5
2AA
331
2A8
  5
2AB
331
2A9
  5
2AC
331
2AA
  5
2AD
331
2AB
  5
2AE
331
2AC
  5
2AF
331
2AD
  5
2B0
331
2AE
  5
2B1
331
2AF
  5
2B2
331
2B0
  5
2B3
331
2B1
  5
2B4
331
2B2
  5
2B5
331
2B3
  5
2B6
331
2B4
  5
2B7
331
2B5
  5
2B9
331
2B6
  5
2BA
331
2B7
  5
2BB
331
2B9
  5
2BC
331
2BA
  5
2BD
331
2BB
  5
2BE
331
2BC
  5
2BF
331
2BD
  5
2C0
331
2BE
  5
2C1
331
2BF
  5
2DC
331
2C0
  5
2DD
331
2C1
  5
8F
331
2DC
  5
2DF
331
2DD
  5
2E0
331
2DF
  5
2E1
331
2E0
  5
2E2
331
2E1
  5
2E3
331
2E2
  5
2E4
331
2E3
  5
2E5
331
2E4
  5
2E6
331
2E5
  5
2E7
331
2E6
  5
2E8
331
2E7
  5
90
331
2E8
  5
2EA
331
2EA
  5
2EB
331
2EB
  5
2EC
331
2EC
  5
2ED
331
2ED
  5
2EE
331
2EE
  5
2EF
331
2EF
  5
2F0
331
2F0
  5
2F1
331
2F1
  5
2F2
331
2F2
  5
91
  0
GROUP
  5
84
102
{ACAD_REACTORS
330
D
102
}
330
D
100
AcDbGroup
300

 70
     0
 71
     1
340
85
340
86
  0
GROUP
  5
8D
102
{ACAD_REACTORS
330
D
102
}
330
D
100
AcDbGroup
300

 70
     0
 71
     1
340
8E
340
8F
340
90
  0
GROUP
  5
2B8
102
{ACAD_REACTORS
330
D
102
}
330
D
100
AcDbGroup
300

 70
     0
 71
     1
340
2B9
340
2BA
340
2BB
340
2BC
340
2BD
340
2BE
340
2BF
340
2C0
340
2C1
  0
GROUP
  5
2DE
102
{ACAD_REACTORS
330
D
102
}
330
D
100
AcDbGroup
300

 70
     0
 71
     1
340
2DF
340
2E0
340
2E1
340
2E2
340
2E3
340
2E4
340
2E5
340
2E6
340
2E7
  0
GROUP
  5
2E9
102
{ACAD_REACTORS
330
D
102
}
330
D
100
AcDbGroup
300

 70
     0
 71
     1
340
2EA
340
2EB
340
2EC
340
2ED
340
2EE
340
2EF
340
2F0
340
2F1
340
2F2
  0
LAYOUT
  5
6F
102
{ACAD_REACTORS
330
1A
102
}
330
1A
100
AcDbPlotSettings
  1

  2
none_device
  4
none_user_media
  6

 40
0.0
 41
0.0
 42
0.0
 43
0.0
 44
297.0
 45
209.9
 46
0.0
 47
0.0
 48
0.0
 49
0.0
140
0.0
141
0.0
142
1000.0
143
1.0
 70
   688
 72
     1
 73
     1
 74
     5
  7

 75
    33
 76
     0
 77
     2
 78
   300
147
1000.0
148
0.0
149
0.0
100
AcDbLayout
  1
K20 vertikales Omegaprofil 20 15
 70
     0
 71
     1
 10
-0.0001
 20
-0.0001
 11
0.2101
 21
0.297097
 12
0.0
 22
0.0
 32
0.0
 14
-0.0001
 24
-0.0001
 34
0.0
 15
0.2101
 25
0.297097
 35
0.0
146
0.0
 13
0.0
 23
0.0
 33
0.0
 16
1.0
 26
0.0
 36
0.0
 17
0.0
 27
1.0
 37
0.0
 76
     0
330
6E
331
72
  0
LAYOUT
  5
22
102
{ACAD_REACTORS
330
1A
102
}
330
1A
100
AcDbPlotSettings
  1

  2
none_device
  4
Letter_(8.50_x_11.00_Inches)
  6

 40
6.35
 41
6.35
 42
6.350005
 43
6.350005
 44
215.9
 45
279.4
 46
0.0
 47
0.0
 48
0.0
 49
0.0
140
0.0
141
0.0
142
1.0
143
1.0
 70
  1712
 72
     0
 73
     0
 74
     0
  7

 75
     0
 76
     0
 77
     2
 78
   300
147
1.0
148
0.0
149
0.0
100
AcDbLayout
  1
Model
 70
     1
 71
     0
 10
11.88383
 20
0.858486
 11
12.93383
 21
2.343471
 12
0.0
 22
0.0
 32
0.0
 14
11.88383
 24
0.858486
 34
11.88383
 15
12.93383
 25
2.343471
 35
12.93383
146
0.0
 13
0.0
 23
0.0
 33
0.0
 16
1.0
 26
0.0
 36
0.0
 17
0.0
 27
1.0
 37
0.0
 76
     0
330
1F
331
29
  0
MATERIAL
  5
45
102
{ACAD_REACTORS
330
43
102
}
330
43
100
AcDbMaterial
  1
ByBlock
 72
     1
 94
      127
  0
MATERIAL
  5
44
102
{ACAD_REACTORS
330
43
102
}
330
43
100
AcDbMaterial
  1
ByLayer
 72
     1
 94
      127
  0
MATERIAL
  5
46
102
{ACAD_REACTORS
330
43
102
}
330
43
100
AcDbMaterial
  1
Global
 72
     1
 94
      127
  0
MLEADERSTYLE
  5
6C
102
{ACAD_REACTORS
330
6B
102
}
330
6B
100
AcDbMLeaderStyle
179
     2
170
     2
171
     1
172
     0
 90
        2
 40
0.0
 41
0.0
173
     1
 91
-1056964608
340
14
 92
       -2
290
     1
 42
0.09
291
     1
 43
0.36
  3
Standard
341
0
 44
0.18
300

342
11
174
     1
178
     6
175
     1
176
     0
 93
-1056964608
 45
0.18
292
     0
297
     0
 46
0.18
343
0
 94
-1056964608
 47
1.0
 49
1.0
140
1.0
293
     1
141
0.0
294
     1
177
     0
142
1.0
295
     0
296
     0
143
0.125
271
     0
272
     9
273
     9
  0
MLINESTYLE
  5
18
102
{ACAD_REACTORS
330
17
102
}
330
17
100
AcDbMlineStyle
  2
Standard
 70
     0
  3

 62
   256
 51
90.0
 52
90.0
 71
     2
 49
0.5
 62
   256
  6
BYLAYER
 49
-0.5
 62
   256
  6
BYLAYER
  0
ACDBPLACEHOLDER
  5
F
102
{ACAD_REACTORS
330
E
102
}
330
E
  0
SCALE
  5
48
102
{ACAD_REACTORS
330
47
102
}
330
47
100
AcDbScale
 70
     0
300
1:1
140
1.0
141
1.0
290
     1
  0
SCALE
  5
49
102
{ACAD_REACTORS
330
47
102
}
330
47
100
AcDbScale
 70
     0
300
1:2
140
1.0
141
2.0
290
     0
  0
SCALE
  5
4A
102
{ACAD_REACTORS
330
47
102
}
330
47
100
AcDbScale
 70
     0
300
1:4
140
1.0
141
4.0
290
     0
  0
SCALE
  5
4B
102
{ACAD_REACTORS
330
47
102
}
330
47
100
AcDbScale
 70
     0
300
1:5
140
1.0
141
5.0
290
     0
  0
SCALE
  5
4C
102
{ACAD_REACTORS
330
47
102
}
330
47
100
AcDbScale
 70
     0
300
1:8
140
1.0
141
8.0
290
     0
  0
SCALE
  5
4D
102
{ACAD_REACTORS
330
47
102
}
330
47
100
AcDbScale
 70
     0
300
1:10
140
1.0
141
10.0
290
     0
  0
SCALE
  5
4E
102
{ACAD_REACTORS
330
47
102
}
330
47
100
AcDbScale
 70
     0
300
1:16
140
1.0
141
16.0
290
     0
  0
SCALE
  5
4F
102
{ACAD_REACTORS
330
47
102
}
330
47
100
AcDbScale
 70
     0
300
1:20
140
1.0
141
20.0
290
     0
  0
SCALE
  5
50
102
{ACAD_REACTORS
330
47
102
}
330
47
100
AcDbScale
 70
     0
300
1:30
140
1.0
141
30.0
290
     0
  0
SCALE
  5
51
102
{ACAD_REACTORS
330
47
102
}
330
47
100
AcDbScale
 70
     0
300
1:40
140
1.0
141
40.0
290
     0
  0
SCALE
  5
52
102
{ACAD_REACTORS
330
47
102
}
330
47
100
AcDbScale
 70
     0
300
1:50
140
1.0
141
50.0
290
     0
  0
SCALE
  5
53
102
{ACAD_REACTORS
330
47
102
}
330
47
100
AcDbScale
 70
     0
300
1:100
140
1.0
141
100.0
290
     0
  0
SCALE
  5
54
102
{ACAD_REACTORS
330
47
102
}
330
47
100
AcDbScale
 70
     0
300
2:1
140
2.0
141
1.0
290
     0
  0
SCALE
  5
55
102
{ACAD_REACTORS
330
47
102
}
330
47
100
AcDbScale
 70
     0
300
4:1
140
4.0
141
1.0
290
     0
  0
SCALE
  5
56
102
{ACAD_REACTORS
330
47
102
}
330
47
100
AcDbScale
 70
     0
300
8:1
140
8.0
141
1.0
290
     0
  0
SCALE
  5
57
102
{ACAD_REACTORS
330
47
102
}
330
47
100
AcDbScale
 70
     0
300
10:1
140
10.0
141
1.0
290
     0
  0
SCALE
  5
58
102
{ACAD_REACTORS
330
47
102
}
330
47
100
AcDbScale
 70
     0
300
100:1
140
100.0
141
1.0
290
     0
  0
SCALE
  5
59
102
{ACAD_REACTORS
330
47
102
}
330
47
100
AcDbScale
 70
     0
300
1/128" = 1'-0"
140
0.007812
141
12.0
290
     0
  0
SCALE
  5
5A
102
{ACAD_REACTORS
330
47
102
}
330
47
100
AcDbScale
 70
     0
300
1/64" = 1'-0"
140
0.015625
141
12.0
290
     0
  0
SCALE
  5
5B
102
{ACAD_REACTORS
330
47
102
}
330
47
100
AcDbScale
 70
     0
300
1/32" = 1'-0"
140
0.03125
141
12.0
290
     0
  0
SCALE
  5
5C
102
{ACAD_REACTORS
330
47
102
}
330
47
100
AcDbScale
 70
     0
300
1/16" = 1'-0"
140
0.0625
141
12.0
290
     0
  0
SCALE
  5
5D
102
{ACAD_REACTORS
330
47
102
}
330
47
100
AcDbScale
 70
     0
300
3/32" = 1'-0"
140
0.09375
141
12.0
290
     0
  0
SCALE
  5
5E
102
{ACAD_REACTORS
330
47
102
}
330
47
100
AcDbScale
 70
     0
300
1/8" = 1'-0"
140
0.125
141
12.0
290
     0
  0
SCALE
  5
5F
102
{ACAD_REACTORS
330
47
102
}
330
47
100
AcDbScale
 70
     0
300
3/16" = 1'-0"
140
0.1875
141
12.0
290
     0
  0
SCALE
  5
60
102
{ACAD_REACTORS
330
47
102
}
330
47
100
AcDbScale
 70
     0
300
1/4" = 1'-0"
140
0.25
141
12.0
290
     0
  0
SCALE
  5
61
102
{ACAD_REACTORS
330
47
102
}
330
47
100
AcDbScale
 70
     0
300
3/8" = 1'-0"
140
0.375
141
12.0
290
     0
  0
SCALE
  5
62
102
{ACAD_REACTORS
330
47
102
}
330
47
100
AcDbScale
 70
     0
300
1/2" = 1'-0"
140
0.5
141
12.0
290
     0
  0
SCALE
  5
63
102
{ACAD_REACTORS
330
47
102
}
330
47
100
AcDbScale
 70
     0
300
3/4" = 1'-0"
140
0.75
141
12.0
290
     0
  0
SCALE
  5
64
102
{ACAD_REACTORS
330
47
102
}
330
47
100
AcDbScale
 70
     0
300
1" = 1'-0"
140
1.0
141
12.0
290
     0
  0
SCALE
  5
65
102
{ACAD_REACTORS
330
47
102
}
330
47
100
AcDbScale
 70
     0
300
1-1/2" = 1'-0"
140
1.5
141
12.0
290
     0
  0
SCALE
  5
66
102
{ACAD_REACTORS
330
47
102
}
330
47
100
AcDbScale
 70
     0
300
3" = 1'-0"
140
3.0
141
12.0
290
     0
  0
SCALE
  5
67
102
{ACAD_REACTORS
330
47
102
}
330
47
100
AcDbScale
 70
     0
300
6" = 1'-0"
140
6.0
141
12.0
290
     0
  0
SCALE
  5
68
102
{ACAD_REACTORS
330
47
102
}
330
47
100
AcDbScale
 70
     0
300
1'-0" = 1'-0"
140
12.0
141
12.0
290
     0
  0
TABLESTYLE
  5
6A
102
{ACAD_REACTORS
330
69
102
}
102
{ACAD_XDICTIONARY
360
33F
102
}
330
69
100
AcDbTableStyle
  3
Standard
 70
     0
 71
     0
 40
0.06
 41
0.06
280
     0
281
     0
  7
Standard
140
0.18
170
     2
 62
     0
 63
   257
283
     0
 90
        4
 91
        0
  1

274
    -2
284
     1
 64
     0
275
    -2
285
     1
 65
     0
276
    -2
286
     1
 66
     0
277
    -2
287
     1
 67
     0
278
    -2
288
     1
 68
     0
279
    -2
289
     1
 69
     0
  7
Standard
140
0.25
170
     5
 62
     0
 63
   257
283
     0
 90
        4
 91
        0
  1

274
    -2
284
     1
 64
     0
275
    -2
285
     1
 65
     0
276
    -2
286
     1
 66
     0
277
    -2
287
     1
 67
     0
278
    -2
288
     1
 68
     0
279
    -2
289
     1
 69
     0
  7
Standard
140
0.18
170
     5
 62
     0
 63
   257
283
     0
 90
        4
 91
        0
  1

274
    -2
284
     1
 64
     0
275
    -2
285
     1
 65
     0
276
    -2
286
     1
 66
     0
277
    -2
287
     1
 67
     0
278
    -2
288
     1
 68
     0
279
    -2
289
     1
 69
     0
  0
VISUALSTYLE
  5
2F
102
{ACAD_REACTORS
330
2A
102
}
102
{ACAD_XDICTIONARY
360
317
102
}
330
2A
100
AcDbVisualStyle
  2
2dWireframe
 70
     4
177
     2
291
     0
 71
     0
176
     1
 72
     2
176
     1
 73
     0
176
     1
 90
        0
176
     1
 40
0.6
176
     1
 41
30.0
176
     1
 62
     5
 63
     7
421
 16777215
176
     1
 74
     1
176
     1
 91
        4
176
     1
 64
     7
176
     1
 65
   257
176
     1
 75
     1
176
     1
175
     1
176
     1
 42
1.0
176
     1
 92
        0
176
     1
 66
   257
176
     1
 43
1.0
176
     1
 76
     1
176
     1
 77
     6
176
     1
 78
     2
176
     1
 67
     7
176
     1
 79
     5
176
     1
170
     0
176
     1
171
     0
176
     1
290
     0
176
     1
 93
        1
176
     1
 44
0.0
176
     1
173
     0
176
     1
  0
VISUALSTYLE
  5
32
102
{ACAD_REACTORS
330
2A
102
}
102
{ACAD_XDICTIONARY
360
31D
102
}
330
2A
100
AcDbVisualStyle
  2
Basic
 70
     7
177
     2
291
     1
 71
     1
176
     1
 72
     0
176
     1
 73
     1
176
     1
 90
        0
176
     1
 40
0.6
176
     1
 41
30.0
176
     1
 62
     5
 63
     7
421
 16777215
176
     1
 74
     0
176
     1
 91
        4
176
     1
 64
     7
176
     1
 65
   257
176
     1
 75
     1
176
     1
175
     1
176
     1
 42
1.0
176
     1
 92
        8
176
     1
 66
     7
176
     1
 43
1.0
176
     1
 76
     1
176
     1
 77
     6
176
     1
 78
     2
176
     1
 67
     7
176
     1
 79
     5
176
     1
170
     0
176
     1
171
     0
176
     1
290
     0
176
     1
 93
        1
176
     1
 44
0.0
176
     1
173
     0
176
     1
  0
VISUALSTYLE
  5
36
102
{ACAD_REACTORS
330
2A
102
}
102
{ACAD_XDICTIONARY
360
325
102
}
330
2A
100
AcDbVisualStyle
  2
Brighten
 70
    12
177
     2
291
     1
 71
     2
176
     1
 72
     2
176
     1
 73
     0
176
     1
 90
        0
176
     1
 40
0.6
176
     1
 41
30.0
176
     1
 62
     5
 63
     7
421
 16777215
176
     1
 74
     1
176
     1
 91
        4
176
     1
 64
     7
176
     1
 65
   257
176
     1
 75
     1
176
     1
175
     1
176
     1
 42
1.0
176
     1
 92
        8
176
     1
 66
     7
176
     1
 43
1.0
176
     1
 76
     1
176
     1
 77
     6
176
     1
 78
     2
176
     1
 67
     7
176
     1
 79
     5
176
     1
170
     0
176
     1
171
     0
176
     1
290
     0
176
     1
 93
        1
176
     1
 44
50.0
176
     1
173
     0
176
     1
  0
VISUALSTYLE
  5
3A
102
{ACAD_REACTORS
330
2A
102
}
102
{ACAD_XDICTIONARY
360
32D
102
}
330
2A
100
AcDbVisualStyle
  2
ColorChange
 70
    16
177
     2
291
     1
 71
     2
176
     1
 72
     2
176
     1
 73
     3
176
     1
 90
        0
176
     1
 40
0.6
176
     1
 41
30.0
176
     1
 62
     5
 63
     8
421
  8421504
176
     1
 74
     1
176
     1
 91
        4
176
     1
 64
     7
176
     1
 65
   257
176
     1
 75
     1
176
     1
175
     1
176
     1
 42
1.0
176
     1
 92
        8
176
     1
 66
     8
424
  8421504
176
     1
 43
1.0
176
     1
 76
     1
176
     1
 77
     6
176
     1
 78
     2
176
     1
 67
     7
176
     1
 79
     5
176
     1
170
     0
176
     1
171
     0
176
     1
290
     0
176
     1
 93
        1
176
     1
 44
0.0
176
     1
173
     0
176
     1
  0
VISUALSTYLE
  5
34
102
{ACAD_REACTORS
330
2A
102
}
102
{ACAD_XDICTIONARY
360
321
102
}
330
2A
100
AcDbVisualStyle
  2
Conceptual
 70
     9
177
     2
291
     0
 71
     3
176
     1
 72
     2
176
     1
 73
     0
176
     1
 90
        0
176
     1
 40
0.6
176
     1
 41
30.0
176
     1
 62
     5
 63
     7
421
 16777215
176
     1
 74
     2
176
     1
 91
        2
176
     1
 64
     7
176
     1
 65
   257
176
     1
 75
     1
176
     1
175
     1
176
     1
 42
179.0
176
     1
 92
        8
176
     1
 66
     7
176
     1
 43
1.0
176
     1
 76
     1
176
     1
 77
     6
176
     1
 78
     2
176
     1
 67
     7
176
     1
 79
     3
176
     1
170
     0
176
     1
171
     0
176
     1
290
     0
176
     1
 93
        1
176
     1
 44
0.0
176
     1
173
     0
176
     1
  0
VISUALSTYLE
  5
35
102
{ACAD_REACTORS
330
2A
102
}
102
{ACAD_XDICTIONARY
360
323
102
}
330
2A
100
AcDbVisualStyle
  2
Dim
 70
    11
177
     2
291
     1
 71
     2
176
     1
 72
     2
176
     1
 73
     0
176
     1
 90
        0
176
     1
 40
0.6
176
     1
 41
30.0
176
     1
 62
     5
 63
     7
421
 16777215
176
     1
 74
     1
176
     1
 91
        4
176
     1
 64
     7
176
     1
 65
   257
176
     1
 75
     1
176
     1
175
     1
176
     1
 42
1.0
176
     1
 92
        8
176
     1
 66
     7
176
     1
 43
1.0
176
     1
 76
     1
176
     1
 77
     6
176
     1
 78
     2
176
     1
 67
     7
176
     1
 79
     5
176
     1
170
     0
176
     1
171
     0
176
     1
290
     0
176
     1
 93
        1
176
     1
 44
-50.0
176
     1
173
     0
176
     1
  0
VISUALSTYLE
  5
3D
102
{ACAD_REACTORS
330
2A
102
}
102
{ACAD_XDICTIONARY
360
333
102
}
330
2A
100
AcDbVisualStyle
  2
EdgeColorOff
 70
    22
177
     2
291
     1
 71
     2
176
     0
 72
     2
176
     0
 73
     0
176
     0
 90
        0
176
     0
 40
0.6
176
     0
 41
30.0
176
     0
 62
     5
 63
     7
421
 16777215
176
     0
 74
     1
176
     0
 91
        4
176
     0
 64
     7
176
     0
 65
   257
176
     0
 75
     1
176
     0
175
     1
176
     0
 42
1.0
176
     0
 92
        8
176
     2
 66
     7
176
     0
 43
1.0
176
     0
 76
     1
176
     0
 77
     6
176
     0
 78
     2
176
     0
 67
     7
176
     0
 79
     5
176
     0
170
     0
176
     0
171
     0
176
     0
290
     0
176
     0
 93
        1
176
     0
 44
0.0
176
     0
173
     0
176
     0
  0
VISUALSTYLE
  5
39
102
{ACAD_REACTORS
330
2A
102
}
102
{ACAD_XDICTIONARY
360
32B
102
}
330
2A
100
AcDbVisualStyle
  2
Facepattern
 70
    15
177
     2
291
     1
 71
     2
176
     1
 72
     2
176
     1
 73
     0
176
     1
 90
        0
176
     1
 40
0.6
176
     1
 41
30.0
176
     1
 62
     5
 63
     7
421
 16777215
176
     1
 74
     1
176
     1
 91
        4
176
     1
 64
     7
176
     1
 65
   257
176
     1
 75
     1
176
     1
175
     1
176
     1
 42
1.0
176
     1
 92
        8
176
     1
 66
     7
176
     1
 43
1.0
176
     1
 76
     1
176
     1
 77
     6
176
     1
 78
     2
176
     1
 67
     7
176
     1
 79
     5
176
     1
170
     0
176
     1
171
     0
176
     1
290
     0
176
     1
 93
        1
176
     1
 44
0.0
176
     1
173
     0
176
     1
  0
VISUALSTYLE
  5
2B
102
{ACAD_REACTORS
330
2A
102
}
102
{ACAD_XDICTIONARY
360
30F
102
}
330
2A
100
AcDbVisualStyle
  2
Flat
 70
     0
177
     2
291
     1
 71
     2
176
     1
 72
     1
176
     1
 73
     1
176
     1
 90
        2
176
     1
 40
0.6
176
     1
 41
30.0
176
     1
 62
     5
 63
     7
421
 16777215
176
     1
 74
     0
176
     1
 91
        0
176
     1
 64
     7
176
     1
 65
   257
176
     1
 75
     1
176
     1
175
     1
176
     1
 42
1.0
176
     1
 92
        8
176
     1
 66
     7
176
     1
 43
1.0
176
     1
 76
     1
176
     1
 77
     6
176
     1
 78
     2
176
     1
 67
     7
176
     1
 79
     5
176
     1
170
     0
176
     1
171
     0
176
     1
290
     0
176
     1
 93
       13
176
     1
 44
0.0
176
     1
173
     0
176
     1
  0
VISUALSTYLE
  5
2C
102
{ACAD_REACTORS
330
2A
102
}
102
{ACAD_XDICTIONARY
360
311
102
}
330
2A
100
AcDbVisualStyle
  2
FlatWithEdges
 70
     1
177
     2
291
     1
 71
     2
176
     1
 72
     1
176
     1
 73
     1
176
     1
 90
        2
176
     1
 40
0.6
176
     1
 41
30.0
176
     1
 62
     5
 63
     7
421
 16777215
176
     1
 74
     1
176
     1
 91
        0
176
     1
 64
     7
176
     1
 65
   257
176
     1
 75
     1
176
     1
175
     1
176
     1
 42
1.0
176
     1
 92
        0
176
     1
 66
   257
176
     1
 43
1.0
176
     1
 76
     1
176
     1
 77
     6
176
     1
 78
     2
176
     1
 67
     7
176
     1
 79
     5
176
     1
170
     0
176
     1
171
     0
176
     1
290
     0
176
     1
 93
       13
176
     1
 44
0.0
176
     1
173
     0
176
     1
  0
VISUALSTYLE
  5
2D
102
{ACAD_REACTORS
330
2A
102
}
102
{ACAD_XDICTIONARY
360
313
102
}
330
2A
100
AcDbVisualStyle
  2
Gouraud
 70
     2
177
     2
291
     1
 71
     2
176
     1
 72
     2
176
     1
 73
     1
176
     1
 90
        2
176
     1
 40
0.6
176
     1
 41
30.0
176
     1
 62
     5
 63
     7
421
 16777215
176
     1
 74
     0
176
     1
 91
        0
176
     1
 64
     7
176
     1
 65
   257
176
     1
 75
     1
176
     1
175
     1
176
     1
 42
1.0
176
     1
 92
        0
176
     1
 66
     7
176
     1
 43
1.0
176
     1
 76
     1
176
     1
 77
     6
176
     1
 78
     2
176
     1
 67
     7
176
     1
 79
     5
176
     1
170
     0
176
     1
171
     0
176
     1
290
     0
176
     1
 93
       13
176
     1
 44
0.0
176
     1
173
     0
176
     1
  0
VISUALSTYLE
  5
2E
102
{ACAD_REACTORS
330
2A
102
}
102
{ACAD_XDICTIONARY
360
315
102
}
330
2A
100
AcDbVisualStyle
  2
GouraudWithEdges
 70
     3
177
     2
291
     1
 71
     2
176
     1
 72
     2
176
     1
 73
     1
176
     1
 90
        2
176
     1
 40
0.6
176
     1
 41
30.0
176
     1
 62
     5
 63
     7
421
 16777215
176
     1
 74
     1
176
     1
 91
        0
176
     1
 64
     7
176
     1
 65
   257
176
     1
 75
     1
176
     1
175
     1
176
     1
 42
1.0
176
     1
 92
        0
176
     1
 66
   257
176
     1
 43
1.0
176
     1
 76
     1
176
     1
 77
     6
176
     1
 78
     2
176
     1
 67
     7
176
     1
 79
     5
176
     1
170
     0
176
     1
171
     0
176
     1
290
     0
176
     1
 93
       13
176
     1
 44
0.0
176
     1
173
     0
176
     1
  0
VISUALSTYLE
  5
31
102
{ACAD_REACTORS
330
2A
102
}
102
{ACAD_XDICTIONARY
360
31B
102
}
330
2A
100
AcDbVisualStyle
  2
Hidden
 70
     6
177
     2
291
     0
 71
     1
176
     1
 72
     2
176
     1
 73
     2
176
     1
 90
        0
176
     1
 40
0.6
176
     1
 41
30.0
176
     1
 62
     5
 63
     7
421
 16777215
176
     1
 74
     2
176
     1
 91
        2
176
     1
 64
     7
176
     1
 65
   257
176
     1
 75
     2
176
     1
175
     1
176
     1
 42
40.0
176
     1
 92
        0
176
     1
 66
   257
176
     1
 43
1.0
176
     1
 76
     1
176
     1
 77
     6
176
     1
 78
     2
176
     1
 67
     7
176
     1
 79
     3
176
     1
170
     0
176
     1
171
     0
176
     1
290
     0
176
     1
 93
        1
176
     1
 44
0.0
176
     1
173
     0
176
     1
  0
VISUALSTYLE
  5
3B
102
{ACAD_REACTORS
330
2A
102
}
102
{ACAD_XDICTIONARY
360
32F
102
}
330
2A
100
AcDbVisualStyle
  2
JitterOff
 70
    20
177
     2
291
     1
 71
     2
176
     0
 72
     2
176
     0
 73
     0
176
     0
 90
        0
176
     0
 40
0.6
176
     0
 41
30.0
176
     0
 62
     5
 63
     7
421
 16777215
176
     0
 74
     1
176
     0
 91
        4
176
     0
 64
     7
176
     0
 65
   257
176
     0
 75
     1
176
     0
175
     1
176
     0
 42
1.0
176
     0
 92
       10
176
     2
 66
     7
176
     0
 43
1.0
176
     0
 76
     1
176
     0
 77
     6
176
     0
 78
     2
176
     0
 67
     7
176
     0
 79
     5
176
     0
170
     0
176
     0
171
     0
176
     0
290
     0
176
     0
 93
        1
176
     0
 44
0.0
176
     0
173
     0
176
     0
  0
VISUALSTYLE
  5
38
102
{ACAD_REACTORS
330
2A
102
}
102
{ACAD_XDICTIONARY
360
329
102
}
330
2A
100
AcDbVisualStyle
  2
Linepattern
 70
    14
177
     2
291
     1
 71
     2
176
     1
 72
     2
176
     1
 73
     0
176
     1
 90
        0
176
     1
 40
0.6
176
     1
 41
30.0
176
     1
 62
     5
 63
     7
421
 16777215
176
     1
 74
     1
176
     1
 91
        4
176
     1
 64
     7
176
     1
 65
   257
176
     1
 75
     7
176
     1
175
     7
176
     1
 42
1.0
176
     1
 92
        8
176
     1
 66
     7
176
     1
 43
1.0
176
     1
 76
     1
176
     1
 77
     6
176
     1
 78
     2
176
     1
 67
     7
176
     1
 79
     5
176
     1
170
     0
176
     1
171
     0
176
     1
290
     0
176
     1
 93
        1
176
     1
 44
0.0
176
     1
173
     0
176
     1
  0
VISUALSTYLE
  5
3C
102
{ACAD_REACTORS
330
2A
102
}
102
{ACAD_XDICTIONARY
360
331
102
}
330
2A
100
AcDbVisualStyle
  2
OverhangOff
 70
    21
177
     2
291
     1
 71
     2
176
     0
 72
     2
176
     0
 73
     0
176
     0
 90
        0
176
     0
 40
0.6
176
     0
 41
30.0
176
     0
 62
     5
 63
     7
421
 16777215
176
     0
 74
     1
176
     0
 91
        4
176
     0
 64
     7
176
     0
 65
   257
176
     0
 75
     1
176
     0
175
     1
176
     0
 42
1.0
176
     0
 92
        9
176
     2
 66
     7
176
     0
 43
1.0
176
     0
 76
     1
176
     0
 77
     6
176
     0
 78
     2
176
     0
 67
     7
176
     0
 79
     5
176
     0
170
     0
176
     0
171
     0
176
     0
290
     0
176
     0
 93
        1
176
     0
 44
0.0
176
     0
173
     0
176
     0
  0
VISUALSTYLE
  5
33
102
{ACAD_REACTORS
330
2A
102
}
102
{ACAD_XDICTIONARY
360
31F
102
}
330
2A
100
AcDbVisualStyle
  2
Realistic
 70
     8
177
     2
291
     0
 71
     2
176
     1
 72
     3
176
     1
 73
     0
176
     1
 90
        2
176
     1
 40
0.6
176
     1
 41
30.0
176
     1
 62
     5
 63
     7
421
 16777215
176
     1
 74
     0
176
     1
 91
        0
176
     1
 64
     7
176
     1
 65
   257
176
     1
 75
     1
176
     1
175
     1
176
     1
 42
1.0
176
     1
 92
        8
176
     1
 66
   257
176
     1
 43
1.0
176
     1
 76
     1
176
     1
 77
     6
176
     1
 78
     2
176
     1
 67
     7
176
     1
 79
     3
176
     1
170
     0
176
     1
171
     0
176
     1
290
     0
176
     1
 93
       13
176
     1
 44
0.0
176
     1
173
     0
176
     1
  0
VISUALSTYLE
  5
42
102
{ACAD_REACTORS
330
2A
102
}
102
{ACAD_XDICTIONARY
360
33D
102
}
330
2A
100
AcDbVisualStyle
  2
Shaded
 70
    27
177
     2
291
     0
 71
     2
176
     1
 72
     2
176
     1
 73
     1
176
     1
 90
        2
176
     1
 40
0.6
176
     1
 41
30.0
176
     1
 62
     5
 63
     7
421
 16777215
176
     1
 74
     0
176
     1
 91
        4
176
     1
 64
     7
176
     1
 65
   257
176
     1
 75
     1
176
     1
175
     1
176
     1
 42
1.0
176
     1
 92
        8
176
     1
 66
   257
176
     1
 43
1.0
176
     1
 76
     1
176
     1
 77
     6
176
     1
 78
     2
176
     1
 67
     8
425
  7895160
176
     1
 79
     3
176
     1
170
     0
176
     1
171
     0
176
     1
290
     0
176
     1
 93
        5
176
     1
 44
0.0
176
     1
173
     0
176
     1
  0
VISUALSTYLE
  5
41
102
{ACAD_REACTORS
330
2A
102
}
102
{ACAD_XDICTIONARY
360
33B
102
}
330
2A
100
AcDbVisualStyle
  2
Shaded with edges
 70
    26
177
     2
291
     0
 71
     2
176
     1
 72
     2
176
     1
 73
     1
176
     1
 90
        2
176
     1
 40
0.6
176
     1
 41
30.0
176
     1
 62
     5
 63
     7
421
 16777215
176
     1
 74
     1
176
     1
 91
       10
176
     1
 64
     7
176
     1
 65
   257
176
     1
 75
     2
176
     1
175
     1
176
     1
 42
1.0
176
     1
 92
        8
176
     1
 66
   257
176
     1
 43
1.0
176
     1
 76
     1
176
     1
 77
     6
176
     1
 78
     2
176
     1
 67
     7
176
     1
 79
     3
176
     1
170
     0
176
     1
171
     0
176
     1
290
     0
176
     1
 93
        5
176
     1
 44
0.0
176
     1
173
     0
176
     1
  0
VISUALSTYLE
  5
3E
102
{ACAD_REACTORS
330
2A
102
}
102
{ACAD_XDICTIONARY
360
335
102
}
330
2A
100
AcDbVisualStyle
  2
Shades of Gray
 70
    23
177
     2
291
     0
 71
     2
176
     1
 72
     2
176
     1
 73
     3
176
     1
 90
        0
176
     1
 40
0.6
176
     1
 41
30.0
176
     1
 62
     5
 63
     7
421
 16777215
176
     1
 74
     2
176
     1
 91
        2
176
     1
 64
     7
176
     1
 65
     7
176
     1
 75
     1
176
     1
175
     1
176
     1
 42
40.0
176
     1
 92
        8
176
     1
 66
     7
176
     1
 43
1.0
176
     1
 76
     1
176
     1
 77
     6
176
     1
 78
     2
176
     1
 67
     7
176
     1
 79
     3
176
     1
170
     0
176
     1
171
     0
176
     1
290
     0
176
     1
 93
        1
176
     1
 44
0.0
176
     1
173
     0
176
     1
  0
VISUALSTYLE
  5
3F
102
{ACAD_REACTORS
330
2A
102
}
102
{ACAD_XDICTIONARY
360
337
102
}
330
2A
100
AcDbVisualStyle
  2
Sketchy
 70
    24
177
     2
291
     0
 71
     1
176
     1
 72
     2
176
     1
 73
     2
176
     1
 90
        0
176
     1
 40
0.6
176
     1
 41
30.0
176
     1
 62
     5
 63
     7
421
 16777215
176
     1
 74
     2
176
     1
 91
        2
176
     1
 64
     7
176
     1
 65
     7
176
     1
 75
     1
176
     1
175
     1
176
     1
 42
40.0
176
     1
 92
       11
176
     1
 66
     7
176
     1
 43
1.0
176
     1
 76
     1
176
     1
 77
     6
176
     1
 78
     2
176
     1
 67
     7
176
     1
 79
     6
176
     1
170
     0
176
     1
171
     0
176
     1
290
     0
176
     1
 93
        1
176
     1
 44
0.0
176
     1
173
     0
176
     1
  0
VISUALSTYLE
  5
37
102
{ACAD_REACTORS
330
2A
102
}
102
{ACAD_XDICTIONARY
360
327
102
}
330
2A
100
AcDbVisualStyle
  2
Thicken
 70
    13
177
     2
291
     1
 71
     2
176
     1
 72
     2
176
     1
 73
     0
176
     1
 90
        0
176
     1
 40
0.6
176
     1
 41
30.0
176
     1
 62
     5
 63
     7
421
 16777215
176
     1
 74
     1
176
     1
 91
        4
176
     1
 64
     7
176
     1
 65
   257
176
     1
 75
     1
176
     1
175
     1
176
     1
 42
1.0
176
     1
 92
       12
176
     1
 66
     7
176
     1
 43
1.0
176
     1
 76
     1
176
     1
 77
     6
176
     1
 78
     2
176
     1
 67
     7
176
     1
 79
     5
176
     1
170
     0
176
     1
171
     0
176
     1
290
     0
176
     1
 93
        1
176
     1
 44
0.0
176
     1
173
     0
176
     1
  0
VISUALSTYLE
  5
30
102
{ACAD_REACTORS
330
2A
102
}
102
{ACAD_XDICTIONARY
360
319
102
}
330
2A
100
AcDbVisualStyle
  2
Wireframe
 70
     5
177
     2
291
     0
 71
     0
176
     1
 72
     2
176
     1
 73
     0
176
     1
 90
        0
176
     1
 40
0.6
176
     1
 41
30.0
176
     1
 62
     5
 63
     7
421
 16777215
176
     1
 74
     1
176
     1
 91
        4
176
     1
 64
     7
176
     1
 65
   257
176
     1
 75
     1
176
     1
175
     1
176
     1
 42
1.0
176
     1
 92
        0
176
     1
 66
   257
176
     1
 43
1.0
176
     1
 76
     1
176
     1
 77
     6
176
     1
 78
     2
176
     1
 67
     7
176
     1
 79
     3
176
     1
170
     0
176
     1
171
     0
176
     1
290
     0
176
     1
 93
        1
176
     1
 44
0.0
176
     1
173
     0
176
     1
  0
VISUALSTYLE
  5
40
102
{ACAD_REACTORS
330
2A
102
}
102
{ACAD_XDICTIONARY
360
339
102
}
330
2A
100
AcDbVisualStyle
  2
X-Ray
 70
    25
177
     2
291
     0
 71
     2
176
     1
 72
     2
176
     1
 73
     1
176
     1
 90
        1
176
     1
 40
0.5
176
     1
 41
30.0
176
     1
 62
     5
 63
     7
421
 16777215
176
     1
 74
     1
176
     1
 91
        0
176
     1
 64
     7
176
     1
 65
   257
176
     1
 75
     1
176
     1
175
     1
176
     1
 42
1.0
176
     1
 92
        8
176
     1
 66
     7
176
     1
 43
1.0
176
     1
 76
     1
176
     1
 77
     6
176
     1
 78
     2
176
     1
 67
     7
176
     1
 79
     3
176
     1
170
     0
176
     1
171
     0
176
     1
290
     0
176
     1
 93
       13
176
     1
 44
0.0
176
     1
173
     0
176
     1
  0
DICTIONARYVAR
  5
30E
102
{ACAD_REACTORS
330
30D
102
}
330
30D
100
DictionaryVariables
280
     0
  1
1:1
  0
DICTIONARYVAR
  5
343
102
{ACAD_REACTORS
330
30D
102
}
330
30D
100
DictionaryVariables
280
     0
  1
Standard
  0
DICTIONARYVAR
  5
342
102
{ACAD_REACTORS
330
30D
102
}
330
30D
100
DictionaryVariables
280
     0
  1
Standard
  0
DICTIONARY
  5
33F
330
6A
100
AcDbDictionary
280
     1
281
     1
  3
ACAD_ROUNDTRIP_2008_TABLESTYLE_CELLSTYLEMAP
360
340
  0
DICTIONARY
  5
317
330
2F
100
AcDbDictionary
280
     1
281
     1
  3
ACAD_XREC_ROUNDTRIP
360
318
  0
DICTIONARY
  5
31D
330
32
100
AcDbDictionary
280
     1
281
     1
  3
ACAD_XREC_ROUNDTRIP
360
31E
  0
DICTIONARY
  5
325
330
36
100
AcDbDictionary
280
     1
281
     1
  3
ACAD_XREC_ROUNDTRIP
360
326
  0
DICTIONARY
  5
32D
330
3A
100
AcDbDictionary
280
     1
281
     1
  3
ACAD_XREC_ROUNDTRIP
360
32E
  0
DICTIONARY
  5
321
330
34
100
AcDbDictionary
280
     1
281
     1
  3
ACAD_XREC_ROUNDTRIP
360
322
  0
DICTIONARY
  5
323
330
35
100
AcDbDictionary
280
     1
281
     1
  3
ACAD_XREC_ROUNDTRIP
360
324
  0
DICTIONARY
  5
333
330
3D
100
AcDbDictionary
280
     1
281
     1
  3
ACAD_XREC_ROUNDTRIP
360
334
  0
DICTIONARY
  5
32B
330
39
100
AcDbDictionary
280
     1
281
     1
  3
ACAD_XREC_ROUNDTRIP
360
32C
  0
DICTIONARY
  5
30F
330
2B
100
AcDbDictionary
280
     1
281
     1
  3
ACAD_XREC_ROUNDTRIP
360
310
  0
DICTIONARY
  5
311
330
2C
100
AcDbDictionary
280
     1
281
     1
  3
ACAD_XREC_ROUNDTRIP
360
312
  0
DICTIONARY
  5
313
330
2D
100
AcDbDictionary
280
     1
281
     1
  3
ACAD_XREC_ROUNDTRIP
360
314
  0
DICTIONARY
  5
315
330
2E
100
AcDbDictionary
280
     1
281
     1
  3
ACAD_XREC_ROUNDTRIP
360
316
  0
DICTIONARY
  5
31B
330
31
100
AcDbDictionary
280
     1
281
     1
  3
ACAD_XREC_ROUNDTRIP
360
31C
  0
DICTIONARY
  5
32F
330
3B
100
AcDbDictionary
280
     1
281
     1
  3
ACAD_XREC_ROUNDTRIP
360
330
  0
DICTIONARY
  5
329
330
38
100
AcDbDictionary
280
     1
281
     1
  3
ACAD_XREC_ROUNDTRIP
360
32A
  0
DICTIONARY
  5
331
330
3C
100
AcDbDictionary
280
     1
281
     1
  3
ACAD_XREC_ROUNDTRIP
360
332
  0
DICTIONARY
  5
31F
330
33
100
AcDbDictionary
280
     1
281
     1
  3
ACAD_XREC_ROUNDTRIP
360
320
  0
DICTIONARY
  5
33D
330
42
100
AcDbDictionary
280
     1
281
     1
  3
ACAD_XREC_ROUNDTRIP
360
33E
  0
DICTIONARY
  5
33B
330
41
100
AcDbDictionary
280
     1
281
     1
  3
ACAD_XREC_ROUNDTRIP
360
33C
  0
DICTIONARY
  5
335
330
3E
100
AcDbDictionary
280
     1
281
     1
  3
ACAD_XREC_ROUNDTRIP
360
336
  0
DICTIONARY
  5
337
330
3F
100
AcDbDictionary
280
     1
281
     1
  3
ACAD_XREC_ROUNDTRIP
360
338
  0
DICTIONARY
  5
327
330
37
100
AcDbDictionary
280
     1
281
     1
  3
ACAD_XREC_ROUNDTRIP
360
328
  0
DICTIONARY
  5
319
330
30
100
AcDbDictionary
280
     1
281
     1
  3
ACAD_XREC_ROUNDTRIP
360
31A
  0
DICTIONARY
  5
339
330
40
100
AcDbDictionary
280
     1
281
     1
  3
ACAD_XREC_ROUNDTRIP
360
33A
  0
CELLSTYLEMAP
  5
340
102
{ACAD_REACTORS
330
33F
102
}
330
33F
100
AcDbCellStyleMap
 90
        3
300
CELLSTYLE
  1
TABLEFORMAT_BEGIN
 90
        5
170
     1
 91
        0
 92
    32768
 62
   257
 93
        1
300
CONTENTFORMAT
  1
CONTENTFORMAT_BEGIN
 90
        0
 91
        0
 92
        4
 93
        0
300

 40
0.0
140
1.0
 94
        5
 62
     0
340
11
144
0.25
309
CONTENTFORMAT_END
171
     1
301
MARGIN
  1
CELLMARGIN_BEGIN
 40
0.06
 40
0.06
 40
0.06
 40
0.06
 40
0.06
 40
0.06
309
CELLMARGIN_END
 94
        6
 95
        1
302
GRIDFORMAT
  1
GRIDFORMAT_BEGIN
 90
        0
 91
        1
 62
     0
 92
       -2
340
14
 93
        0
 40
0.045
309
GRIDFORMAT_END
 95
        2
302
GRIDFORMAT
  1
GRIDFORMAT_BEGIN
 90
        0
 91
        1
 62
     0
 92
       -2
340
14
 93
        0
 40
0.045
309
GRIDFORMAT_END
 95
        4
302
GRIDFORMAT
  1
GRIDFORMAT_BEGIN
 90
        0
 91
        1
 62
     0
 92
       -2
340
14
 93
        0
 40
0.045
309
GRIDFORMAT_END
 95
        8
302
GRIDFORMAT
  1
GRIDFORMAT_BEGIN
 90
        0
 91
        1
 62
     0
 92
       -2
340
14
 93
        0
 40
0.045
309
GRIDFORMAT_END
 95
       16
302
GRIDFORMAT
  1
GRIDFORMAT_BEGIN
 90
        0
 91
        1
 62
     0
 92
       -2
340
14
 93
        0
 40
0.045
309
GRIDFORMAT_END
 95
       32
302
GRIDFORMAT
  1
GRIDFORMAT_BEGIN
 90
        0
 91
        1
 62
     0
 92
       -2
340
14
 93
        0
 40
0.045
309
GRIDFORMAT_END
309
TABLEFORMAT_END
  1
CELLSTYLE_BEGIN
 90
        1
 91
        1
300
_TITLE
309
CELLSTYLE_END
300
CELLSTYLE
  1
TABLEFORMAT_BEGIN
 90
        5
170
     1
 91
        0
 92
        0
 62
   257
 93
        1
300
CONTENTFORMAT
  1
CONTENTFORMAT_BEGIN
 90
        0
 91
        0
 92
        4
 93
        0
300

 40
0.0
140
1.0
 94
        5
 62
     0
340
11
144
0.18
309
CONTENTFORMAT_END
171
     1
301
MARGIN
  1
CELLMARGIN_BEGIN
 40
0.06
 40
0.06
 40
0.06
 40
0.06
 40
0.06
 40
0.06
309
CELLMARGIN_END
 94
        6
 95
        1
302
GRIDFORMAT
  1
GRIDFORMAT_BEGIN
 90
        0
 91
        1
 62
     0
 92
       -2
340
14
 93
        0
 40
0.045
309
GRIDFORMAT_END
 95
        2
302
GRIDFORMAT
  1
GRIDFORMAT_BEGIN
 90
        0
 91
        1
 62
     0
 92
       -2
340
14
 93
        0
 40
0.045
309
GRIDFORMAT_END
 95
        4
302
GRIDFORMAT
  1
GRIDFORMAT_BEGIN
 90
        0
 91
        1
 62
     0
 92
       -2
340
14
 93
        0
 40
0.045
309
GRIDFORMAT_END
 95
        8
302
GRIDFORMAT
  1
GRIDFORMAT_BEGIN
 90
        0
 91
        1
 62
     0
 92
       -2
340
14
 93
        0
 40
0.045
309
GRIDFORMAT_END
 95
       16
302
GRIDFORMAT
  1
GRIDFORMAT_BEGIN
 90
        0
 91
        1
 62
     0
 92
       -2
340
14
 93
        0
 40
0.045
309
GRIDFORMAT_END
 95
       32
302
GRIDFORMAT
  1
GRIDFORMAT_BEGIN
 90
        0
 91
        1
 62
     0
 92
       -2
340
14
 93
        0
 40
0.045
309
GRIDFORMAT_END
309
TABLEFORMAT_END
  1
CELLSTYLE_BEGIN
 90
        2
 91
        1
300
_HEADER
309
CELLSTYLE_END
300
CELLSTYLE
  1
TABLEFORMAT_BEGIN
 90
        5
170
     1
 91
        0
 92
        0
 62
   257
 93
        1
300
CONTENTFORMAT
  1
CONTENTFORMAT_BEGIN
 90
        0
 91
        0
 92
        4
 93
        0
300

 40
0.0
140
1.0
 94
        2
 62
     0
340
11
144
0.18
309
CONTENTFORMAT_END
171
     1
301
MARGIN
  1
CELLMARGIN_BEGIN
 40
0.06
 40
0.06
 40
0.06
 40
0.06
 40
0.06
 40
0.06
309
CELLMARGIN_END
 94
        6
 95
        1
302
GRIDFORMAT
  1
GRIDFORMAT_BEGIN
 90
        0
 91
        1
 62
     0
 92
       -2
340
14
 93
        0
 40
0.045
309
GRIDFORMAT_END
 95
        2
302
GRIDFORMAT
  1
GRIDFORMAT_BEGIN
 90
        0
 91
        1
 62
     0
 92
       -2
340
14
 93
        0
 40
0.045
309
GRIDFORMAT_END
 95
        4
302
GRIDFORMAT
  1
GRIDFORMAT_BEGIN
 90
        0
 91
        1
 62
     0
 92
       -2
340
14
 93
        0
 40
0.045
309
GRIDFORMAT_END
 95
        8
302
GRIDFORMAT
  1
GRIDFORMAT_BEGIN
 90
        0
 91
        1
 62
     0
 92
       -2
340
14
 93
        0
 40
0.045
309
GRIDFORMAT_END
 95
       16
302
GRIDFORMAT
  1
GRIDFORMAT_BEGIN
 90
        0
 91
        1
 62
     0
 92
       -2
340
14
 93
        0
 40
0.045
309
GRIDFORMAT_END
 95
       32
302
GRIDFORMAT
  1
GRIDFORMAT_BEGIN
 90
        0
 91
        1
 62
     0
 92
       -2
340
14
 93
        0
 40
0.045
309
GRIDFORMAT_END
309
TABLEFORMAT_END
  1
CELLSTYLE_BEGIN
 90
        3
 91
        2
300
_DATA
309
CELLSTYLE_END
  0
XRECORD
  5
318
102
{ACAD_REACTORS
330
317
102
}
330
317
100
AcDbXrecord
280
     1
102
RTVSPost2010Prop28
280
     1
102
RTVSPost2010PropOp28
 70
     1
102
RTVSPost2010Prop29
280
     1
102
RTVSPost2010PropOp29
 70
     1
102
RTVSPost2010Prop30
280
     0
102
RTVSPost2010PropOp30
 70
     1
102
RTVSPost2010Prop31
280
     0
102
RTVSPost2010PropOp31
 70
     1
102
RTVSPost2010Prop32
280
     0
102
RTVSPost2010PropOp32
 70
     1
102
RTVSPost2010Prop33
280
     0
102
RTVSPost2010PropOp33
 70
     1
102
RTVSPost2010Prop34
280
     0
102
RTVSPost2010PropOp34
 70
     1
102
RTVSPost2010Prop35
280
     0
102
RTVSPost2010PropOp35
 70
     1
102
RTVSPost2010Prop36
280
     0
102
RTVSPost2010PropOp36
 70
     1
102
RTVSPost2010Prop37
 90
       50
102
RTVSPost2010PropOp37
 70
     1
102
RTVSPost2010Prop38
140
0.0
102
RTVSPost2010PropOp38
 70
     1
102
RTVSPost2010Prop39
140
1.0
102
RTVSPost2010PropOp39
 70
     1
102
RTVSPost2010Prop40
 90
        0
102
RTVSPost2010PropOp40
 70
     1
102
RTVSPost2010Prop41ColorIndex
 90
       18
102
RTVSPost2010Prop41ColorRGB
 90
        0
102
RTVSPost2010PropOp41
 70
     1
102
RTVSPost2010Prop42
 90
       50
102
RTVSPost2010PropOp42
 70
     1
102
RTVSPost2010Prop43
 90
        3
102
RTVSPost2010PropOp43
 70
     1
102
RTVSPost2010Prop44ColorIndex
 90
        5
102
RTVSPost2010Prop44ColorRGB
 90
      255
102
RTVSPost2010PropOp44
 70
     1
102
RTVSPost2010Prop45
280
     0
102
RTVSPost2010PropOp45
 70
     1
102
RTVSPost2010Prop46
 90
       50
102
RTVSPost2010PropOp46
 70
     1
102
RTVSPost2010Prop47
 90
       50
102
RTVSPost2010PropOp47
 70
     1
102
RTVSPost2010Prop48
 90
       50
102
RTVSPost2010PropOp48
 70
     1
102
RTVSPost2010Prop49
280
     0
102
RTVSPost2010PropOp49
 70
     1
102
RTVSPost2010Prop50
 90
       50
102
RTVSPost2010PropOp50
 70
     1
102
RTVSPost2010Prop51ColorIndex
 90
      256
102
RTVSPost2010Prop51ColorRGB
 90
-16777216
102
RTVSPost2010PropOp51
 70
     0
102
RTVSPost2010Prop52
140
1.0
102
RTVSPost2010PropOp52
 70
     0
102
RTVSPost2010Prop53
 90
        2
102
RTVSPost2010PropOp53
 70
     1
102
RTVSPost2010Prop54
  1
strokes_ogs.tif
102
RTVSPost2010PropOp54
 70
     1
102
RTVSPost2010Prop55
280
     0
102
RTVSPost2010PropOp55
 70
     1
102
RTVSPost2010Prop56
140
1.0
102
RTVSPost2010PropOp56
 70
     1
102
RTVSPost2010Prop57
140
1.0
102
RTVSPost2010PropOp57
 70
     1
  0
XRECORD
  5
31E
102
{ACAD_REACTORS
330
31D
102
}
330
31D
100
AcDbXrecord
280
     1
102
RTVSPost2010Prop28
280
     0
102
RTVSPost2010PropOp28
 70
     1
102
RTVSPost2010Prop29
280
     1
102
RTVSPost2010PropOp29
 70
     1
102
RTVSPost2010Prop30
280
     1
102
RTVSPost2010PropOp30
 70
     1
102
RTVSPost2010Prop31
280
     0
102
RTVSPost2010PropOp31
 70
     1
102
RTVSPost2010Prop32
280
     0
102
RTVSPost2010PropOp32
 70
     1
102
RTVSPost2010Prop33
280
     0
102
RTVSPost2010PropOp33
 70
     1
102
RTVSPost2010Prop34
280
     0
102
RTVSPost2010PropOp34
 70
     1
102
RTVSPost2010Prop35
280
     0
102
RTVSPost2010PropOp35
 70
     1
102
RTVSPost2010Prop36
280
     0
102
RTVSPost2010PropOp36
 70
     1
102
RTVSPost2010Prop37
 90
       50
102
RTVSPost2010PropOp37
 70
     1
102
RTVSPost2010Prop38
140
0.0
102
RTVSPost2010PropOp38
 70
     1
102
RTVSPost2010Prop39
140
1.0
102
RTVSPost2010PropOp39
 70
     1
102
RTVSPost2010Prop40
 90
        0
102
RTVSPost2010PropOp40
 70
     1
102
RTVSPost2010Prop41ColorIndex
 90
       18
102
RTVSPost2010Prop41ColorRGB
 90
        0
102
RTVSPost2010PropOp41
 70
     1
102
RTVSPost2010Prop42
 90
       50
102
RTVSPost2010PropOp42
 70
     1
102
RTVSPost2010Prop43
 90
        3
102
RTVSPost2010PropOp43
 70
     1
102
RTVSPost2010Prop44ColorIndex
 90
        5
102
RTVSPost2010Prop44ColorRGB
 90
      255
102
RTVSPost2010PropOp44
 70
     1
102
RTVSPost2010Prop45
280
     0
102
RTVSPost2010PropOp45
 70
     1
102
RTVSPost2010Prop46
 90
       50
102
RTVSPost2010PropOp46
 70
     1
102
RTVSPost2010Prop47
 90
       50
102
RTVSPost2010PropOp47
 70
     1
102
RTVSPost2010Prop48
 90
       50
102
RTVSPost2010PropOp48
 70
     1
102
RTVSPost2010Prop49
280
     0
102
RTVSPost2010PropOp49
 70
     1
102
RTVSPost2010Prop50
 90
       50
102
RTVSPost2010PropOp50
 70
     1
102
RTVSPost2010Prop51ColorIndex
 90
      256
102
RTVSPost2010Prop51ColorRGB
 90
-16777216
102
RTVSPost2010PropOp51
 70
     0
102
RTVSPost2010Prop52
140
1.0
102
RTVSPost2010PropOp52
 70
     0
102
RTVSPost2010Prop53
 90
        2
102
RTVSPost2010PropOp53
 70
     1
102
RTVSPost2010Prop54
  1
strokes_ogs.tif
102
RTVSPost2010PropOp54
 70
     1
102
RTVSPost2010Prop55
280
     0
102
RTVSPost2010PropOp55
 70
     1
102
RTVSPost2010Prop56
140
1.0
102
RTVSPost2010PropOp56
 70
     1
102
RTVSPost2010Prop57
140
1.0
102
RTVSPost2010PropOp57
 70
     1
  0
XRECORD
  5
326
102
{ACAD_REACTORS
330
325
102
}
330
325
100
AcDbXrecord
280
     1
102
RTVSPost2010Prop28
280
     0
102
RTVSPost2010PropOp28
 70
     1
102
RTVSPost2010Prop29
280
     1
102
RTVSPost2010PropOp29
 70
     1
102
RTVSPost2010Prop30
280
     1
102
RTVSPost2010PropOp30
 70
     1
102
RTVSPost2010Prop31
280
     0
102
RTVSPost2010PropOp31
 70
     1
102
RTVSPost2010Prop32
280
     0
102
RTVSPost2010PropOp32
 70
     1
102
RTVSPost2010Prop33
280
     0
102
RTVSPost2010PropOp33
 70
     1
102
RTVSPost2010Prop34
280
     0
102
RTVSPost2010PropOp34
 70
     1
102
RTVSPost2010Prop35
280
     0
102
RTVSPost2010PropOp35
 70
     1
102
RTVSPost2010Prop36
280
     0
102
RTVSPost2010PropOp36
 70
     1
102
RTVSPost2010Prop37
 90
       50
102
RTVSPost2010PropOp37
 70
     1
102
RTVSPost2010Prop38
140
0.0
102
RTVSPost2010PropOp38
 70
     1
102
RTVSPost2010Prop39
140
1.0
102
RTVSPost2010PropOp39
 70
     1
102
RTVSPost2010Prop40
 90
        0
102
RTVSPost2010PropOp40
 70
     1
102
RTVSPost2010Prop41ColorIndex
 90
       18
102
RTVSPost2010Prop41ColorRGB
 90
        0
102
RTVSPost2010PropOp41
 70
     1
102
RTVSPost2010Prop42
 90
       50
102
RTVSPost2010PropOp42
 70
     1
102
RTVSPost2010Prop43
 90
        3
102
RTVSPost2010PropOp43
 70
     1
102
RTVSPost2010Prop44ColorIndex
 90
        5
102
RTVSPost2010Prop44ColorRGB
 90
      255
102
RTVSPost2010PropOp44
 70
     1
102
RTVSPost2010Prop45
280
     0
102
RTVSPost2010PropOp45
 70
     1
102
RTVSPost2010Prop46
 90
       50
102
RTVSPost2010PropOp46
 70
     1
102
RTVSPost2010Prop47
 90
       50
102
RTVSPost2010PropOp47
 70
     1
102
RTVSPost2010Prop48
 90
       50
102
RTVSPost2010PropOp48
 70
     1
102
RTVSPost2010Prop49
280
     0
102
RTVSPost2010PropOp49
 70
     1
102
RTVSPost2010Prop50
 90
       50
102
RTVSPost2010PropOp50
 70
     1
102
RTVSPost2010Prop51ColorIndex
 90
      256
102
RTVSPost2010Prop51ColorRGB
 90
-16777216
102
RTVSPost2010PropOp51
 70
     0
102
RTVSPost2010Prop52
140
1.0
102
RTVSPost2010PropOp52
 70
     0
102
RTVSPost2010Prop53
 90
        2
102
RTVSPost2010PropOp53
 70
     1
102
RTVSPost2010Prop54
  1
strokes_ogs.tif
102
RTVSPost2010PropOp54
 70
     1
102
RTVSPost2010Prop55
280
     0
102
RTVSPost2010PropOp55
 70
     1
102
RTVSPost2010Prop56
140
1.0
102
RTVSPost2010PropOp56
 70
     1
102
RTVSPost2010Prop57
140
1.0
102
RTVSPost2010PropOp57
 70
     1
  0
XRECORD
  5
32E
102
{ACAD_REACTORS
330
32D
102
}
330
32D
100
AcDbXrecord
280
     1
102
RTVSPost2010Prop28
280
     0
102
RTVSPost2010PropOp28
 70
     1
102
RTVSPost2010Prop29
280
     1
102
RTVSPost2010PropOp29
 70
     1
102
RTVSPost2010Prop30
280
     1
102
RTVSPost2010PropOp30
 70
     1
102
RTVSPost2010Prop31
280
     0
102
RTVSPost2010PropOp31
 70
     1
102
RTVSPost2010Prop32
280
     0
102
RTVSPost2010PropOp32
 70
     1
102
RTVSPost2010Prop33
280
     0
102
RTVSPost2010PropOp33
 70
     1
102
RTVSPost2010Prop34
280
     0
102
RTVSPost2010PropOp34
 70
     1
102
RTVSPost2010Prop35
280
     0
102
RTVSPost2010PropOp35
 70
     1
102
RTVSPost2010Prop36
280
     0
102
RTVSPost2010PropOp36
 70
     1
102
RTVSPost2010Prop37
 90
       50
102
RTVSPost2010PropOp37
 70
     1
102
RTVSPost2010Prop38
140
0.0
102
RTVSPost2010PropOp38
 70
     1
102
RTVSPost2010Prop39
140
1.0
102
RTVSPost2010PropOp39
 70
     1
102
RTVSPost2010Prop40
 90
        0
102
RTVSPost2010PropOp40
 70
     1
102
RTVSPost2010Prop41ColorIndex
 90
       18
102
RTVSPost2010Prop41ColorRGB
 90
        0
102
RTVSPost2010PropOp41
 70
     1
102
RTVSPost2010Prop42
 90
       50
102
RTVSPost2010PropOp42
 70
     1
102
RTVSPost2010Prop43
 90
        3
102
RTVSPost2010PropOp43
 70
     1
102
RTVSPost2010Prop44ColorIndex
 90
        5
102
RTVSPost2010Prop44ColorRGB
 90
      255
102
RTVSPost2010PropOp44
 70
     1
102
RTVSPost2010Prop45
280
     0
102
RTVSPost2010PropOp45
 70
     1
102
RTVSPost2010Prop46
 90
       50
102
RTVSPost2010PropOp46
 70
     1
102
RTVSPost2010Prop47
 90
       50
102
RTVSPost2010PropOp47
 70
     1
102
RTVSPost2010Prop48
 90
       50
102
RTVSPost2010PropOp48
 70
     1
102
RTVSPost2010Prop49
280
     0
102
RTVSPost2010PropOp49
 70
     1
102
RTVSPost2010Prop50
 90
       50
102
RTVSPost2010PropOp50
 70
     1
102
RTVSPost2010Prop51ColorIndex
 90
      256
102
RTVSPost2010Prop51ColorRGB
 90
-16777216
102
RTVSPost2010PropOp51
 70
     0
102
RTVSPost2010Prop52
140
1.0
102
RTVSPost2010PropOp52
 70
     0
102
RTVSPost2010Prop53
 90
        2
102
RTVSPost2010PropOp53
 70
     1
102
RTVSPost2010Prop54
  1
strokes_ogs.tif
102
RTVSPost2010PropOp54
 70
     1
102
RTVSPost2010Prop55
280
     0
102
RTVSPost2010PropOp55
 70
     1
102
RTVSPost2010Prop56
140
1.0
102
RTVSPost2010PropOp56
 70
     1
102
RTVSPost2010Prop57
140
1.0
102
RTVSPost2010PropOp57
 70
     1
  0
XRECORD
  5
322
102
{ACAD_REACTORS
330
321
102
}
330
321
100
AcDbXrecord
280
     1
102
RTVSPost2010Prop28
280
     0
102
RTVSPost2010PropOp28
 70
     1
102
RTVSPost2010Prop29
280
     1
102
RTVSPost2010PropOp29
 70
     1
102
RTVSPost2010Prop30
280
     1
102
RTVSPost2010PropOp30
 70
     1
102
RTVSPost2010Prop31
280
     0
102
RTVSPost2010PropOp31
 70
     1
102
RTVSPost2010Prop32
280
     0
102
RTVSPost2010PropOp32
 70
     1
102
RTVSPost2010Prop33
280
     0
102
RTVSPost2010PropOp33
 70
     1
102
RTVSPost2010Prop34
280
     0
102
RTVSPost2010PropOp34
 70
     1
102
RTVSPost2010Prop35
280
     0
102
RTVSPost2010PropOp35
 70
     1
102
RTVSPost2010Prop36
280
     0
102
RTVSPost2010PropOp36
 70
     1
102
RTVSPost2010Prop37
 90
       50
102
RTVSPost2010PropOp37
 70
     1
102
RTVSPost2010Prop38
140
0.0
102
RTVSPost2010PropOp38
 70
     1
102
RTVSPost2010Prop39
140
1.0
102
RTVSPost2010PropOp39
 70
     1
102
RTVSPost2010Prop40
 90
        0
102
RTVSPost2010PropOp40
 70
     1
102
RTVSPost2010Prop41ColorIndex
 90
       18
102
RTVSPost2010Prop41ColorRGB
 90
        0
102
RTVSPost2010PropOp41
 70
     1
102
RTVSPost2010Prop42
 90
       50
102
RTVSPost2010PropOp42
 70
     1
102
RTVSPost2010Prop43
 90
        3
102
RTVSPost2010PropOp43
 70
     1
102
RTVSPost2010Prop44ColorIndex
 90
        5
102
RTVSPost2010Prop44ColorRGB
 90
      255
102
RTVSPost2010PropOp44
 70
     1
102
RTVSPost2010Prop45
280
     0
102
RTVSPost2010PropOp45
 70
     1
102
RTVSPost2010Prop46
 90
       50
102
RTVSPost2010PropOp46
 70
     1
102
RTVSPost2010Prop47
 90
       50
102
RTVSPost2010PropOp47
 70
     1
102
RTVSPost2010Prop48
 90
       50
102
RTVSPost2010PropOp48
 70
     1
102
RTVSPost2010Prop49
280
     0
102
RTVSPost2010PropOp49
 70
     1
102
RTVSPost2010Prop50
 90
       50
102
RTVSPost2010PropOp50
 70
     1
102
RTVSPost2010Prop51ColorIndex
 90
      256
102
RTVSPost2010Prop51ColorRGB
 90
-16777216
102
RTVSPost2010PropOp51
 70
     0
102
RTVSPost2010Prop52
140
1.0
102
RTVSPost2010PropOp52
 70
     0
102
RTVSPost2010Prop53
 90
        2
102
RTVSPost2010PropOp53
 70
     1
102
RTVSPost2010Prop54
  1
strokes_ogs.tif
102
RTVSPost2010PropOp54
 70
     1
102
RTVSPost2010Prop55
280
     0
102
RTVSPost2010PropOp55
 70
     1
102
RTVSPost2010Prop56
140
1.0
102
RTVSPost2010PropOp56
 70
     1
102
RTVSPost2010Prop57
140
1.0
102
RTVSPost2010PropOp57
 70
     1
  0
XRECORD
  5
324
102
{ACAD_REACTORS
330
323
102
}
330
323
100
AcDbXrecord
280
     1
102
RTVSPost2010Prop28
280
     0
102
RTVSPost2010PropOp28
 70
     1
102
RTVSPost2010Prop29
280
     1
102
RTVSPost2010PropOp29
 70
     1
102
RTVSPost2010Prop30
280
     1
102
RTVSPost2010PropOp30
 70
     1
102
RTVSPost2010Prop31
280
     0
102
RTVSPost2010PropOp31
 70
     1
102
RTVSPost2010Prop32
280
     0
102
RTVSPost2010PropOp32
 70
     1
102
RTVSPost2010Prop33
280
     0
102
RTVSPost2010PropOp33
 70
     1
102
RTVSPost2010Prop34
280
     0
102
RTVSPost2010PropOp34
 70
     1
102
RTVSPost2010Prop35
280
     0
102
RTVSPost2010PropOp35
 70
     1
102
RTVSPost2010Prop36
280
     0
102
RTVSPost2010PropOp36
 70
     1
102
RTVSPost2010Prop37
 90
       50
102
RTVSPost2010PropOp37
 70
     1
102
RTVSPost2010Prop38
140
0.0
102
RTVSPost2010PropOp38
 70
     1
102
RTVSPost2010Prop39
140
1.0
102
RTVSPost2010PropOp39
 70
     1
102
RTVSPost2010Prop40
 90
        0
102
RTVSPost2010PropOp40
 70
     1
102
RTVSPost2010Prop41ColorIndex
 90
       18
102
RTVSPost2010Prop41ColorRGB
 90
        0
102
RTVSPost2010PropOp41
 70
     1
102
RTVSPost2010Prop42
 90
       50
102
RTVSPost2010PropOp42
 70
     1
102
RTVSPost2010Prop43
 90
        3
102
RTVSPost2010PropOp43
 70
     1
102
RTVSPost2010Prop44ColorIndex
 90
        5
102
RTVSPost2010Prop44ColorRGB
 90
      255
102
RTVSPost2010PropOp44
 70
     1
102
RTVSPost2010Prop45
280
     0
102
RTVSPost2010PropOp45
 70
     1
102
RTVSPost2010Prop46
 90
       50
102
RTVSPost2010PropOp46
 70
     1
102
RTVSPost2010Prop47
 90
       50
102
RTVSPost2010PropOp47
 70
     1
102
RTVSPost2010Prop48
 90
       50
102
RTVSPost2010PropOp48
 70
     1
102
RTVSPost2010Prop49
280
     0
102
RTVSPost2010PropOp49
 70
     1
102
RTVSPost2010Prop50
 90
       50
102
RTVSPost2010PropOp50
 70
     1
102
RTVSPost2010Prop51ColorIndex
 90
      256
102
RTVSPost2010Prop51ColorRGB
 90
-16777216
102
RTVSPost2010PropOp51
 70
     0
102
RTVSPost2010Prop52
140
1.0
102
RTVSPost2010PropOp52
 70
     0
102
RTVSPost2010Prop53
 90
        2
102
RTVSPost2010PropOp53
 70
     1
102
RTVSPost2010Prop54
  1
strokes_ogs.tif
102
RTVSPost2010PropOp54
 70
     1
102
RTVSPost2010Prop55
280
     0
102
RTVSPost2010PropOp55
 70
     1
102
RTVSPost2010Prop56
140
1.0
102
RTVSPost2010PropOp56
 70
     1
102
RTVSPost2010Prop57
140
1.0
102
RTVSPost2010PropOp57
 70
     1
  0
XRECORD
  5
334
102
{ACAD_REACTORS
330
333
102
}
330
333
100
AcDbXrecord
280
     1
102
RTVSPost2010Prop28
280
     0
102
RTVSPost2010PropOp28
 70
     0
102
RTVSPost2010Prop29
280
     1
102
RTVSPost2010PropOp29
 70
     0
102
RTVSPost2010Prop30
280
     1
102
RTVSPost2010PropOp30
 70
     0
102
RTVSPost2010Prop31
280
     0
102
RTVSPost2010PropOp31
 70
     0
102
RTVSPost2010Prop32
280
     0
102
RTVSPost2010PropOp32
 70
     0
102
RTVSPost2010Prop33
280
     0
102
RTVSPost2010PropOp33
 70
     0
102
RTVSPost2010Prop34
280
     0
102
RTVSPost2010PropOp34
 70
     0
102
RTVSPost2010Prop35
280
     0
102
RTVSPost2010PropOp35
 70
     0
102
RTVSPost2010Prop36
280
     0
102
RTVSPost2010PropOp36
 70
     0
102
RTVSPost2010Prop37
 90
       50
102
RTVSPost2010PropOp37
 70
     0
102
RTVSPost2010Prop38
140
0.0
102
RTVSPost2010PropOp38
 70
     0
102
RTVSPost2010Prop39
140
1.0
102
RTVSPost2010PropOp39
 70
     0
102
RTVSPost2010Prop40
 90
        0
102
RTVSPost2010PropOp40
 70
     0
102
RTVSPost2010Prop41ColorIndex
 90
       18
102
RTVSPost2010Prop41ColorRGB
 90
        0
102
RTVSPost2010PropOp41
 70
     0
102
RTVSPost2010Prop42
 90
       50
102
RTVSPost2010PropOp42
 70
     0
102
RTVSPost2010Prop43
 90
        3
102
RTVSPost2010PropOp43
 70
     0
102
RTVSPost2010Prop44ColorIndex
 90
        5
102
RTVSPost2010Prop44ColorRGB
 90
      255
102
RTVSPost2010PropOp44
 70
     0
102
RTVSPost2010Prop45
280
     0
102
RTVSPost2010PropOp45
 70
     0
102
RTVSPost2010Prop46
 90
       50
102
RTVSPost2010PropOp46
 70
     0
102
RTVSPost2010Prop47
 90
       50
102
RTVSPost2010PropOp47
 70
     0
102
RTVSPost2010Prop48
 90
       50
102
RTVSPost2010PropOp48
 70
     0
102
RTVSPost2010Prop49
280
     0
102
RTVSPost2010PropOp49
 70
     0
102
RTVSPost2010Prop50
 90
       50
102
RTVSPost2010PropOp50
 70
     0
102
RTVSPost2010Prop51ColorIndex
 90
      256
102
RTVSPost2010Prop51ColorRGB
 90
-16777216
102
RTVSPost2010PropOp51
 70
     0
102
RTVSPost2010Prop52
140
1.0
102
RTVSPost2010PropOp52
 70
     0
102
RTVSPost2010Prop53
 90
        2
102
RTVSPost2010PropOp53
 70
     0
102
RTVSPost2010Prop54
  1
strokes_ogs.tif
102
RTVSPost2010PropOp54
 70
     0
102
RTVSPost2010Prop55
280
     0
102
RTVSPost2010PropOp55
 70
     0
102
RTVSPost2010Prop56
140
1.0
102
RTVSPost2010PropOp56
 70
     0
102
RTVSPost2010Prop57
140
1.0
102
RTVSPost2010PropOp57
 70
     0
  0
XRECORD
  5
32C
102
{ACAD_REACTORS
330
32B
102
}
330
32B
100
AcDbXrecord
280
     1
102
RTVSPost2010Prop28
280
     0
102
RTVSPost2010PropOp28
 70
     1
102
RTVSPost2010Prop29
280
     1
102
RTVSPost2010PropOp29
 70
     1
102
RTVSPost2010Prop30
280
     1
102
RTVSPost2010PropOp30
 70
     1
102
RTVSPost2010Prop31
280
     0
102
RTVSPost2010PropOp31
 70
     1
102
RTVSPost2010Prop32
280
     0
102
RTVSPost2010PropOp32
 70
     1
102
RTVSPost2010Prop33
280
     0
102
RTVSPost2010PropOp33
 70
     1
102
RTVSPost2010Prop34
280
     0
102
RTVSPost2010PropOp34
 70
     1
102
RTVSPost2010Prop35
280
     0
102
RTVSPost2010PropOp35
 70
     1
102
RTVSPost2010Prop36
280
     0
102
RTVSPost2010PropOp36
 70
     1
102
RTVSPost2010Prop37
 90
       50
102
RTVSPost2010PropOp37
 70
     1
102
RTVSPost2010Prop38
140
0.0
102
RTVSPost2010PropOp38
 70
     1
102
RTVSPost2010Prop39
140
1.0
102
RTVSPost2010PropOp39
 70
     1
102
RTVSPost2010Prop40
 90
        0
102
RTVSPost2010PropOp40
 70
     1
102
RTVSPost2010Prop41ColorIndex
 90
       18
102
RTVSPost2010Prop41ColorRGB
 90
        0
102
RTVSPost2010PropOp41
 70
     1
102
RTVSPost2010Prop42
 90
       50
102
RTVSPost2010PropOp42
 70
     1
102
RTVSPost2010Prop43
 90
        3
102
RTVSPost2010PropOp43
 70
     1
102
RTVSPost2010Prop44ColorIndex
 90
        5
102
RTVSPost2010Prop44ColorRGB
 90
      255
102
RTVSPost2010PropOp44
 70
     1
102
RTVSPost2010Prop45
280
     0
102
RTVSPost2010PropOp45
 70
     1
102
RTVSPost2010Prop46
 90
       50
102
RTVSPost2010PropOp46
 70
     1
102
RTVSPost2010Prop47
 90
       50
102
RTVSPost2010PropOp47
 70
     1
102
RTVSPost2010Prop48
 90
       50
102
RTVSPost2010PropOp48
 70
     1
102
RTVSPost2010Prop49
280
     0
102
RTVSPost2010PropOp49
 70
     1
102
RTVSPost2010Prop50
 90
       50
102
RTVSPost2010PropOp50
 70
     1
102
RTVSPost2010Prop51ColorIndex
 90
      256
102
RTVSPost2010Prop51ColorRGB
 90
-16777216
102
RTVSPost2010PropOp51
 70
     0
102
RTVSPost2010Prop52
140
1.0
102
RTVSPost2010PropOp52
 70
     0
102
RTVSPost2010Prop53
 90
        2
102
RTVSPost2010PropOp53
 70
     1
102
RTVSPost2010Prop54
  1
strokes_ogs.tif
102
RTVSPost2010PropOp54
 70
     1
102
RTVSPost2010Prop55
280
     0
102
RTVSPost2010PropOp55
 70
     1
102
RTVSPost2010Prop56
140
1.0
102
RTVSPost2010PropOp56
 70
     1
102
RTVSPost2010Prop57
140
1.0
102
RTVSPost2010PropOp57
 70
     1
  0
XRECORD
  5
310
102
{ACAD_REACTORS
330
30F
102
}
330
30F
100
AcDbXrecord
280
     1
102
RTVSPost2010Prop28
280
     0
102
RTVSPost2010PropOp28
 70
     1
102
RTVSPost2010Prop29
280
     1
102
RTVSPost2010PropOp29
 70
     1
102
RTVSPost2010Prop30
280
     1
102
RTVSPost2010PropOp30
 70
     1
102
RTVSPost2010Prop31
280
     0
102
RTVSPost2010PropOp31
 70
     1
102
RTVSPost2010Prop32
280
     0
102
RTVSPost2010PropOp32
 70
     1
102
RTVSPost2010Prop33
280
     0
102
RTVSPost2010PropOp33
 70
     1
102
RTVSPost2010Prop34
280
     0
102
RTVSPost2010PropOp34
 70
     1
102
RTVSPost2010Prop35
280
     0
102
RTVSPost2010PropOp35
 70
     1
102
RTVSPost2010Prop36
280
     0
102
RTVSPost2010PropOp36
 70
     1
102
RTVSPost2010Prop37
 90
       50
102
RTVSPost2010PropOp37
 70
     1
102
RTVSPost2010Prop38
140
0.0
102
RTVSPost2010PropOp38
 70
     1
102
RTVSPost2010Prop39
140
1.0
102
RTVSPost2010PropOp39
 70
     1
102
RTVSPost2010Prop40
 90
        0
102
RTVSPost2010PropOp40
 70
     1
102
RTVSPost2010Prop41ColorIndex
 90
       18
102
RTVSPost2010Prop41ColorRGB
 90
        0
102
RTVSPost2010PropOp41
 70
     1
102
RTVSPost2010Prop42
 90
       50
102
RTVSPost2010PropOp42
 70
     1
102
RTVSPost2010Prop43
 90
        3
102
RTVSPost2010PropOp43
 70
     1
102
RTVSPost2010Prop44ColorIndex
 90
        5
102
RTVSPost2010Prop44ColorRGB
 90
      255
102
RTVSPost2010PropOp44
 70
     1
102
RTVSPost2010Prop45
280
     0
102
RTVSPost2010PropOp45
 70
     1
102
RTVSPost2010Prop46
 90
       50
102
RTVSPost2010PropOp46
 70
     1
102
RTVSPost2010Prop47
 90
       50
102
RTVSPost2010PropOp47
 70
     1
102
RTVSPost2010Prop48
 90
       50
102
RTVSPost2010PropOp48
 70
     1
102
RTVSPost2010Prop49
280
     0
102
RTVSPost2010PropOp49
 70
     1
102
RTVSPost2010Prop50
 90
       50
102
RTVSPost2010PropOp50
 70
     1
102
RTVSPost2010Prop51ColorIndex
 90
      256
102
RTVSPost2010Prop51ColorRGB
 90
-16777216
102
RTVSPost2010PropOp51
 70
     0
102
RTVSPost2010Prop52
140
1.0
102
RTVSPost2010PropOp52
 70
     0
102
RTVSPost2010Prop53
 90
        2
102
RTVSPost2010PropOp53
 70
     1
102
RTVSPost2010Prop54
  1
strokes_ogs.tif
102
RTVSPost2010PropOp54
 70
     1
102
RTVSPost2010Prop55
280
     0
102
RTVSPost2010PropOp55
 70
     1
102
RTVSPost2010Prop56
140
1.0
102
RTVSPost2010PropOp56
 70
     1
102
RTVSPost2010Prop57
140
1.0
102
RTVSPost2010PropOp57
 70
     1
  0
XRECORD
  5
312
102
{ACAD_REACTORS
330
311
102
}
330
311
100
AcDbXrecord
280
     1
102
RTVSPost2010Prop28
280
     0
102
RTVSPost2010PropOp28
 70
     1
102
RTVSPost2010Prop29
280
     1
102
RTVSPost2010PropOp29
 70
     1
102
RTVSPost2010Prop30
280
     1
102
RTVSPost2010PropOp30
 70
     1
102
RTVSPost2010Prop31
280
     0
102
RTVSPost2010PropOp31
 70
     1
102
RTVSPost2010Prop32
280
     0
102
RTVSPost2010PropOp32
 70
     1
102
RTVSPost2010Prop33
280
     0
102
RTVSPost2010PropOp33
 70
     1
102
RTVSPost2010Prop34
280
     0
102
RTVSPost2010PropOp34
 70
     1
102
RTVSPost2010Prop35
280
     0
102
RTVSPost2010PropOp35
 70
     1
102
RTVSPost2010Prop36
280
     0
102
RTVSPost2010PropOp36
 70
     1
102
RTVSPost2010Prop37
 90
       50
102
RTVSPost2010PropOp37
 70
     1
102
RTVSPost2010Prop38
140
0.0
102
RTVSPost2010PropOp38
 70
     1
102
RTVSPost2010Prop39
140
1.0
102
RTVSPost2010PropOp39
 70
     1
102
RTVSPost2010Prop40
 90
        0
102
RTVSPost2010PropOp40
 70
     1
102
RTVSPost2010Prop41ColorIndex
 90
       18
102
RTVSPost2010Prop41ColorRGB
 90
        0
102
RTVSPost2010PropOp41
 70
     1
102
RTVSPost2010Prop42
 90
       50
102
RTVSPost2010PropOp42
 70
     1
102
RTVSPost2010Prop43
 90
        3
102
RTVSPost2010PropOp43
 70
     1
102
RTVSPost2010Prop44ColorIndex
 90
        5
102
RTVSPost2010Prop44ColorRGB
 90
      255
102
RTVSPost2010PropOp44
 70
     1
102
RTVSPost2010Prop45
280
     0
102
RTVSPost2010PropOp45
 70
     1
102
RTVSPost2010Prop46
 90
       50
102
RTVSPost2010PropOp46
 70
     1
102
RTVSPost2010Prop47
 90
       50
102
RTVSPost2010PropOp47
 70
     1
102
RTVSPost2010Prop48
 90
       50
102
RTVSPost2010PropOp48
 70
     1
102
RTVSPost2010Prop49
280
     0
102
RTVSPost2010PropOp49
 70
     1
102
RTVSPost2010Prop50
 90
       50
102
RTVSPost2010PropOp50
 70
     1
102
RTVSPost2010Prop51ColorIndex
 90
      256
102
RTVSPost2010Prop51ColorRGB
 90
-16777216
102
RTVSPost2010PropOp51
 70
     0
102
RTVSPost2010Prop52
140
1.0
102
RTVSPost2010PropOp52
 70
     0
102
RTVSPost2010Prop53
 90
        2
102
RTVSPost2010PropOp53
 70
     1
102
RTVSPost2010Prop54
  1
strokes_ogs.tif
102
RTVSPost2010PropOp54
 70
     1
102
RTVSPost2010Prop55
280
     0
102
RTVSPost2010PropOp55
 70
     1
102
RTVSPost2010Prop56
140
1.0
102
RTVSPost2010PropOp56
 70
     1
102
RTVSPost2010Prop57
140
1.0
102
RTVSPost2010PropOp57
 70
     1
  0
XRECORD
  5
314
102
{ACAD_REACTORS
330
313
102
}
330
313
100
AcDbXrecord
280
     1
102
RTVSPost2010Prop28
280
     0
102
RTVSPost2010PropOp28
 70
     1
102
RTVSPost2010Prop29
280
     1
102
RTVSPost2010PropOp29
 70
     1
102
RTVSPost2010Prop30
280
     1
102
RTVSPost2010PropOp30
 70
     1
102
RTVSPost2010Prop31
280
     0
102
RTVSPost2010PropOp31
 70
     1
102
RTVSPost2010Prop32
280
     0
102
RTVSPost2010PropOp32
 70
     1
102
RTVSPost2010Prop33
280
     0
102
RTVSPost2010PropOp33
 70
     1
102
RTVSPost2010Prop34
280
     0
102
RTVSPost2010PropOp34
 70
     1
102
RTVSPost2010Prop35
280
     0
102
RTVSPost2010PropOp35
 70
     1
102
RTVSPost2010Prop36
280
     0
102
RTVSPost2010PropOp36
 70
     1
102
RTVSPost2010Prop37
 90
       50
102
RTVSPost2010PropOp37
 70
     1
102
RTVSPost2010Prop38
140
0.0
102
RTVSPost2010PropOp38
 70
     1
102
RTVSPost2010Prop39
140
1.0
102
RTVSPost2010PropOp39
 70
     1
102
RTVSPost2010Prop40
 90
        0
102
RTVSPost2010PropOp40
 70
     1
102
RTVSPost2010Prop41ColorIndex
 90
       18
102
RTVSPost2010Prop41ColorRGB
 90
        0
102
RTVSPost2010PropOp41
 70
     1
102
RTVSPost2010Prop42
 90
       50
102
RTVSPost2010PropOp42
 70
     1
102
RTVSPost2010Prop43
 90
        3
102
RTVSPost2010PropOp43
 70
     1
102
RTVSPost2010Prop44ColorIndex
 90
        5
102
RTVSPost2010Prop44ColorRGB
 90
      255
102
RTVSPost2010PropOp44
 70
     1
102
RTVSPost2010Prop45
280
     0
102
RTVSPost2010PropOp45
 70
     1
102
RTVSPost2010Prop46
 90
       50
102
RTVSPost2010PropOp46
 70
     1
102
RTVSPost2010Prop47
 90
       50
102
RTVSPost2010PropOp47
 70
     1
102
RTVSPost2010Prop48
 90
       50
102
RTVSPost2010PropOp48
 70
     1
102
RTVSPost2010Prop49
280
     0
102
RTVSPost2010PropOp49
 70
     1
102
RTVSPost2010Prop50
 90
       50
102
RTVSPost2010PropOp50
 70
     1
102
RTVSPost2010Prop51ColorIndex
 90
      256
102
RTVSPost2010Prop51ColorRGB
 90
-16777216
102
RTVSPost2010PropOp51
 70
     0
102
RTVSPost2010Prop52
140
1.0
102
RTVSPost2010PropOp52
 70
     0
102
RTVSPost2010Prop53
 90
        2
102
RTVSPost2010PropOp53
 70
     1
102
RTVSPost2010Prop54
  1
strokes_ogs.tif
102
RTVSPost2010PropOp54
 70
     1
102
RTVSPost2010Prop55
280
     0
102
RTVSPost2010PropOp55
 70
     1
102
RTVSPost2010Prop56
140
1.0
102
RTVSPost2010PropOp56
 70
     1
102
RTVSPost2010Prop57
140
1.0
102
RTVSPost2010PropOp57
 70
     1
  0
XRECORD
  5
316
102
{ACAD_REACTORS
330
315
102
}
330
315
100
AcDbXrecord
280
     1
102
RTVSPost2010Prop28
280
     0
102
RTVSPost2010PropOp28
 70
     1
102
RTVSPost2010Prop29
280
     1
102
RTVSPost2010PropOp29
 70
     1
102
RTVSPost2010Prop30
280
     1
102
RTVSPost2010PropOp30
 70
     1
102
RTVSPost2010Prop31
280
     0
102
RTVSPost2010PropOp31
 70
     1
102
RTVSPost2010Prop32
280
     0
102
RTVSPost2010PropOp32
 70
     1
102
RTVSPost2010Prop33
280
     0
102
RTVSPost2010PropOp33
 70
     1
102
RTVSPost2010Prop34
280
     0
102
RTVSPost2010PropOp34
 70
     1
102
RTVSPost2010Prop35
280
     0
102
RTVSPost2010PropOp35
 70
     1
102
RTVSPost2010Prop36
280
     0
102
RTVSPost2010PropOp36
 70
     1
102
RTVSPost2010Prop37
 90
       50
102
RTVSPost2010PropOp37
 70
     1
102
RTVSPost2010Prop38
140
0.0
102
RTVSPost2010PropOp38
 70
     1
102
RTVSPost2010Prop39
140
1.0
102
RTVSPost2010PropOp39
 70
     1
102
RTVSPost2010Prop40
 90
        0
102
RTVSPost2010PropOp40
 70
     1
102
RTVSPost2010Prop41ColorIndex
 90
       18
102
RTVSPost2010Prop41ColorRGB
 90
        0
102
RTVSPost2010PropOp41
 70
     1
102
RTVSPost2010Prop42
 90
       50
102
RTVSPost2010PropOp42
 70
     1
102
RTVSPost2010Prop43
 90
        3
102
RTVSPost2010PropOp43
 70
     1
102
RTVSPost2010Prop44ColorIndex
 90
        5
102
RTVSPost2010Prop44ColorRGB
 90
      255
102
RTVSPost2010PropOp44
 70
     1
102
RTVSPost2010Prop45
280
     0
102
RTVSPost2010PropOp45
 70
     1
102
RTVSPost2010Prop46
 90
       50
102
RTVSPost2010PropOp46
 70
     1
102
RTVSPost2010Prop47
 90
       50
102
RTVSPost2010PropOp47
 70
     1
102
RTVSPost2010Prop48
 90
       50
102
RTVSPost2010PropOp48
 70
     1
102
RTVSPost2010Prop49
280
     0
102
RTVSPost2010PropOp49
 70
     1
102
RTVSPost2010Prop50
 90
       50
102
RTVSPost2010PropOp50
 70
     1
102
RTVSPost2010Prop51ColorIndex
 90
      256
102
RTVSPost2010Prop51ColorRGB
 90
-16777216
102
RTVSPost2010PropOp51
 70
     0
102
RTVSPost2010Prop52
140
1.0
102
RTVSPost2010PropOp52
 70
     0
102
RTVSPost2010Prop53
 90
        2
102
RTVSPost2010PropOp53
 70
     1
102
RTVSPost2010Prop54
  1
strokes_ogs.tif
102
RTVSPost2010PropOp54
 70
     1
102
RTVSPost2010Prop55
280
     0
102
RTVSPost2010PropOp55
 70
     1
102
RTVSPost2010Prop56
140
1.0
102
RTVSPost2010PropOp56
 70
     1
102
RTVSPost2010Prop57
140
1.0
102
RTVSPost2010PropOp57
 70
     1
  0
XRECORD
  5
31C
102
{ACAD_REACTORS
330
31B
102
}
330
31B
100
AcDbXrecord
280
     1
102
RTVSPost2010Prop28
280
     0
102
RTVSPost2010PropOp28
 70
     1
102
RTVSPost2010Prop29
280
     1
102
RTVSPost2010PropOp29
 70
     1
102
RTVSPost2010Prop30
280
     1
102
RTVSPost2010PropOp30
 70
     1
102
RTVSPost2010Prop31
280
     0
102
RTVSPost2010PropOp31
 70
     1
102
RTVSPost2010Prop32
280
     0
102
RTVSPost2010PropOp32
 70
     1
102
RTVSPost2010Prop33
280
     0
102
RTVSPost2010PropOp33
 70
     1
102
RTVSPost2010Prop34
280
     0
102
RTVSPost2010PropOp34
 70
     1
102
RTVSPost2010Prop35
280
     0
102
RTVSPost2010PropOp35
 70
     1
102
RTVSPost2010Prop36
280
     0
102
RTVSPost2010PropOp36
 70
     1
102
RTVSPost2010Prop37
 90
       50
102
RTVSPost2010PropOp37
 70
     1
102
RTVSPost2010Prop38
140
0.0
102
RTVSPost2010PropOp38
 70
     1
102
RTVSPost2010Prop39
140
1.0
102
RTVSPost2010PropOp39
 70
     1
102
RTVSPost2010Prop40
 90
        0
102
RTVSPost2010PropOp40
 70
     1
102
RTVSPost2010Prop41ColorIndex
 90
       18
102
RTVSPost2010Prop41ColorRGB
 90
        0
102
RTVSPost2010PropOp41
 70
     1
102
RTVSPost2010Prop42
 90
       50
102
RTVSPost2010PropOp42
 70
     1
102
RTVSPost2010Prop43
 90
        3
102
RTVSPost2010PropOp43
 70
     1
102
RTVSPost2010Prop44ColorIndex
 90
        5
102
RTVSPost2010Prop44ColorRGB
 90
      255
102
RTVSPost2010PropOp44
 70
     1
102
RTVSPost2010Prop45
280
     0
102
RTVSPost2010PropOp45
 70
     1
102
RTVSPost2010Prop46
 90
       50
102
RTVSPost2010PropOp46
 70
     1
102
RTVSPost2010Prop47
 90
       50
102
RTVSPost2010PropOp47
 70
     1
102
RTVSPost2010Prop48
 90
       50
102
RTVSPost2010PropOp48
 70
     1
102
RTVSPost2010Prop49
280
     0
102
RTVSPost2010PropOp49
 70
     1
102
RTVSPost2010Prop50
 90
       50
102
RTVSPost2010PropOp50
 70
     1
102
RTVSPost2010Prop51ColorIndex
 90
      256
102
RTVSPost2010Prop51ColorRGB
 90
-16777216
102
RTVSPost2010PropOp51
 70
     0
102
RTVSPost2010Prop52
140
1.0
102
RTVSPost2010PropOp52
 70
     0
102
RTVSPost2010Prop53
 90
        2
102
RTVSPost2010PropOp53
 70
     1
102
RTVSPost2010Prop54
  1
strokes_ogs.tif
102
RTVSPost2010PropOp54
 70
     1
102
RTVSPost2010Prop55
280
     0
102
RTVSPost2010PropOp55
 70
     1
102
RTVSPost2010Prop56
140
1.0
102
RTVSPost2010PropOp56
 70
     1
102
RTVSPost2010Prop57
140
1.0
102
RTVSPost2010PropOp57
 70
     1
  0
XRECORD
  5
330
102
{ACAD_REACTORS
330
32F
102
}
330
32F
100
AcDbXrecord
280
     1
102
RTVSPost2010Prop28
280
     0
102
RTVSPost2010PropOp28
 70
     0
102
RTVSPost2010Prop29
280
     1
102
RTVSPost2010PropOp29
 70
     0
102
RTVSPost2010Prop30
280
     1
102
RTVSPost2010PropOp30
 70
     0
102
RTVSPost2010Prop31
280
     0
102
RTVSPost2010PropOp31
 70
     0
102
RTVSPost2010Prop32
280
     0
102
RTVSPost2010PropOp32
 70
     0
102
RTVSPost2010Prop33
280
     0
102
RTVSPost2010PropOp33
 70
     0
102
RTVSPost2010Prop34
280
     0
102
RTVSPost2010PropOp34
 70
     0
102
RTVSPost2010Prop35
280
     0
102
RTVSPost2010PropOp35
 70
     0
102
RTVSPost2010Prop36
280
     0
102
RTVSPost2010PropOp36
 70
     0
102
RTVSPost2010Prop37
 90
       50
102
RTVSPost2010PropOp37
 70
     0
102
RTVSPost2010Prop38
140
0.0
102
RTVSPost2010PropOp38
 70
     0
102
RTVSPost2010Prop39
140
1.0
102
RTVSPost2010PropOp39
 70
     0
102
RTVSPost2010Prop40
 90
        0
102
RTVSPost2010PropOp40
 70
     0
102
RTVSPost2010Prop41ColorIndex
 90
       18
102
RTVSPost2010Prop41ColorRGB
 90
        0
102
RTVSPost2010PropOp41
 70
     0
102
RTVSPost2010Prop42
 90
       50
102
RTVSPost2010PropOp42
 70
     0
102
RTVSPost2010Prop43
 90
        3
102
RTVSPost2010PropOp43
 70
     0
102
RTVSPost2010Prop44ColorIndex
 90
        5
102
RTVSPost2010Prop44ColorRGB
 90
      255
102
RTVSPost2010PropOp44
 70
     0
102
RTVSPost2010Prop45
280
     0
102
RTVSPost2010PropOp45
 70
     0
102
RTVSPost2010Prop46
 90
       50
102
RTVSPost2010PropOp46
 70
     0
102
RTVSPost2010Prop47
 90
       50
102
RTVSPost2010PropOp47
 70
     0
102
RTVSPost2010Prop48
 90
       50
102
RTVSPost2010PropOp48
 70
     0
102
RTVSPost2010Prop49
280
     0
102
RTVSPost2010PropOp49
 70
     0
102
RTVSPost2010Prop50
 90
       50
102
RTVSPost2010PropOp50
 70
     0
102
RTVSPost2010Prop51ColorIndex
 90
      256
102
RTVSPost2010Prop51ColorRGB
 90
-16777216
102
RTVSPost2010PropOp51
 70
     0
102
RTVSPost2010Prop52
140
1.0
102
RTVSPost2010PropOp52
 70
     0
102
RTVSPost2010Prop53
 90
        2
102
RTVSPost2010PropOp53
 70
     0
102
RTVSPost2010Prop54
  1
strokes_ogs.tif
102
RTVSPost2010PropOp54
 70
     0
102
RTVSPost2010Prop55
280
     0
102
RTVSPost2010PropOp55
 70
     0
102
RTVSPost2010Prop56
140
1.0
102
RTVSPost2010PropOp56
 70
     0
102
RTVSPost2010Prop57
140
1.0
102
RTVSPost2010PropOp57
 70
     0
  0
XRECORD
  5
32A
102
{ACAD_REACTORS
330
329
102
}
330
329
100
AcDbXrecord
280
     1
102
RTVSPost2010Prop28
280
     0
102
RTVSPost2010PropOp28
 70
     1
102
RTVSPost2010Prop29
280
     1
102
RTVSPost2010PropOp29
 70
     1
102
RTVSPost2010Prop30
280
     1
102
RTVSPost2010PropOp30
 70
     1
102
RTVSPost2010Prop31
280
     0
102
RTVSPost2010PropOp31
 70
     1
102
RTVSPost2010Prop32
280
     0
102
RTVSPost2010PropOp32
 70
     1
102
RTVSPost2010Prop33
280
     0
102
RTVSPost2010PropOp33
 70
     1
102
RTVSPost2010Prop34
280
     0
102
RTVSPost2010PropOp34
 70
     1
102
RTVSPost2010Prop35
280
     0
102
RTVSPost2010PropOp35
 70
     1
102
RTVSPost2010Prop36
280
     0
102
RTVSPost2010PropOp36
 70
     1
102
RTVSPost2010Prop37
 90
       50
102
RTVSPost2010PropOp37
 70
     1
102
RTVSPost2010Prop38
140
0.0
102
RTVSPost2010PropOp38
 70
     1
102
RTVSPost2010Prop39
140
1.0
102
RTVSPost2010PropOp39
 70
     1
102
RTVSPost2010Prop40
 90
        0
102
RTVSPost2010PropOp40
 70
     1
102
RTVSPost2010Prop41ColorIndex
 90
       18
102
RTVSPost2010Prop41ColorRGB
 90
        0
102
RTVSPost2010PropOp41
 70
     1
102
RTVSPost2010Prop42
 90
       50
102
RTVSPost2010PropOp42
 70
     1
102
RTVSPost2010Prop43
 90
        3
102
RTVSPost2010PropOp43
 70
     1
102
RTVSPost2010Prop44ColorIndex
 90
        5
102
RTVSPost2010Prop44ColorRGB
 90
      255
102
RTVSPost2010PropOp44
 70
     1
102
RTVSPost2010Prop45
280
     0
102
RTVSPost2010PropOp45
 70
     1
102
RTVSPost2010Prop46
 90
       50
102
RTVSPost2010PropOp46
 70
     1
102
RTVSPost2010Prop47
 90
       50
102
RTVSPost2010PropOp47
 70
     1
102
RTVSPost2010Prop48
 90
       50
102
RTVSPost2010PropOp48
 70
     1
102
RTVSPost2010Prop49
280
     0
102
RTVSPost2010PropOp49
 70
     1
102
RTVSPost2010Prop50
 90
       50
102
RTVSPost2010PropOp50
 70
     1
102
RTVSPost2010Prop51ColorIndex
 90
      256
102
RTVSPost2010Prop51ColorRGB
 90
-16777216
102
RTVSPost2010PropOp51
 70
     0
102
RTVSPost2010Prop52
140
1.0
102
RTVSPost2010PropOp52
 70
     0
102
RTVSPost2010Prop53
 90
        2
102
RTVSPost2010PropOp53
 70
     1
102
RTVSPost2010Prop54
  1
strokes_ogs.tif
102
RTVSPost2010PropOp54
 70
     1
102
RTVSPost2010Prop55
280
     0
102
RTVSPost2010PropOp55
 70
     1
102
RTVSPost2010Prop56
140
1.0
102
RTVSPost2010PropOp56
 70
     1
102
RTVSPost2010Prop57
140
1.0
102
RTVSPost2010PropOp57
 70
     1
  0
XRECORD
  5
332
102
{ACAD_REACTORS
330
331
102
}
330
331
100
AcDbXrecord
280
     1
102
RTVSPost2010Prop28
280
     0
102
RTVSPost2010PropOp28
 70
     0
102
RTVSPost2010Prop29
280
     1
102
RTVSPost2010PropOp29
 70
     0
102
RTVSPost2010Prop30
280
     1
102
RTVSPost2010PropOp30
 70
     0
102
RTVSPost2010Prop31
280
     0
102
RTVSPost2010PropOp31
 70
     0
102
RTVSPost2010Prop32
280
     0
102
RTVSPost2010PropOp32
 70
     0
102
RTVSPost2010Prop33
280
     0
102
RTVSPost2010PropOp33
 70
     0
102
RTVSPost2010Prop34
280
     0
102
RTVSPost2010PropOp34
 70
     0
102
RTVSPost2010Prop35
280
     0
102
RTVSPost2010PropOp35
 70
     0
102
RTVSPost2010Prop36
280
     0
102
RTVSPost2010PropOp36
 70
     0
102
RTVSPost2010Prop37
 90
       50
102
RTVSPost2010PropOp37
 70
     0
102
RTVSPost2010Prop38
140
0.0
102
RTVSPost2010PropOp38
 70
     0
102
RTVSPost2010Prop39
140
1.0
102
RTVSPost2010PropOp39
 70
     0
102
RTVSPost2010Prop40
 90
        0
102
RTVSPost2010PropOp40
 70
     0
102
RTVSPost2010Prop41ColorIndex
 90
       18
102
RTVSPost2010Prop41ColorRGB
 90
        0
102
RTVSPost2010PropOp41
 70
     0
102
RTVSPost2010Prop42
 90
       50
102
RTVSPost2010PropOp42
 70
     0
102
RTVSPost2010Prop43
 90
        3
102
RTVSPost2010PropOp43
 70
     0
102
RTVSPost2010Prop44ColorIndex
 90
        5
102
RTVSPost2010Prop44ColorRGB
 90
      255
102
RTVSPost2010PropOp44
 70
     0
102
RTVSPost2010Prop45
280
     0
102
RTVSPost2010PropOp45
 70
     0
102
RTVSPost2010Prop46
 90
       50
102
RTVSPost2010PropOp46
 70
     0
102
RTVSPost2010Prop47
 90
       50
102
RTVSPost2010PropOp47
 70
     0
102
RTVSPost2010Prop48
 90
       50
102
RTVSPost2010PropOp48
 70
     0
102
RTVSPost2010Prop49
280
     0
102
RTVSPost2010PropOp49
 70
     0
102
RTVSPost2010Prop50
 90
       50
102
RTVSPost2010PropOp50
 70
     0
102
RTVSPost2010Prop51ColorIndex
 90
      256
102
RTVSPost2010Prop51ColorRGB
 90
-16777216
102
RTVSPost2010PropOp51
 70
     0
102
RTVSPost2010Prop52
140
1.0
102
RTVSPost2010PropOp52
 70
     0
102
RTVSPost2010Prop53
 90
        2
102
RTVSPost2010PropOp53
 70
     0
102
RTVSPost2010Prop54
  1
strokes_ogs.tif
102
RTVSPost2010PropOp54
 70
     0
102
RTVSPost2010Prop55
280
     0
102
RTVSPost2010PropOp55
 70
     0
102
RTVSPost2010Prop56
140
1.0
102
RTVSPost2010PropOp56
 70
     0
102
RTVSPost2010Prop57
140
1.0
102
RTVSPost2010PropOp57
 70
     0
  0
XRECORD
  5
320
102
{ACAD_REACTORS
330
31F
102
}
330
31F
100
AcDbXrecord
280
     1
102
RTVSPost2010Prop28
280
     0
102
RTVSPost2010PropOp28
 70
     1
102
RTVSPost2010Prop29
280
     1
102
RTVSPost2010PropOp29
 70
     1
102
RTVSPost2010Prop30
280
     1
102
RTVSPost2010PropOp30
 70
     1
102
RTVSPost2010Prop31
280
     0
102
RTVSPost2010PropOp31
 70
     1
102
RTVSPost2010Prop32
280
     0
102
RTVSPost2010PropOp32
 70
     1
102
RTVSPost2010Prop33
280
     0
102
RTVSPost2010PropOp33
 70
     1
102
RTVSPost2010Prop34
280
     0
102
RTVSPost2010PropOp34
 70
     1
102
RTVSPost2010Prop35
280
     0
102
RTVSPost2010PropOp35
 70
     1
102
RTVSPost2010Prop36
280
     0
102
RTVSPost2010PropOp36
 70
     1
102
RTVSPost2010Prop37
 90
       50
102
RTVSPost2010PropOp37
 70
     1
102
RTVSPost2010Prop38
140
0.0
102
RTVSPost2010PropOp38
 70
     1
102
RTVSPost2010Prop39
140
1.0
102
RTVSPost2010PropOp39
 70
     1
102
RTVSPost2010Prop40
 90
        0
102
RTVSPost2010PropOp40
 70
     1
102
RTVSPost2010Prop41ColorIndex
 90
       18
102
RTVSPost2010Prop41ColorRGB
 90
        0
102
RTVSPost2010PropOp41
 70
     1
102
RTVSPost2010Prop42
 90
       50
102
RTVSPost2010PropOp42
 70
     1
102
RTVSPost2010Prop43
 90
        3
102
RTVSPost2010PropOp43
 70
     1
102
RTVSPost2010Prop44ColorIndex
 90
        5
102
RTVSPost2010Prop44ColorRGB
 90
      255
102
RTVSPost2010PropOp44
 70
     1
102
RTVSPost2010Prop45
280
     0
102
RTVSPost2010PropOp45
 70
     1
102
RTVSPost2010Prop46
 90
       50
102
RTVSPost2010PropOp46
 70
     1
102
RTVSPost2010Prop47
 90
       50
102
RTVSPost2010PropOp47
 70
     1
102
RTVSPost2010Prop48
 90
       50
102
RTVSPost2010PropOp48
 70
     1
102
RTVSPost2010Prop49
280
     0
102
RTVSPost2010PropOp49
 70
     1
102
RTVSPost2010Prop50
 90
       50
102
RTVSPost2010PropOp50
 70
     1
102
RTVSPost2010Prop51ColorIndex
 90
      256
102
RTVSPost2010Prop51ColorRGB
 90
-16777216
102
RTVSPost2010PropOp51
 70
     0
102
RTVSPost2010Prop52
140
1.0
102
RTVSPost2010PropOp52
 70
     0
102
RTVSPost2010Prop53
 90
        2
102
RTVSPost2010PropOp53
 70
     1
102
RTVSPost2010Prop54
  1
strokes_ogs.tif
102
RTVSPost2010PropOp54
 70
     1
102
RTVSPost2010Prop55
280
     0
102
RTVSPost2010PropOp55
 70
     1
102
RTVSPost2010Prop56
140
1.0
102
RTVSPost2010PropOp56
 70
     1
102
RTVSPost2010Prop57
140
1.0
102
RTVSPost2010PropOp57
 70
     1
  0
XRECORD
  5
33E
102
{ACAD_REACTORS
330
33D
102
}
330
33D
100
AcDbXrecord
280
     1
102
RTVSPost2010Prop28
280
     0
102
RTVSPost2010PropOp28
 70
     1
102
RTVSPost2010Prop29
280
     1
102
RTVSPost2010PropOp29
 70
     1
102
RTVSPost2010Prop30
280
     1
102
RTVSPost2010PropOp30
 70
     1
102
RTVSPost2010Prop31
280
     0
102
RTVSPost2010PropOp31
 70
     1
102
RTVSPost2010Prop32
280
     0
102
RTVSPost2010PropOp32
 70
     1
102
RTVSPost2010Prop33
280
     0
102
RTVSPost2010PropOp33
 70
     1
102
RTVSPost2010Prop34
280
     0
102
RTVSPost2010PropOp34
 70
     1
102
RTVSPost2010Prop35
280
     0
102
RTVSPost2010PropOp35
 70
     1
102
RTVSPost2010Prop36
280
     0
102
RTVSPost2010PropOp36
 70
     1
102
RTVSPost2010Prop37
 90
       50
102
RTVSPost2010PropOp37
 70
     1
102
RTVSPost2010Prop38
140
0.0
102
RTVSPost2010PropOp38
 70
     1
102
RTVSPost2010Prop39
140
1.0
102
RTVSPost2010PropOp39
 70
     1
102
RTVSPost2010Prop40
 90
        0
102
RTVSPost2010PropOp40
 70
     1
102
RTVSPost2010Prop41ColorIndex
 90
       18
102
RTVSPost2010Prop41ColorRGB
 90
        0
102
RTVSPost2010PropOp41
 70
     1
102
RTVSPost2010Prop42
 90
       50
102
RTVSPost2010PropOp42
 70
     1
102
RTVSPost2010Prop43
 90
        3
102
RTVSPost2010PropOp43
 70
     1
102
RTVSPost2010Prop44ColorIndex
 90
        5
102
RTVSPost2010Prop44ColorRGB
 90
      255
102
RTVSPost2010PropOp44
 70
     1
102
RTVSPost2010Prop45
280
     0
102
RTVSPost2010PropOp45
 70
     1
102
RTVSPost2010Prop46
 90
       50
102
RTVSPost2010PropOp46
 70
     1
102
RTVSPost2010Prop47
 90
       50
102
RTVSPost2010PropOp47
 70
     1
102
RTVSPost2010Prop48
 90
       50
102
RTVSPost2010PropOp48
 70
     1
102
RTVSPost2010Prop49
280
     0
102
RTVSPost2010PropOp49
 70
     1
102
RTVSPost2010Prop50
 90
       50
102
RTVSPost2010PropOp50
 70
     1
102
RTVSPost2010Prop51ColorIndex
 90
      256
102
RTVSPost2010Prop51ColorRGB
 90
-16777216
102
RTVSPost2010PropOp51
 70
     0
102
RTVSPost2010Prop52
140
1.0
102
RTVSPost2010PropOp52
 70
     0
102
RTVSPost2010Prop53
 90
        2
102
RTVSPost2010PropOp53
 70
     1
102
RTVSPost2010Prop54
  1
strokes_ogs.tif
102
RTVSPost2010PropOp54
 70
     1
102
RTVSPost2010Prop55
280
     0
102
RTVSPost2010PropOp55
 70
     1
102
RTVSPost2010Prop56
140
1.0
102
RTVSPost2010PropOp56
 70
     1
102
RTVSPost2010Prop57
140
1.0
102
RTVSPost2010PropOp57
 70
     1
  0
XRECORD
  5
33C
102
{ACAD_REACTORS
330
33B
102
}
330
33B
100
AcDbXrecord
280
     1
102
RTVSPost2010Prop28
280
     0
102
RTVSPost2010PropOp28
 70
     1
102
RTVSPost2010Prop29
280
     1
102
RTVSPost2010PropOp29
 70
     1
102
RTVSPost2010Prop30
280
     1
102
RTVSPost2010PropOp30
 70
     1
102
RTVSPost2010Prop31
280
     0
102
RTVSPost2010PropOp31
 70
     1
102
RTVSPost2010Prop32
280
     0
102
RTVSPost2010PropOp32
 70
     1
102
RTVSPost2010Prop33
280
     0
102
RTVSPost2010PropOp33
 70
     1
102
RTVSPost2010Prop34
280
     0
102
RTVSPost2010PropOp34
 70
     1
102
RTVSPost2010Prop35
280
     0
102
RTVSPost2010PropOp35
 70
     1
102
RTVSPost2010Prop36
280
     0
102
RTVSPost2010PropOp36
 70
     1
102
RTVSPost2010Prop37
 90
       50
102
RTVSPost2010PropOp37
 70
     1
102
RTVSPost2010Prop38
140
0.0
102
RTVSPost2010PropOp38
 70
     1
102
RTVSPost2010Prop39
140
1.0
102
RTVSPost2010PropOp39
 70
     1
102
RTVSPost2010Prop40
 90
        0
102
RTVSPost2010PropOp40
 70
     1
102
RTVSPost2010Prop41ColorIndex
 90
       18
102
RTVSPost2010Prop41ColorRGB
 90
        0
102
RTVSPost2010PropOp41
 70
     1
102
RTVSPost2010Prop42
 90
       50
102
RTVSPost2010PropOp42
 70
     1
102
RTVSPost2010Prop43
 90
        3
102
RTVSPost2010PropOp43
 70
     1
102
RTVSPost2010Prop44ColorIndex
 90
        5
102
RTVSPost2010Prop44ColorRGB
 90
      255
102
RTVSPost2010PropOp44
 70
     1
102
RTVSPost2010Prop45
280
     0
102
RTVSPost2010PropOp45
 70
     1
102
RTVSPost2010Prop46
 90
       50
102
RTVSPost2010PropOp46
 70
     1
102
RTVSPost2010Prop47
 90
       50
102
RTVSPost2010PropOp47
 70
     1
102
RTVSPost2010Prop48
 90
       50
102
RTVSPost2010PropOp48
 70
     1
102
RTVSPost2010Prop49
280
     0
102
RTVSPost2010PropOp49
 70
     1
102
RTVSPost2010Prop50
 90
       50
102
RTVSPost2010PropOp50
 70
     1
102
RTVSPost2010Prop51ColorIndex
 90
      256
102
RTVSPost2010Prop51ColorRGB
 90
-16777216
102
RTVSPost2010PropOp51
 70
     0
102
RTVSPost2010Prop52
140
1.0
102
RTVSPost2010PropOp52
 70
     0
102
RTVSPost2010Prop53
 90
        2
102
RTVSPost2010PropOp53
 70
     1
102
RTVSPost2010Prop54
  1
strokes_ogs.tif
102
RTVSPost2010PropOp54
 70
     1
102
RTVSPost2010Prop55
280
     0
102
RTVSPost2010PropOp55
 70
     1
102
RTVSPost2010Prop56
140
1.0
102
RTVSPost2010PropOp56
 70
     1
102
RTVSPost2010Prop57
140
1.0
102
RTVSPost2010PropOp57
 70
     1
  0
XRECORD
  5
336
102
{ACAD_REACTORS
330
335
102
}
330
335
100
AcDbXrecord
280
     1
102
RTVSPost2010Prop28
280
     0
102
RTVSPost2010PropOp28
 70
     1
102
RTVSPost2010Prop29
280
     1
102
RTVSPost2010PropOp29
 70
     1
102
RTVSPost2010Prop30
280
     1
102
RTVSPost2010PropOp30
 70
     1
102
RTVSPost2010Prop31
280
     0
102
RTVSPost2010PropOp31
 70
     1
102
RTVSPost2010Prop32
280
     0
102
RTVSPost2010PropOp32
 70
     1
102
RTVSPost2010Prop33
280
     0
102
RTVSPost2010PropOp33
 70
     1
102
RTVSPost2010Prop34
280
     0
102
RTVSPost2010PropOp34
 70
     1
102
RTVSPost2010Prop35
280
     0
102
RTVSPost2010PropOp35
 70
     1
102
RTVSPost2010Prop36
280
     0
102
RTVSPost2010PropOp36
 70
     1
102
RTVSPost2010Prop37
 90
       50
102
RTVSPost2010PropOp37
 70
     1
102
RTVSPost2010Prop38
140
0.0
102
RTVSPost2010PropOp38
 70
     1
102
RTVSPost2010Prop39
140
1.0
102
RTVSPost2010PropOp39
 70
     1
102
RTVSPost2010Prop40
 90
        0
102
RTVSPost2010PropOp40
 70
     1
102
RTVSPost2010Prop41ColorIndex
 90
       18
102
RTVSPost2010Prop41ColorRGB
 90
        0
102
RTVSPost2010PropOp41
 70
     1
102
RTVSPost2010Prop42
 90
       50
102
RTVSPost2010PropOp42
 70
     1
102
RTVSPost2010Prop43
 90
        3
102
RTVSPost2010PropOp43
 70
     1
102
RTVSPost2010Prop44ColorIndex
 90
        5
102
RTVSPost2010Prop44ColorRGB
 90
      255
102
RTVSPost2010PropOp44
 70
     1
102
RTVSPost2010Prop45
280
     0
102
RTVSPost2010PropOp45
 70
     1
102
RTVSPost2010Prop46
 90
       50
102
RTVSPost2010PropOp46
 70
     1
102
RTVSPost2010Prop47
 90
       50
102
RTVSPost2010PropOp47
 70
     1
102
RTVSPost2010Prop48
 90
       50
102
RTVSPost2010PropOp48
 70
     1
102
RTVSPost2010Prop49
280
     0
102
RTVSPost2010PropOp49
 70
     1
102
RTVSPost2010Prop50
 90
       50
102
RTVSPost2010PropOp50
 70
     1
102
RTVSPost2010Prop51ColorIndex
 90
      256
102
RTVSPost2010Prop51ColorRGB
 90
-16777216
102
RTVSPost2010PropOp51
 70
     0
102
RTVSPost2010Prop52
140
1.0
102
RTVSPost2010PropOp52
 70
     0
102
RTVSPost2010Prop53
 90
        2
102
RTVSPost2010PropOp53
 70
     1
102
RTVSPost2010Prop54
  1
strokes_ogs.tif
102
RTVSPost2010PropOp54
 70
     1
102
RTVSPost2010Prop55
280
     0
102
RTVSPost2010PropOp55
 70
     1
102
RTVSPost2010Prop56
140
1.0
102
RTVSPost2010PropOp56
 70
     1
102
RTVSPost2010Prop57
140
1.0
102
RTVSPost2010PropOp57
 70
     1
  0
XRECORD
  5
338
102
{ACAD_REACTORS
330
337
102
}
330
337
100
AcDbXrecord
280
     1
102
RTVSPost2010Prop28
280
     0
102
RTVSPost2010PropOp28
 70
     1
102
RTVSPost2010Prop29
280
     1
102
RTVSPost2010PropOp29
 70
     1
102
RTVSPost2010Prop30
280
     1
102
RTVSPost2010PropOp30
 70
     1
102
RTVSPost2010Prop31
280
     0
102
RTVSPost2010PropOp31
 70
     1
102
RTVSPost2010Prop32
280
     0
102
RTVSPost2010PropOp32
 70
     1
102
RTVSPost2010Prop33
280
     0
102
RTVSPost2010PropOp33
 70
     1
102
RTVSPost2010Prop34
280
     0
102
RTVSPost2010PropOp34
 70
     1
102
RTVSPost2010Prop35
280
     0
102
RTVSPost2010PropOp35
 70
     1
102
RTVSPost2010Prop36
280
     0
102
RTVSPost2010PropOp36
 70
     1
102
RTVSPost2010Prop37
 90
       50
102
RTVSPost2010PropOp37
 70
     1
102
RTVSPost2010Prop38
140
0.0
102
RTVSPost2010PropOp38
 70
     1
102
RTVSPost2010Prop39
140
1.0
102
RTVSPost2010PropOp39
 70
     1
102
RTVSPost2010Prop40
 90
        0
102
RTVSPost2010PropOp40
 70
     1
102
RTVSPost2010Prop41ColorIndex
 90
       18
102
RTVSPost2010Prop41ColorRGB
 90
        0
102
RTVSPost2010PropOp41
 70
     1
102
RTVSPost2010Prop42
 90
       50
102
RTVSPost2010PropOp42
 70
     1
102
RTVSPost2010Prop43
 90
        3
102
RTVSPost2010PropOp43
 70
     1
102
RTVSPost2010Prop44ColorIndex
 90
        5
102
RTVSPost2010Prop44ColorRGB
 90
      255
102
RTVSPost2010PropOp44
 70
     1
102
RTVSPost2010Prop45
280
     0
102
RTVSPost2010PropOp45
 70
     1
102
RTVSPost2010Prop46
 90
       50
102
RTVSPost2010PropOp46
 70
     1
102
RTVSPost2010Prop47
 90
       50
102
RTVSPost2010PropOp47
 70
     1
102
RTVSPost2010Prop48
 90
       50
102
RTVSPost2010PropOp48
 70
     1
102
RTVSPost2010Prop49
280
     0
102
RTVSPost2010PropOp49
 70
     1
102
RTVSPost2010Prop50
 90
       50
102
RTVSPost2010PropOp50
 70
     1
102
RTVSPost2010Prop51ColorIndex
 90
      256
102
RTVSPost2010Prop51ColorRGB
 90
-16777216
102
RTVSPost2010PropOp51
 70
     0
102
RTVSPost2010Prop52
140
1.0
102
RTVSPost2010PropOp52
 70
     0
102
RTVSPost2010Prop53
 90
        2
102
RTVSPost2010PropOp53
 70
     1
102
RTVSPost2010Prop54
  1
strokes_ogs.tif
102
RTVSPost2010PropOp54
 70
     1
102
RTVSPost2010Prop55
280
     0
102
RTVSPost2010PropOp55
 70
     1
102
RTVSPost2010Prop56
140
1.0
102
RTVSPost2010PropOp56
 70
     1
102
RTVSPost2010Prop57
140
1.0
102
RTVSPost2010PropOp57
 70
     1
  0
XRECORD
  5
328
102
{ACAD_REACTORS
330
327
102
}
330
327
100
AcDbXrecord
280
     1
102
RTVSPost2010Prop28
280
     0
102
RTVSPost2010PropOp28
 70
     1
102
RTVSPost2010Prop29
280
     1
102
RTVSPost2010PropOp29
 70
     1
102
RTVSPost2010Prop30
280
     1
102
RTVSPost2010PropOp30
 70
     1
102
RTVSPost2010Prop31
280
     0
102
RTVSPost2010PropOp31
 70
     1
102
RTVSPost2010Prop32
280
     0
102
RTVSPost2010PropOp32
 70
     1
102
RTVSPost2010Prop33
280
     0
102
RTVSPost2010PropOp33
 70
     1
102
RTVSPost2010Prop34
280
     0
102
RTVSPost2010PropOp34
 70
     1
102
RTVSPost2010Prop35
280
     0
102
RTVSPost2010PropOp35
 70
     1
102
RTVSPost2010Prop36
280
     0
102
RTVSPost2010PropOp36
 70
     1
102
RTVSPost2010Prop37
 90
       50
102
RTVSPost2010PropOp37
 70
     1
102
RTVSPost2010Prop38
140
0.0
102
RTVSPost2010PropOp38
 70
     1
102
RTVSPost2010Prop39
140
1.0
102
RTVSPost2010PropOp39
 70
     1
102
RTVSPost2010Prop40
 90
        0
102
RTVSPost2010PropOp40
 70
     1
102
RTVSPost2010Prop41ColorIndex
 90
       18
102
RTVSPost2010Prop41ColorRGB
 90
        0
102
RTVSPost2010PropOp41
 70
     1
102
RTVSPost2010Prop42
 90
       50
102
RTVSPost2010PropOp42
 70
     1
102
RTVSPost2010Prop43
 90
        3
102
RTVSPost2010PropOp43
 70
     1
102
RTVSPost2010Prop44ColorIndex
 90
        5
102
RTVSPost2010Prop44ColorRGB
 90
      255
102
RTVSPost2010PropOp44
 70
     1
102
RTVSPost2010Prop45
280
     0
102
RTVSPost2010PropOp45
 70
     1
102
RTVSPost2010Prop46
 90
       50
102
RTVSPost2010PropOp46
 70
     1
102
RTVSPost2010Prop47
 90
       50
102
RTVSPost2010PropOp47
 70
     1
102
RTVSPost2010Prop48
 90
       50
102
RTVSPost2010PropOp48
 70
     1
102
RTVSPost2010Prop49
280
     0
102
RTVSPost2010PropOp49
 70
     1
102
RTVSPost2010Prop50
 90
       50
102
RTVSPost2010PropOp50
 70
     1
102
RTVSPost2010Prop51ColorIndex
 90
      256
102
RTVSPost2010Prop51ColorRGB
 90
-16777216
102
RTVSPost2010PropOp51
 70
     0
102
RTVSPost2010Prop52
140
1.0
102
RTVSPost2010PropOp52
 70
     0
102
RTVSPost2010Prop53
 90
        2
102
RTVSPost2010PropOp53
 70
     1
102
RTVSPost2010Prop54
  1
strokes_ogs.tif
102
RTVSPost2010PropOp54
 70
     1
102
RTVSPost2010Prop55
280
     0
102
RTVSPost2010PropOp55
 70
     1
102
RTVSPost2010Prop56
140
1.0
102
RTVSPost2010PropOp56
 70
     1
102
RTVSPost2010Prop57
140
1.0
102
RTVSPost2010PropOp57
 70
     1
  0
XRECORD
  5
31A
102
{ACAD_REACTORS
330
319
102
}
330
319
100
AcDbXrecord
280
     1
102
RTVSPost2010Prop28
280
     0
102
RTVSPost2010PropOp28
 70
     1
102
RTVSPost2010Prop29
280
     1
102
RTVSPost2010PropOp29
 70
     1
102
RTVSPost2010Prop30
280
     1
102
RTVSPost2010PropOp30
 70
     1
102
RTVSPost2010Prop31
280
     0
102
RTVSPost2010PropOp31
 70
     1
102
RTVSPost2010Prop32
280
     0
102
RTVSPost2010PropOp32
 70
     1
102
RTVSPost2010Prop33
280
     0
102
RTVSPost2010PropOp33
 70
     1
102
RTVSPost2010Prop34
280
     0
102
RTVSPost2010PropOp34
 70
     1
102
RTVSPost2010Prop35
280
     0
102
RTVSPost2010PropOp35
 70
     1
102
RTVSPost2010Prop36
280
     0
102
RTVSPost2010PropOp36
 70
     1
102
RTVSPost2010Prop37
 90
       50
102
RTVSPost2010PropOp37
 70
     1
102
RTVSPost2010Prop38
140
0.0
102
RTVSPost2010PropOp38
 70
     1
102
RTVSPost2010Prop39
140
1.0
102
RTVSPost2010PropOp39
 70
     1
102
RTVSPost2010Prop40
 90
        0
102
RTVSPost2010PropOp40
 70
     1
102
RTVSPost2010Prop41ColorIndex
 90
       18
102
RTVSPost2010Prop41ColorRGB
 90
        0
102
RTVSPost2010PropOp41
 70
     1
102
RTVSPost2010Prop42
 90
       50
102
RTVSPost2010PropOp42
 70
     1
102
RTVSPost2010Prop43
 90
        3
102
RTVSPost2010PropOp43
 70
     1
102
RTVSPost2010Prop44ColorIndex
 90
        5
102
RTVSPost2010Prop44ColorRGB
 90
      255
102
RTVSPost2010PropOp44
 70
     1
102
RTVSPost2010Prop45
280
     0
102
RTVSPost2010PropOp45
 70
     1
102
RTVSPost2010Prop46
 90
       50
102
RTVSPost2010PropOp46
 70
     1
102
RTVSPost2010Prop47
 90
       50
102
RTVSPost2010PropOp47
 70
     1
102
RTVSPost2010Prop48
 90
       50
102
RTVSPost2010PropOp48
 70
     1
102
RTVSPost2010Prop49
280
     0
102
RTVSPost2010PropOp49
 70
     1
102
RTVSPost2010Prop50
 90
       50
102
RTVSPost2010PropOp50
 70
     1
102
RTVSPost2010Prop51ColorIndex
 90
      256
102
RTVSPost2010Prop51ColorRGB
 90
-16777216
102
RTVSPost2010PropOp51
 70
     0
102
RTVSPost2010Prop52
140
1.0
102
RTVSPost2010PropOp52
 70
     0
102
RTVSPost2010Prop53
 90
        2
102
RTVSPost2010PropOp53
 70
     1
102
RTVSPost2010Prop54
  1
strokes_ogs.tif
102
RTVSPost2010PropOp54
 70
     1
102
RTVSPost2010Prop55
280
     0
102
RTVSPost2010PropOp55
 70
     1
102
RTVSPost2010Prop56
140
1.0
102
RTVSPost2010PropOp56
 70
     1
102
RTVSPost2010Prop57
140
1.0
102
RTVSPost2010PropOp57
 70
     1
  0
XRECORD
  5
33A
102
{ACAD_REACTORS
330
339
102
}
330
339
100
AcDbXrecord
280
     1
102
RTVSPost2010Prop28
280
     0
102
RTVSPost2010PropOp28
 70
     1
102
RTVSPost2010Prop29
280
     1
102
RTVSPost2010PropOp29
 70
     1
102
RTVSPost2010Prop30
280
     1
102
RTVSPost2010PropOp30
 70
     1
102
RTVSPost2010Prop31
280
     0
102
RTVSPost2010PropOp31
 70
     1
102
RTVSPost2010Prop32
280
     0
102
RTVSPost2010PropOp32
 70
     1
102
RTVSPost2010Prop33
280
     0
102
RTVSPost2010PropOp33
 70
     1
102
RTVSPost2010Prop34
280
     0
102
RTVSPost2010PropOp34
 70
     1
102
RTVSPost2010Prop35
280
     0
102
RTVSPost2010PropOp35
 70
     1
102
RTVSPost2010Prop36
280
     0
102
RTVSPost2010PropOp36
 70
     1
102
RTVSPost2010Prop37
 90
       50
102
RTVSPost2010PropOp37
 70
     1
102
RTVSPost2010Prop38
140
0.0
102
RTVSPost2010PropOp38
 70
     1
102
RTVSPost2010Prop39
140
1.0
102
RTVSPost2010PropOp39
 70
     1
102
RTVSPost2010Prop40
 90
        0
102
RTVSPost2010PropOp40
 70
     1
102
RTVSPost2010Prop41ColorIndex
 90
       18
102
RTVSPost2010Prop41ColorRGB
 90
        0
102
RTVSPost2010PropOp41
 70
     1
102
RTVSPost2010Prop42
 90
       50
102
RTVSPost2010PropOp42
 70
     1
102
RTVSPost2010Prop43
 90
        3
102
RTVSPost2010PropOp43
 70
     1
102
RTVSPost2010Prop44ColorIndex
 90
        5
102
RTVSPost2010Prop44ColorRGB
 90
      255
102
RTVSPost2010PropOp44
 70
     1
102
RTVSPost2010Prop45
280
     0
102
RTVSPost2010PropOp45
 70
     1
102
RTVSPost2010Prop46
 90
       50
102
RTVSPost2010PropOp46
 70
     1
102
RTVSPost2010Prop47
 90
       50
102
RTVSPost2010PropOp47
 70
     1
102
RTVSPost2010Prop48
 90
       50
102
RTVSPost2010PropOp48
 70
     1
102
RTVSPost2010Prop49
280
     0
102
RTVSPost2010PropOp49
 70
     1
102
RTVSPost2010Prop50
 90
       50
102
RTVSPost2010PropOp50
 70
     1
102
RTVSPost2010Prop51ColorIndex
 90
      256
102
RTVSPost2010Prop51ColorRGB
 90
-16777216
102
RTVSPost2010PropOp51
 70
     0
102
RTVSPost2010Prop52
140
1.0
102
RTVSPost2010PropOp52
 70
     0
102
RTVSPost2010Prop53
 90
        2
102
RTVSPost2010PropOp53
 70
     1
102
RTVSPost2010Prop54
  1
strokes_ogs.tif
102
RTVSPost2010PropOp54
 70
     1
102
RTVSPost2010Prop55
280
     0
102
RTVSPost2010PropOp55
 70
     1
102
RTVSPost2010Prop56
140
1.0
102
RTVSPost2010PropOp56
 70
     1
102
RTVSPost2010Prop57
140
1.0
102
RTVSPost2010PropOp57
 70
     1
  0
ENDSEC
  0
EOF
