  0
SECTION
  2
HEADER
  9
$ACADVER
  1
AC1024
  9
$ACADMAINTVER
 70
     6
  9
$DWGCODEPAGE
  3
ANSI_1252
  9
$LASTSAVEDBY
  1
BirnerR
  9
$INSBASE
 10
0.0
 20
0.0
 30
0.0
  9
$EXTMIN
 10
11.880127
 20
-2.954021
 30
11.880127
  9
$EXTMAX
 10
12.930211
 20
-1.469036
 30
12.930211
  9
$LIMMIN
 10
11.880127
 20
-2.954021
  9
$LIMMAX
 10
12.930211
 20
-1.469036
  9
$ORTHOMODE
 70
     0
  9
$REGENMODE
 70
     1
  9
$FILLMODE
 70
     1
  9
$QTEXTMODE
 70
     0
  9
$MIRRTEXT
 70
     1
  9
$LTSCALE
 40
1.0
  9
$ATTMODE
 70
     1
  9
$TEXTSIZE
 40
0.2
  9
$TRACEWID
 40
0.05
  9
$TEXTSTYLE
  7
Standard
  9
$CLAYER
  8
0
  9
$CELTYPE
  6
ByLayer
  9
$CECOLOR
 62
   256
  9
$CELTSCALE
 40
1.0
  9
$DISPSILH
 70
     0
  9
$DIMSCALE
 40
1.0
  9
$DIMASZ
 40
0.18
  9
$DIMEXO
 40
0.0625
  9
$DIMDLI
 40
0.38
  9
$DIMRND
 40
0.0
  9
$DIMDLE
 40
0.0
  9
$DIMEXE
 40
0.18
  9
$DIMTP
 40
0.0
  9
$DIMTM
 40
0.0
  9
$DIMTXT
 40
0.18
  9
$DIMCEN
 40
0.09
  9
$DIMTSZ
 40
0.0
  9
$DIMTOL
 70
     0
  9
$DIMLIM
 70
     0
  9
$DIMTIH
 70
     1
  9
$DIMTOH
 70
     1
  9
$DIMSE1
 70
     0
  9
$DIMSE2
 70
     0
  9
$DIMTAD
 70
     0
  9
$DIMZIN
 70
     0
  9
$DIMBLK
  1

  9
$DIMASO
 70
     1
  9
$DIMSHO
 70
     1
  9
$DIMPOST
  1

  9
$DIMAPOST
  1

  9
$DIMALT
 70
     0
  9
$DIMALTD
 70
     2
  9
$DIMALTF
 40
25.4
  9
$DIMLFAC
 40
1.0
  9
$DIMTOFL
 70
     0
  9
$DIMTVP
 40
0.0
  9
$DIMTIX
 70
     0
  9
$DIMSOXD
 70
     0
  9
$DIMSAH
 70
     0
  9
$DIMBLK1
  1

  9
$DIMBLK2
  1

  9
$DIMSTYLE
  2
Standard
  9
$DIMCLRD
 70
     0
  9
$DIMCLRE
 70
     0
  9
$DIMCLRT
 70
     0
  9
$DIMTFAC
 40
1.0
  9
$DIMGAP
 40
0.09
  9
$DIMJUST
 70
     0
  9
$DIMSD1
 70
     0
  9
$DIMSD2
 70
     0
  9
$DIMTOLJ
 70
     1
  9
$DIMTZIN
 70
     0
  9
$DIMALTZ
 70
     0
  9
$DIMALTTZ
 70
     0
  9
$DIMUPT
 70
     0
  9
$DIMDEC
 70
     4
  9
$DIMTDEC
 70
     4
  9
$DIMALTU
 70
     2
  9
$DIMALTTD
 70
     2
  9
$DIMTXSTY
  7
Standard
  9
$DIMAUNIT
 70
     0
  9
$DIMADEC
 70
     0
  9
$DIMALTRND
 40
0.0
  9
$DIMAZIN
 70
     0
  9
$DIMDSEP
 70
    46
  9
$DIMATFIT
 70
     3
  9
$DIMFRAC
 70
     0
  9
$DIMLDRBLK
  1

  9
$DIMLUNIT
 70
     2
  9
$DIMLWD
 70
    -2
  9
$DIMLWE
 70
    -2
  9
$DIMTMOVE
 70
     0
  9
$DIMFXL
 40
1.0
  9
$DIMFXLON
 70
     0
  9
$DIMJOGANG
 40
0.785398
  9
$DIMTFILL
 70
     0
  9
$DIMTFILLCLR
 70
     0
  9
$DIMARCSYM
 70
     0
  9
$DIMLTYPE
  6

  9
$DIMLTEX1
  6

  9
$DIMLTEX2
  6

  9
$DIMTXTDIRECTION
 70
     0
  9
$LUNITS
 70
     2
  9
$LUPREC
 70
     4
  9
$SKETCHINC
 40
0.1
  9
$FILLETRAD
 40
0.5
  9
$AUNITS
 70
     0
  9
$AUPREC
 70
     0
  9
$MENU
  1
.
  9
$ELEVATION
 40
0.0
  9
$PELEVATION
 40
0.0
  9
$THICKNESS
 40
0.0
  9
$LIMCHECK
 70
     0
  9
$CHAMFERA
 40
0.0
  9
$CHAMFERB
 40
0.0
  9
$CHAMFERC
 40
0.0
  9
$CHAMFERD
 40
0.0
  9
$SKPOLY
 70
     0
  9
$TDCREATE
 40
2459143.57355757
  9
$TDUCREATE
 40
2459143.490224236
  9
$TDUPDATE
 40
2459143.573567697
  9
$TDUUPDATE
 40
2459143.490234363
  9
$TDINDWG
 40
0.0000000116
  9
$TDUSRTIMER
 40
0.0000000116
  9
$USRTIMER
 70
     1
  9
$ANGBASE
 50
0.0
  9
$ANGDIR
 70
     0
  9
$PDMODE
 70
    65
  9
$PDSIZE
 40
0.0
  9
$PLINEWID
 40
0.0
  9
$SPLFRAME
 70
     0
  9
$SPLINETYPE
 70
     6
  9
$SPLINESEGS
 70
     8
  9
$HANDSEED
  5
2E2
  9
$SURFTAB1
 70
     6
  9
$SURFTAB2
 70
     6
  9
$SURFTYPE
 70
     6
  9
$SURFU
 70
     6
  9
$SURFV
 70
     6
  9
$UCSBASE
  2

  9
$UCSNAME
  2

  9
$UCSORG
 10
0.0
 20
0.0
 30
0.0
  9
$UCSXDIR
 10
1.0
 20
0.0
 30
0.0
  9
$UCSYDIR
 10
0.0
 20
1.0
 30
0.0
  9
$UCSORTHOREF
  2

  9
$UCSORTHOVIEW
 70
     0
  9
$UCSORGTOP
 10
0.0
 20
0.0
 30
0.0
  9
$UCSORGBOTTOM
 10
0.0
 20
0.0
 30
0.0
  9
$UCSORGLEFT
 10
0.0
 20
0.0
 30
0.0
  9
$UCSORGRIGHT
 10
0.0
 20
0.0
 30
0.0
  9
$UCSORGFRONT
 10
0.0
 20
0.0
 30
0.0
  9
$UCSORGBACK
 10
0.0
 20
0.0
 30
0.0
  9
$PUCSBASE
  2

  9
$PUCSNAME
  2

  9
$PUCSORG
 10
0.0
 20
0.0
 30
0.0
  9
$PUCSXDIR
 10
1.0
 20
0.0
 30
0.0
  9
$PUCSYDIR
 10
0.0
 20
1.0
 30
0.0
  9
$PUCSORTHOREF
  2

  9
$PUCSORTHOVIEW
 70
     0
  9
$PUCSORGTOP
 10
0.0
 20
0.0
 30
0.0
  9
$PUCSORGBOTTOM
 10
0.0
 20
0.0
 30
0.0
  9
$PUCSORGLEFT
 10
0.0
 20
0.0
 30
0.0
  9
$PUCSORGRIGHT
 10
0.0
 20
0.0
 30
0.0
  9
$PUCSORGFRONT
 10
0.0
 20
0.0
 30
0.0
  9
$PUCSORGBACK
 10
0.0
 20
0.0
 30
0.0
  9
$USERI1
 70
     0
  9
$USERI2
 70
     0
  9
$USERI3
 70
     0
  9
$USERI4
 70
     0
  9
$USERI5
 70
     0
  9
$USERR1
 40
0.0
  9
$USERR2
 40
0.0
  9
$USERR3
 40
0.0
  9
$USERR4
 40
0.0
  9
$USERR5
 40
0.0
  9
$WORLDVIEW
 70
     1
  9
$SHADEDGE
 70
     3
  9
$SHADEDIF
 70
    70
  9
$TILEMODE
 70
     0
  9
$MAXACTVP
 70
    64
  9
$PINSBASE
 10
0.0
 20
0.0
 30
0.0
  9
$PLIMCHECK
 70
     0
  9
$PEXTMIN
 10
-0.0001
 20
-0.0001
 30
0.0
  9
$PEXTMAX
 10
0.210117
 20
0.297097
 30
0.0
  9
$PLIMMIN
 10
-0.0001
 20
-0.0001
  9
$PLIMMAX
 10
0.210117
 20
0.297097
  9
$UNITMODE
 70
     0
  9
$VISRETAIN
 70
     1
  9
$PLINEGEN
 70
     0
  9
$PSLTSCALE
 70
     0
  9
$TREEDEPTH
 70
  3020
  9
$CMLSTYLE
  2
Standard
  9
$CMLJUST
 70
     0
  9
$CMLSCALE
 40
1.0
  9
$PROXYGRAPHICS
 70
     1
  9
$MEASUREMENT
 70
     1
  9
$CELWEIGHT
370
    -1
  9
$ENDCAPS
280
     0
  9
$JOINSTYLE
280
     0
  9
$LWDISPLAY
290
     0
  9
$INSUNITS
 70
     6
  9
$HYPERLINKBASE
  1

  9
$STYLESHEET
  1

  9
$XEDIT
290
     1
  9
$CEPSNTYPE
380
     0
  9
$PSTYLEMODE
290
     1
  9
$FINGERPRINTGUID
  2
{1950c5e7-eea1-4fd2-9ba8-4f02d35d33cf}
  9
$VERSIONGUID
  2
{FAEB1C32-E019-11D5-929B-00C0DF256EC4}
  9
$EXTNAMES
290
     1
  9
$PSVPSCALE
 40
0.0
  9
$OLESTARTUP
290
     0
  9
$SORTENTS
280
   127
  9
$INDEXCTL
280
     0
  9
$HIDETEXT
280
     1
  9
$XCLIPFRAME
280
     2
  9
$HALOGAP
280
     0
  9
$OBSCOLOR
 70
   257
  9
$OBSLTYPE
280
     0
  9
$INTERSECTIONDISPLAY
280
     0
  9
$INTERSECTIONCOLOR
 70
   257
  9
$DIMASSOC
280
     2
  9
$PROJECTNAME
  1

  9
$CAMERADISPLAY
290
     0
  9
$LENSLENGTH
 40
50.0
  9
$CAMERAHEIGHT
 40
0.0
  9
$STEPSPERSEC
 40
2.0
  9
$STEPSIZE
 40
6.0
  9
$3DDWFPREC
 40
2.0
  9
$PSOLWIDTH
 40
0.25
  9
$PSOLHEIGHT
 40
4.0
  9
$LOFTANG1
 40
1.570796
  9
$LOFTANG2
 40
1.570796
  9
$LOFTMAG1
 40
0.0
  9
$LOFTMAG2
 40
0.0
  9
$LOFTPARAM
 70
     7
  9
$LOFTNORMALS
280
     1
  9
$LATITUDE
 40
37.795
  9
$LONGITUDE
 40
-122.394
  9
$NORTHDIRECTION
 40
0.0
  9
$TIMEZONE
 70
 -8000
  9
$LIGHTGLYPHDISPLAY
280
     1
  9
$TILEMODELIGHTSYNCH
280
     1
  9
$CMATERIAL
347
44
  9
$SOLIDHIST
280
     0
  9
$SHOWHIST
280
     1
  9
$DWFFRAME
280
     2
  9
$DGNFRAME
280
     2
  9
$REALWORLDSCALE
290
     1
  9
$INTERFERECOLOR
 62
   256
  9
$CSHADOW
280
     0
  9
$SHADOWPLANELOCATION
 40
0.0
  0
ENDSEC
  0
SECTION
  2
CLASSES
  0
CLASS
  1
ACDBDICTIONARYWDFLT
  2
AcDbDictionaryWithDefault
  3
ObjectDBX Classes
 90
        0
 91
        3
280
     0
281
     0
  0
CLASS
  1
VISUALSTYLE
  2
AcDbVisualStyle
  3
ObjectDBX Classes
 90
     4095
 91
        3
280
     0
281
     0
  0
CLASS
  1
MATERIAL
  2
AcDbMaterial
  3
ObjectDBX Classes
 90
     1153
 91
        3
280
     0
281
     0
  0
CLASS
  1
SCALE
  2
AcDbScale
  3
ObjectDBX Classes
 90
     1153
 91
        3
280
     0
281
     0
  0
CLASS
  1
TABLESTYLE
  2
AcDbTableStyle
  3
ObjectDBX Classes
 90
     4095
 91
        3
280
     0
281
     0
  0
CLASS
  1
MLEADERSTYLE
  2
AcDbMLeaderStyle
  3
ACDB_MLEADERSTYLE_CLASS
 90
     4095
 91
        3
280
     0
281
     0
  0
CLASS
  1
SUN
  2
AcDbSun
  3
SCENEOE
 90
     1153
 91
        3
280
     0
281
     0
  0
CLASS
  1
SORTENTSTABLE
  2
AcDbSortentsTable
  3
ObjectDBX Classes
 90
        0
 91
        3
280
     0
281
     0
  0
CLASS
  1
DICTIONARYVAR
  2
AcDbDictionaryVar
  3
ObjectDBX Classes
 90
        0
 91
        3
280
     0
281
     0
  0
CLASS
  1
CELLSTYLEMAP
  2
AcDbCellStyleMap
  3
ObjectDBX Classes
 90
     1152
 91
        3
280
     0
281
     0
  0
ENDSEC
  0
SECTION
  2
TABLES
  0
TABLE
  2
VPORT
  5
8
330
0
100
AcDbSymbolTable
 70
     1
  0
VPORT
  5
29
330
8
100
AcDbSymbolTableRecord
100
AcDbViewportTableRecord
  2
*Active
 70
     0
 10
0.0
 20
0.0
 11
1.0
 21
1.0
 12
12.405169
 22
-2.211529
 13
0.0
 23
0.0
 14
0.5
 24
0.5
 15
0.5
 25
0.5
 16
0.0
 26
0.0
 36
1.0
 17
0.0
 27
0.0
 37
0.0
 40
1.781982
 41
0.848561
 42
50.0
 43
0.0
 44
0.0
 50
0.0
 51
0.0
 71
     0
 72
   100
 73
     1
 74
     3
 75
     0
 76
     0
 77
     0
 78
     0
281
     0
 65
     1
110
0.0
120
0.0
130
0.0
111
1.0
121
0.0
131
0.0
112
0.0
122
1.0
132
0.0
 79
     0
146
0.0
348
2F
 60
     3
 61
     5
292
     1
282
     1
141
0.0
142
0.0
 63
   250
361
6D
  0
ENDTAB
  0
TABLE
  2
LTYPE
  5
5
330
0
100
AcDbSymbolTable
 70
     5
  0
LTYPE
  5
14
330
5
100
AcDbSymbolTableRecord
100
AcDbLinetypeTableRecord
  2
ByBlock
 70
     0
  3

 72
    65
 73
     0
 40
0.0
  0
LTYPE
  5
15
330
5
100
AcDbSymbolTableRecord
100
AcDbLinetypeTableRecord
  2
ByLayer
 70
     0
  3

 72
    65
 73
     0
 40
0.0
  0
LTYPE
  5
16
330
5
100
AcDbSymbolTableRecord
100
AcDbLinetypeTableRecord
  2
Continuous
 70
     0
  3
Solid line
 72
    65
 73
     0
 40
0.0
  0
LTYPE
  5
74
330
5
100
AcDbSymbolTableRecord
100
AcDbLinetypeTableRecord
  2
AUSGEZOGEN
 70
     0
  3
durchgezogene Linie
 72
    65
 73
     0
 40
0.0
  0
LTYPE
  5
7A
330
5
100
AcDbSymbolTableRecord
100
AcDbLinetypeTableRecord
  2
STRICHLINIE_S4
 70
     0
  3
Langgestrichelt
 72
    65
 73
     2
 40
0.04
 49
0.03
 74
     0
 49
-0.01
 74
     0
  0
LTYPE
  5
7B
330
5
100
AcDbSymbolTableRecord
100
AcDbLinetypeTableRecord
  2
STRICHPUNKT2_S5
 70
     0
  3
Lang eng gestrichelt bzw. punktiert
 72
    65
 73
     4
 40
0.05
 49
0.035
 74
     0
 49
-0.005
 74
     0
 49
0.005
 74
     0
 49
-0.005
 74
     0
  0
LTYPE
  5
7C
330
5
100
AcDbSymbolTableRecord
100
AcDbLinetypeTableRecord
  2
VERDECKT2_S2
 70
     0
  3
Kurzgestrichelt
 72
    65
 73
     2
 40
0.015
 49
0.01
 74
     0
 49
-0.005
 74
     0
  0
ENDTAB
  0
TABLE
  2
LAYER
  5
2
330
0
100
AcDbSymbolTable
 70
     4
  0
LAYER
  5
10
330
2
100
AcDbSymbolTableRecord
100
AcDbLayerTableRecord
  2
0
 70
     0
 62
     7
  6
Continuous
370
    -3
390
F
347
46
  0
LAYER
  5
76
330
2
100
AcDbSymbolTableRecord
100
AcDbLayerTableRecord
  2
PLAN_111
 70
     0
 62
     7
  6
AUSGEZOGEN
370
    18
390
F
347
46
1001
AcCmTransparency
1071
 33554687
1001
AcAecLayerStandard
1000

1000
Dokument-Layer
  0
LAYER
  5
78
330
2
100
AcDbSymbolTableRecord
100
AcDbLayerTableRecord
  2
TB_111
 70
     0
 62
     7
  6
AUSGEZOGEN
370
    18
390
F
347
46
1001
AcCmTransparency
1071
 33554687
1001
AcAecLayerStandard
1000

1000
Dokument-Layer
  0
LAYER
  5
7D
330
2
100
AcDbSymbolTableRecord
100
AcDbLayerTableRecord
  2
XR$1$TB_111_1
 70
     0
 62
     7
  6
AUSGEZOGEN
370
    18
390
F
347
46
1001
AcCmTransparency
1071
 33554687
1001
AcAecLayerStandard
1000

1000
Dokument-Layer
  0
ENDTAB
  0
TABLE
  2
STYLE
  5
3
330
0
100
AcDbSymbolTable
 70
     2
  0
STYLE
  5
11
330
3
100
AcDbSymbolTableRecord
100
AcDbTextStyleTableRecord
  2
Standard
 70
     0
 40
0.0
 41
1.0
 50
0.0
 71
     0
 42
0.2
  3
txt
  4

  0
STYLE
  5
79
330
3
100
AcDbSymbolTableRecord
100
AcDbTextStyleTableRecord
  2
ARIAL
 70
     0
 40
0.0
 41
1.0
 50
0.0
 71
     0
 42
0.2
  3
ARIAL.TTF
  4

1001
ACAD
1000
Arial
1071
       34
  0
ENDTAB
  0
TABLE
  2
VIEW
  5
6
330
0
100
AcDbSymbolTable
 70
     0
  0
ENDTAB
  0
TABLE
  2
UCS
  5
7
330
0
100
AcDbSymbolTable
 70
     0
  0
ENDTAB
  0
TABLE
  2
APPID
  5
9
330
0
100
AcDbSymbolTable
 70
     4
  0
APPID
  5
12
330
9
100
AcDbSymbolTableRecord
100
AcDbRegAppTableRecord
  2
ACAD
 70
     0
  0
APPID
  5
75
330
9
100
AcDbSymbolTableRecord
100
AcDbRegAppTableRecord
  2
AcCmTransparency
 70
     0
  0
APPID
  5
77
330
9
100
AcDbSymbolTableRecord
100
AcDbRegAppTableRecord
  2
AcAecLayerStandard
 70
     0
  0
APPID
  5
7E
330
9
100
AcDbSymbolTableRecord
100
AcDbRegAppTableRecord
  2
NEM_ODX
 70
     0
  0
ENDTAB
  0
TABLE
  2
DIMSTYLE
  5
A
330
0
100
AcDbSymbolTable
 70
     1
100
AcDbDimStyleTable
  0
DIMSTYLE
105
27
330
A
100
AcDbSymbolTableRecord
100
AcDbDimStyleTableRecord
  2
Standard
 70
     0
178
     0
340
11
  0
ENDTAB
  0
TABLE
  2
BLOCK_RECORD
  5
1
330
0
100
AcDbSymbolTable
 70
     1
  0
BLOCK_RECORD
  5
1F
102
{ACAD_XDICTIONARY
360
2A5
102
}
330
1
100
AcDbSymbolTableRecord
100
AcDbBlockTableRecord
  2
*Model_Space
340
22
 70
     0
280
     1
281
     0
  0
BLOCK_RECORD
  5
6E
330
1
100
AcDbSymbolTableRecord
100
AcDbBlockTableRecord
  2
*Paper_Space
340
6F
 70
     0
280
     1
281
     0
  0
BLOCK_RECORD
  5
27F
330
1
100
AcDbSymbolTableRecord
100
AcDbBlockTableRecord
  2
COMPLEXOBJECT_0
340
0
102
{BLKREFS
331
299
102
}
 70
     6
280
     1
281
     0
  0
ENDTAB
  0
ENDSEC
  0
SECTION
  2
BLOCKS
  0
BLOCK
  5
20
330
1F
100
AcDbEntity
  8
0
100
AcDbBlockBegin
  2
*Model_Space
 70
     0
 10
0.0
 20
0.0
 30
0.0
  3
*Model_Space
  1

  0
ENDBLK
  5
21
330
1F
100
AcDbEntity
  8
0
100
AcDbBlockEnd
  0
BLOCK
  5
70
330
6E
100
AcDbEntity
 67
     1
  8
0
100
AcDbBlockBegin
  2
*Paper_Space
 70
     0
 10
0.0
 20
0.0
 30
0.0
  3
*Paper_Space
  1

  0
ENDBLK
  5
71
330
6E
100
AcDbEntity
 67
     1
  8
0
100
AcDbBlockEnd
  0
BLOCK
  5
280
330
27F
100
AcDbEntity
  8
0
100
AcDbBlockBegin
  2
COMPLEXOBJECT_0
 70
     0
 10
0.0
 20
0.0
 30
0.0
  3
COMPLEXOBJECT_0
  1

  0
LINE
  5
282
330
27F
100
AcDbEntity
  8
XR$1$TB_111_1
  6
AUSGEZOGEN
 62
     7
440
 33554687
370
    25
100
AcDbLine
 10
12.111302
 20
-2.363573
 30
0.0
 11
12.111302
 21
-2.383573
 31
0.0
  0
LINE
  5
283
330
27F
100
AcDbEntity
  8
XR$1$TB_111_1
  6
AUSGEZOGEN
 62
     7
440
 33554687
370
    25
100
AcDbLine
 10
12.103302
 20
-2.383573
 30
0.0
 11
12.103302
 21
-2.363573
 31
0.0
  0
ARC
  5
284
330
27F
100
AcDbEntity
  8
XR$1$TB_111_1
  6
AUSGEZOGEN
 62
     7
440
 33554687
370
    18
100
AcDbCircle
 10
12.109425
 20
-2.382919
 30
0.0
 40
0.0008
100
AcDbArc
 50
270.0
 51
0.658212
  0
LINE
  5
285
330
27F
100
AcDbEntity
  8
XR$1$TB_111_1
  6
AUSGEZOGEN
 62
     7
440
 33554687
370
    18
100
AcDbLine
 10
12.109425
 20
-2.383719
 30
0.0
 11
12.105162
 21
-2.383719
 31
0.0
  0
ARC
  5
286
330
27F
100
AcDbEntity
  8
XR$1$TB_111_1
  6
AUSGEZOGEN
 62
     7
440
 33554687
370
    18
100
AcDbCircle
 10
12.105162
 20
-2.382919
 30
0.0
 40
0.0008
100
AcDbArc
 50
179.341788
 51
270.0
  0
LINE
  5
287
330
27F
100
AcDbEntity
  8
XR$1$TB_111_1
  6
AUSGEZOGEN
 62
     7
440
 33554687
370
    18
100
AcDbLine
 10
12.104362
 20
-2.38291
 30
0.0
 11
12.1046
 21
-2.362238
 31
0.0
  0
ARC
  5
288
330
27F
100
AcDbEntity
  8
XR$1$TB_111_1
  6
AUSGEZOGEN
 62
     7
440
 33554687
370
    18
100
AcDbCircle
 10
12.103
 20
-2.36222
 30
0.0
 40
0.0016
100
AcDbArc
 50
359.341788
 51
74.341788
  0
LINE
  5
289
330
27F
100
AcDbEntity
  8
XR$1$TB_111_1
  6
AUSGEZOGEN
 62
     7
440
 33554687
370
    18
100
AcDbLine
 10
12.103432
 20
-2.360679
 30
0.0
 11
12.099294
 21
-2.359519
 31
0.0
  0
LINE
  5
28A
330
27F
100
AcDbEntity
  8
XR$1$TB_111_1
  6
AUSGEZOGEN
 62
     7
440
 33554687
370
    18
100
AcDbLine
 10
12.099294
 20
-2.359519
 30
0.0
 11
12.099078
 21
-2.36029
 31
0.0
  0
LINE
  5
28B
330
27F
100
AcDbEntity
  8
XR$1$TB_111_1
  6
AUSGEZOGEN
 62
     7
440
 33554687
370
    18
100
AcDbLine
 10
12.099078
 20
-2.36029
 30
0.0
 11
12.103216
 21
-2.36145
 31
0.0
  0
ARC
  5
28C
330
27F
100
AcDbEntity
  8
XR$1$TB_111_1
  6
AUSGEZOGEN
 62
     7
440
 33554687
370
    18
100
AcDbCircle
 10
12.103
 20
-2.36222
 30
0.0
 40
0.0008
100
AcDbArc
 50
359.341788
 51
74.341788
  0
LINE
  5
28D
330
27F
100
AcDbEntity
  8
XR$1$TB_111_1
  6
AUSGEZOGEN
 62
     7
440
 33554687
370
    18
100
AcDbLine
 10
12.1038
 20
-2.362229
 30
0.0
 11
12.103562
 21
-2.382901
 31
0.0
  0
ARC
  5
28E
330
27F
100
AcDbEntity
  8
XR$1$TB_111_1
  6
AUSGEZOGEN
 62
     7
440
 33554687
370
    18
100
AcDbCircle
 10
12.105162
 20
-2.382919
 30
0.0
 40
0.0016
100
AcDbArc
 50
179.341788
 51
270.0
  0
LINE
  5
28F
330
27F
100
AcDbEntity
  8
XR$1$TB_111_1
  6
AUSGEZOGEN
 62
     7
440
 33554687
370
    18
100
AcDbLine
 10
12.105162
 20
-2.384519
 30
0.0
 11
12.109425
 21
-2.384519
 31
0.0
  0
ARC
  5
290
330
27F
100
AcDbEntity
  8
XR$1$TB_111_1
  6
AUSGEZOGEN
 62
     7
440
 33554687
370
    18
100
AcDbCircle
 10
12.109425
 20
-2.382919
 30
0.0
 40
0.0016
100
AcDbArc
 50
270.0
 51
0.658212
  0
LINE
  5
291
330
27F
100
AcDbEntity
  8
XR$1$TB_111_1
  6
AUSGEZOGEN
 62
     7
440
 33554687
370
    18
100
AcDbLine
 10
12.111025
 20
-2.382901
 30
0.0
 11
12.110788
 21
-2.362229
 31
0.0
  0
ARC
  5
292
330
27F
100
AcDbEntity
  8
XR$1$TB_111_1
  6
AUSGEZOGEN
 62
     7
440
 33554687
370
    18
100
AcDbCircle
 10
12.111588
 20
-2.36222
 30
0.0
 40
0.0008
100
AcDbArc
 50
105.658212
 51
180.658212
  0
LINE
  5
293
330
27F
100
AcDbEntity
  8
XR$1$TB_111_1
  6
AUSGEZOGEN
 62
     7
440
 33554687
370
    18
100
AcDbLine
 10
12.111372
 20
-2.36145
 30
0.0
 11
12.11551
 21
-2.36029
 31
0.0
  0
LINE
  5
294
330
27F
100
AcDbEntity
  8
XR$1$TB_111_1
  6
AUSGEZOGEN
 62
     7
440
 33554687
370
    18
100
AcDbLine
 10
12.11551
 20
-2.36029
 30
0.0
 11
12.115294
 21
-2.359519
 31
0.0
  0
LINE
  5
295
330
27F
100
AcDbEntity
  8
XR$1$TB_111_1
  6
AUSGEZOGEN
 62
     7
440
 33554687
370
    18
100
AcDbLine
 10
12.115294
 20
-2.359519
 30
0.0
 11
12.111156
 21
-2.360679
 31
0.0
  0
ARC
  5
296
330
27F
100
AcDbEntity
  8
XR$1$TB_111_1
  6
AUSGEZOGEN
 62
     7
440
 33554687
370
    18
100
AcDbCircle
 10
12.111588
 20
-2.36222
 30
0.0
 40
0.0016
100
AcDbArc
 50
105.658212
 51
180.658212
  0
LINE
  5
297
330
27F
100
AcDbEntity
  8
XR$1$TB_111_1
  6
AUSGEZOGEN
 62
     7
440
 33554687
370
    18
100
AcDbLine
 10
12.109988
 20
-2.362238
 30
0.0
 11
12.110225
 21
-2.38291
 31
0.0
  0
ARC
  5
298
330
27F
100
AcDbEntity
  8
XR$1$TB_111_1
  6
AUSGEZOGEN
 62
     7
440
 33554687
370
    18
100
AcDbCircle
 10
12.099065
 20
-2.361117
 30
0.0
 40
0.0008
100
AcDbArc
 50
74.341788
 51
89.341788
  0
ENDBLK
  5
281
330
27F
100
AcDbEntity
  8
0
100
AcDbBlockEnd
  0
ENDSEC
  0
SECTION
  2
ENTITIES
  0
HATCH
  5
7F
330
1F
100
AcDbEntity
  8
XR$1$TB_111_1
  6
AUSGEZOGEN
 62
     7
440
 33554687
370
    18
100
AcDbHatch
 10
0.0
 20
0.0
 30
0.0
210
0.0
220
0.0
230
1.0
  2
SCHRAFFUR_3
 70
     0
 71
     0
 91
        1
 92
        0
 93
        4
 72
     1
 10
12.02210544097523
 20
-2.233373350067163
 11
12.59760317368042
 21
-2.233373350067163
 72
     1
 10
12.59760317368042
 20
-2.233373350067163
 11
12.59760317368042
 21
-1.934373350067163
 72
     1
 10
12.59760317368042
 20
-1.934373350067162
 11
12.02210544097523
 21
-1.934373350067162
 72
     1
 10
12.02210544097523
 20
-1.934373350067162
 11
12.02210544097523
 21
-2.233373350067163
 97
        0
 75
     0
 76
     2
 52
315.0
 41
0.005
 77
     0
 78
     2
 53
44.99999999999999
 43
0.0
 44
0.0
 45
-0.0353553390593274
 46
0.0353553390593274
 79
     0
 53
44.99999999999999
 43
-0.0176776695296637
 44
0.0176776695296637
 45
-0.0353553390593274
 46
0.0353553390593274
 79
     0
 98
        0
1001
ACAD
1010
0.0
1020
0.0
1030
0.0
1001
NEM_ODX
1002
{
1000
BZM_DEPEND
1070
     1
1000
BZM_SCALE
1040
5.0
1000
SCHRAFFUR_3
1002
}
  0
HATCH
  5
80
330
1F
100
AcDbEntity
  8
XR$1$TB_111_1
  6
AUSGEZOGEN
 62
    18
420
        0
440
 33554687
370
    18
100
AcDbHatch
 10
0.0
 20
0.0
 30
0.0
210
0.0
220
0.0
230
1.0
  2
SOLID
 70
     1
 71
     0
 91
        1
 92
        3
 72
     0
 73
     1
 93
       14
 10
12.64560317368042
 20
-2.130373350067162
 10
12.60960317368041
 20
-2.130373350067162
 10
12.60960317368041
 20
-2.133373350067163
 10
12.63260317368042
 20
-2.133373350067163
 10
12.63260317368042
 20
-2.160373350067162
 10
12.63560317368041
 20
-2.160373350067162
 10
12.63760317368041
 20
-2.157373350067166
 10
12.63560317368041
 20
-2.157373350067163
 10
12.63560317368041
 20
-2.133373350067163
 10
12.64260317368041
 20
-2.133373350067163
 10
12.64260317368041
 20
-2.157373350067163
 10
12.64060317368041
 20
-2.157373350067163
 10
12.64260317368041
 20
-2.160373350067162
 10
12.64560317368041
 20
-2.160373350067162
 97
        0
 75
     0
 76
     1
 98
        0
  0
HATCH
  5
81
330
1F
100
AcDbEntity
  8
XR$1$TB_111_1
  6
AUSGEZOGEN
 62
    18
420
        0
440
 33554687
370
    35
100
AcDbHatch
 10
0.0
 20
0.0
 30
0.0
210
0.0
220
0.0
230
1.0
  2
SOLID
 70
     1
 71
     0
 91
       18
 92
        3
 72
     0
 73
     1
 93
       27
 10
11.99946736015168
 20
-2.8160196211304
 10
12.00346110361262
 20
-2.8160196211304
 10
12.00403823000317
 20
-2.815992224749587
 10
12.00456921512078
 20
-2.815909675128453
 10
12.0050641523689
 20
-2.815781344713064
 10
12.00551294834406
 20
-2.815598221536046
 10
12.00592497549234
 20
-2.815378329532146
 10
12.00629122184638
 20
-2.815103644766625
 10
12.00692350147725
 20
-2.814453341201009
 10
12.00717078986197
 20
-2.814077722400907
 10
12.00739068186585
 20
-2.813665695252624
 10
12.00772953183907
 20
-2.812767742823597
 10
12.00792166698346
 20
-2.811769577317378
 10
12.00798583219115
 20
-2.810697874157407
 10
12.00792166698346
 20
-2.809552633343669
 10
12.00772953183907
 20
-2.808517699010576
 10
12.00757380504287
 20
-2.808050518621972
 10
12.00739068186585
 20
-2.807611095092869
 10
12.00717078986197
 20
-2.807207719433263
 10
12.00692350147725
 20
-2.806841473079235
 10
12.00629122184638
 20
-2.806218565894425
 10
12.00592497549234
 20
-2.805971277509717
 10
12.00551294834406
 20
-2.805760757951894
 10
12.0050641523689
 20
-2.805595658709615
 10
12.00456921512078
 20
-2.805476700740293
 10
12.00346110361262
 20
-2.805375766705717
 10
11.99946736015168
 20
-2.805375766705717
 97
        0
 92
        3
 72
     0
 73
     1
 93
       12
 10
12.01117354529027
 20
-2.8160196211304
 10
12.01889535941398
 20
-2.8160196211304
 10
12.01889535941398
 20
-2.814691257139647
 10
12.01277659404654
 20
-2.814691257139647
 10
12.01277659404654
 20
-2.811228859275013
 10
12.01782365625401
 20
-2.811228859275013
 10
12.01782365625401
 20
-2.809900855762955
 10
12.01277659404654
 20
-2.809900855762955
 10
12.01277659404654
 20
-2.806704130696476
 10
12.01862968661583
 20
-2.806704130696476
 10
12.01862968661583
 20
-2.805375766705717
 10
12.01117354529027
 20
-2.805375766705717
 97
        0
 92
        3
 72
     0
 73
     1
 93
       38
 10
12.0284671502
 20
-2.805375766705717
 10
12.0284671502
 20
-2.812291550467617
 10
12.02843038137311
 20
-2.812941854033233
 10
12.02832079584987
 20
-2.813491584042978
 10
12.02811892778072
 20
-2.813958764431585
 10
12.02783523104781
 20
-2.814325010785622
 10
12.02746862421509
 20
-2.814599695551143
 10
12.02701081627255
 20
-2.814801203141596
 10
12.02646108626281
 20
-2.814920521589616
 10
12.02581078269719
 20
-2.814956929937798
 10
12.02516047913156
 20
-2.814920521589616
 10
12.02461074912183
 20
-2.814801203141596
 10
12.02415294117928
 20
-2.814599695551143
 10
12.02377732237919
 20
-2.814325010785622
 10
12.02350263761366
 20
-2.813958764431585
 10
12.02330113002321
 20
-2.813491584042978
 10
12.02319118402126
 20
-2.812941854033233
 10
12.023145403227
 20
-2.812291550467617
 10
12.023145403227
 20
-2.805375766705717
 10
12.02181703923626
 20
-2.805375766705717
 10
12.02181703923626
 20
-2.812557223265763
 10
12.02189057689002
 20
-2.813409034421841
 10
12.02210109644784
 20
-2.81415089957597
 10
12.02244931886712
 20
-2.81479219117422
 10
12.02291649925573
 20
-2.815323536770527
 10
12.02349326516759
 20
-2.815735563918807
 10
12.0241803375601
 20
-2.816038005543837
 10
12.02494995957374
 20
-2.816221128720855
 10
12.02581078269719
 20
-2.816285293928551
 10
12.02667196629933
 20
-2.816221128720855
 10
12.02744122783427
 20
-2.816038005543837
 10
12.02812830022678
 20
-2.815735563918807
 10
12.02870542661733
 20
-2.815323536770527
 10
12.02917260700594
 20
-2.81479219117422
 10
12.02951145697916
 20
-2.81415089957597
 10
12.02973134898305
 20
-2.813409034421841
 10
12.02980452615812
 20
-2.812557223265763
 10
12.02980452615812
 20
-2.805375766705717
 97
        0
 92
        3
 72
     0
 73
     1
 93
        8
 10
12.03246089366093
 20
-2.805375766705717
 10
12.03246089366093
 20
-2.806704130696476
 10
12.03565761872741
 20
-2.806704130696476
 10
12.03565761872741
 20
-2.8160196211304
 10
12.03698562223947
 20
-2.8160196211304
 10
12.03698562223947
 20
-2.806704130696476
 10
12.04017333533858
 20
-2.806704130696476
 10
12.04017333533858
 20
-2.805375766705717
 97
        0
 92
        3
 72
     0
 73
     1
 93
       96
 10
12.04317792526067
 20
-2.808939098604924
 10
12.0433884448185
 20
-2.809461071755163
 10
12.04371828282434
 20
-2.809873459382145
 10
12.0441396824187
 20
-2.810212309355359
 10
12.04464327115549
 20
-2.810477982153505
 10
12.04521138557868
 20
-2.810679489743967
 10
12.04642944308879
 20
-2.810999955303744
 10
12.04764786107759
 20
-2.811275000547955
 10
12.04821561502207
 20
-2.811430366865471
 10
12.04871956423757
 20
-2.811631874455927
 10
12.04914060335322
 20
-2.811879523319328
 10
12.04947044135907
 20
-2.812199988879105
 10
12.04968132139559
 20
-2.812593992092649
 10
12.04975449857066
 20
-2.81308856886207
 10
12.04969934533033
 20
-2.813555749250674
 10
12.04952559459939
 20
-2.813940380018145
 10
12.04925992180123
 20
-2.81427021802399
 10
12.04892107182802
 20
-2.814526518376071
 10
12.04851805664711
 20
-2.814719013999157
 10
12.04806890019325
 20
-2.814846983935852
 10
12.04759270783727
 20
-2.814929533556982
 10
12.04709813106785
 20
-2.814956929937798
 10
12.04642944308879
 20
-2.814920521589616
 10
12.04584330473086
 20
-2.814801203141596
 10
12.04533935551537
 20
-2.814599695551143
 10
12.04489993198627
 20
-2.814325010785622
 10
12.04454269759961
 20
-2.813958764431585
 10
12.04424926794196
 20
-2.813491584042978
 10
12.04403874838413
 20
-2.812941854033233
 10
12.04390140600136
 20
-2.812291550467617
 10
12.04257304201061
 20
-2.812557223265763
 10
12.04266496407781
 20
-2.813482211596913
 10
12.04278392204714
 20
-2.813894599223889
 10
12.04293964884334
 20
-2.814260845577923
 10
12.04314115643379
 20
-2.814599695551143
 10
12.04337006040506
 20
-2.814911149143545
 10
12.04393817482825
 20
-2.815424110326406
 10
12.04460650232862
 20
-2.815808741093873
 10
12.04537612434226
 20
-2.816074413892026
 10
12.04620955108489
 20
-2.816230140688228
 10
12.04709813106785
 20
-2.816285293928551
 10
12.04787676504886
 20
-2.816230140688228
 10
12.04861863020299
 20
-2.816083786338093
 10
12.04929633014943
 20
-2.815818113539947
 10
12.04989184095342
 20
-2.815451506707218
 10
12.05038641772284
 20
-2.814975314351238
 10
12.05076203652294
 20
-2.814379803547244
 10
12.05089937890571
 20
-2.814031941606651
 10
12.05100031294027
 20
-2.813665695252624
 10
12.05108250208272
 20
-2.812822896063915
 10
12.05100932490765
 20
-2.812099054844534
 10
12.05079880534982
 20
-2.811503904519232
 10
12.05046896734398
 20
-2.811027351684551
 10
12.05004756774961
 20
-2.810652093363151
 10
12.04954361853414
 20
-2.810359024184187
 10
12.04898487655702
 20
-2.810129759734232
 10
12.04775780707953
 20
-2.809799921728378
 10
12.04653938909073
 20
-2.809534609408924
 10
12.04598064711363
 20
-2.809378882612725
 10
12.04547669789813
 20
-2.809195398957011
 10
12.04504628633641
 20
-2.808957483018367
 10
12.04471644833057
 20
-2.808655041393338
 10
12.04450592877273
 20
-2.808261398658495
 10
12.04443275159767
 20
-2.807766461410379
 10
12.04449691680536
 20
-2.807409227023721
 10
12.04466165556893
 20
-2.807116157844757
 10
12.04490894395364
 20
-2.806878241906115
 10
12.04522940951342
 20
-2.806704130696476
 10
12.04560502831352
 20
-2.806585172727148
 10
12.04600804349443
 20
-2.806502623106015
 10
12.0468324582697
 20
-2.806438457898321
 10
12.04740057269288
 20
-2.806465854279134
 10
12.04791317339705
 20
-2.806548403900268
 10
12.04837134181828
 20
-2.806695118729094
 10
12.04875597258574
 20
-2.806905638286931
 10
12.04906742617815
 20
-2.807198707465893
 10
12.04929633014943
 20
-2.807564953819924
 10
12.04944304497825
 20
-2.808023122241158
 10
12.04948882577251
 20
-2.808572852250896
 10
12.05108250208272
 20
-2.808572852250896
 10
12.050835213698
 20
-2.80773005306219
 10
12.05049636372479
 20
-2.807015584288875
 10
12.05006595216306
 20
-2.806420073484881
 10
12.0495529909802
 20
-2.805943881128901
 10
12.04896685262228
 20
-2.805577274296176
 10
12.04831654905665
 20
-2.805311961976722
 10
12.04760208028334
 20
-2.805165247147895
 10
12.0468324582697
 20
-2.805110454386266
 10
12.04613637390983
 20
-2.805156235180516
 10
12.04545867396338
 20
-2.805311961976722
 10
12.04483576677858
 20
-2.805559250361433
 10
12.04426765235539
 20
-2.805907112302021
 10
12.04379145999942
 20
-2.806355908277188
 10
12.04342521364538
 20
-2.806905638286931
 10
12.04318693722805
 20
-2.807555941852557
 10
12.04310438760691
 20
-2.808307179452751
 97
        0
 92
        3
 72
     0
 73
     1
 93
       78
 10
12.0554060835495
 20
-2.809827678587886
 10
12.05558920672651
 20
-2.809021648226063
 10
12.05590066031892
 20
-2.808297807006677
 10
12.05634044432671
 20
-2.807674899821867
 10
12.05689918630383
 20
-2.80715292667164
 10
12.05758589821763
 20
-2.80676829590417
 10
12.05840130102553
 20
-2.806530019486827
 10
12.05933566180274
 20
-2.806438457898321
 10
12.05983925053952
 20
-2.806475226725204
 10
12.06035221172239
 20
-2.806594184694527
 10
12.06085616093788
 20
-2.806777307871536
 10
12.06133235329385
 20
-2.807042980669697
 10
12.06175375288821
 20
-2.807372818675536
 10
12.0621019753075
 20
-2.807784845823822
 10
12.06236728762695
 20
-2.808270410625867
 10
12.06252301442316
 20
-2.808838164570359
 10
12.06386039038128
 20
-2.808572852250896
 10
12.06359471758312
 20
-2.80773005306219
 10
12.06322847122909
 20
-2.807015584288875
 10
12.06275227887311
 20
-2.806420073484881
 10
12.062193536896
 20
-2.805943881128901
 10
12.06156125726513
 20
-2.805577274296176
 10
12.06086517290525
 20
-2.805311961976722
 10
12.06011429578374
 20
-2.805165247147895
 10
12.05933566180274
 20
-2.805110454386266
 10
12.05870338217187
 20
-2.805137850767073
 10
12.05810823184656
 20
-2.805220039909515
 10
12.05755850183682
 20
-2.805348370324901
 10
12.05704554065395
 20
-2.805531493501919
 10
12.05656934829798
 20
-2.805760757951894
 10
12.05612956429018
 20
-2.806035442717413
 10
12.05573592155534
 20
-2.806355908277188
 10
12.05537868716869
 20
-2.806704130696476
 10
12.05505786113021
 20
-2.807098133910015
 10
12.05478317636469
 20
-2.807528545471735
 10
12.05455427239342
 20
-2.807986353414278
 10
12.05436177677033
 20
-2.808480930183695
 10
12.05409610397219
 20
-2.809543621376303
 10
12.05401391482975
 20
-2.810697874157407
 10
12.05409610397219
 20
-2.811851766459819
 10
12.05436177677033
 20
-2.812914457652427
 10
12.05455427239342
 20
-2.813409034421841
 10
12.05478317636469
 20
-2.813867202843073
 10
12.05505786113021
 20
-2.814297614404806
 10
12.05537868716869
 20
-2.814691257139647
 10
12.05573592155534
 20
-2.815039479558926
 10
12.05612956429018
 20
-2.815359945118716
 10
12.05656934829798
 20
-2.815634990362926
 10
12.05704554065395
 20
-2.815863894334197
 10
12.05755850183682
 20
-2.816047017511212
 10
12.05810823184656
 20
-2.816175347926599
 10
12.05870338217187
 20
-2.816257897547735
 10
12.05933566180274
 20
-2.816285293928551
 10
12.06013231971849
 20
-2.816211756274791
 10
12.06090194173213
 20
-2.815992224749587
 10
12.06164380688626
 20
-2.815644002330305
 10
12.06233087927876
 20
-2.81515843752826
 10
12.06293540205012
 20
-2.814544902789512
 10
12.06344836323299
 20
-2.813812049602749
 10
12.0638513784139
 20
-2.812978622860117
 10
12.06412606317942
 20
-2.812025877669465
 10
12.06252301442316
 20
-2.812025877669465
 10
12.06237666007302
 20
-2.812685553681155
 10
12.06213838365568
 20
-2.813271692039082
 10
12.0618179180959
 20
-2.813775280775878
 10
12.06143328732844
 20
-2.81418766840285
 10
12.06097511890719
 20
-2.814517506408705
 10
12.0604715301704
 20
-2.814755422347349
 10
12.05992180016066
 20
-2.814902137176166
 10
12.05933566180274
 20
-2.814956929937798
 10
12.05840130102553
 20
-2.814874740795357
 10
12.05758589821763
 20
-2.814627452410645
 10
12.05689918630383
 20
-2.814242461164482
 10
12.05634044432671
 20
-2.813720488014249
 10
12.05590066031892
 20
-2.813097580829436
 10
12.05558920672651
 20
-2.812374100088748
 10
12.0554060835495
 20
-2.811568069726929
 10
12.0553419183418
 20
-2.810697874157407
 97
        0
 92
        3
 72
     0
 73
     1
 93
       12
 10
12.06731377627854
 20
-2.8160196211304
 10
12.0686417797906
 20
-2.8160196211304
 10
12.0686417797906
 20
-2.811228859275013
 10
12.07422919956174
 20
-2.811228859275013
 10
12.07422919956174
 20
-2.8160196211304
 10
12.07583224831802
 20
-2.8160196211304
 10
12.07583224831802
 20
-2.805375766705717
 10
12.07422919956174
 20
-2.805375766705717
 10
12.07422919956174
 20
-2.809900855762955
 10
12.0686417797906
 20
-2.809900855762955
 10
12.0686417797906
 20
-2.805375766705717
 10
12.06731377627854
 20
-2.805375766705717
 97
        0
 92
        3
 72
     0
 73
     1
 93
       12
 10
12.07928563421528
 20
-2.8160196211304
 10
12.08674141506215
 20
-2.8160196211304
 10
12.08674141506215
 20
-2.814691257139647
 10
12.08062301017339
 20
-2.814691257139647
 10
12.08062301017339
 20
-2.811228859275013
 10
12.08593538470032
 20
-2.811228859275013
 10
12.08593538470032
 20
-2.809900855762955
 10
12.08062301017339
 20
-2.809900855762955
 10
12.08062301017339
 20
-2.806704130696476
 10
12.08674141506215
 20
-2.806704130696476
 10
12.08674141506215
 20
-2.805375766705717
 10
12.07928563421528
 20
-2.805375766705717
 97
        0
 92
        3
 72
     0
 73
     1
 93
       90
 10
12.0019953972391
 20
-2.823585708457917
 10
12.00169331609276
 20
-2.82329227880026
 10
12.00161977843901
 20
-2.823127540036685
 10
12.00160175450425
 20
-2.822935044413602
 10
12.00164753529851
 20
-2.822660359648074
 10
12.00177550523521
 20
-2.822431455676806
 10
12.00195898889091
 20
-2.822248332499794
 10
12.00219690482955
 20
-2.822101617670958
 10
12.00271923845849
 20
-2.821927506461325
 10
12.00319543081446
 20
-2.821872713699687
 10
12.00398307676284
 20
-2.821964275288193
 10
12.00436770753032
 20
-2.822083233257527
 10
12.00472494191698
 20
-2.822238960053721
 10
12.00536623351523
 20
-2.822660359648074
 10
12.00585179831727
 20
-2.823200717211748
 10
12.00798583219115
 20
-2.821872713699687
 10
12.0074728710083
 20
-2.821396521343713
 10
12.00694188589069
 20
-2.820975121749359
 10
12.00639215588095
 20
-2.820617887362707
 10
12.00582440193647
 20
-2.820306433770295
 10
12.00523790309983
 20
-2.82006815735296
 10
12.00465176474191
 20
-2.819885034175944
 10
12.00405625393792
 20
-2.819784100141364
 10
12.00346110361262
 20
-2.819747691793182
 10
12.00259090804311
 20
-2.819793472587441
 10
12.00178487768128
 20
-2.819949199383644
 10
12.00106103646189
 20
-2.820205499735724
 10
12.00043812927707
 20
-2.820572106568448
 10
11.99991615612685
 20
-2.8210573108918
 10
11.99953152535938
 20
-2.8216528216958
 10
11.99939418297662
 20
-2.821991671669012
 10
11.99928423697467
 20
-2.82236729046911
 10
11.99920168735354
 20
-2.823200717211748
 10
11.99925684059385
 20
-2.823777843602311
 10
11.99941256739006
 20
-2.82430017723123
 10
11.99965985577477
 20
-2.824766997141145
 10
11.99999870574797
 20
-2.825179384768121
 10
12.00042010534234
 20
-2.825527246708714
 10
12.00092369407913
 20
-2.825802291952931
 10
12.00150983243706
 20
-2.826012811510765
 10
12.0021511240353
 20
-2.826150153893524
 10
12.00428551838788
 20
-2.826589937901313
 10
12.00475269877648
 20
-2.826699883903265
 10
12.00507316433626
 20
-2.826873995112904
 10
12.00526565995935
 20
-2.827111911051552
 10
12.00532045272097
 20
-2.827460133470834
 10
12.00527467192672
 20
-2.827744190682423
 10
12.00514634151134
 20
-2.828000491034508
 10
12.00494483392087
 20
-2.828229395005773
 10
12.00468853356879
 20
-2.828421890628865
 10
12.0044044763572
 20
-2.828577617425067
 10
12.00408401079742
 20
-2.82869657539438
 10
12.00346110361262
 20
-2.828788136982896
 10
12.00255413921621
 20
-2.82869657539438
 10
12.00216049648138
 20
-2.828577617425067
 10
12.00179388964865
 20
-2.828421890628865
 10
12.00114358608303
 20
-2.828000491034508
 10
12.00053005134428
 20
-2.827460133470834
 10
11.99840466895908
 20
-2.828522824663435
 10
11.9989911677957
 20
-2.829072194194481
 10
11.99956829418625
 20
-2.829530362615713
 10
12.00012703616337
 20
-2.82989660896975
 10
12.00070380207522
 20
-2.830189678148717
 10
12.00128092846579
 20
-2.830400558185238
 10
12.00188545123715
 20
-2.830546912535369
 10
12.00251773086803
 20
-2.830629462156503
 10
12.00319543081446
 20
-2.830656858537319
 10
12.0039372959686
 20
-2.830620089710438
 10
12.00472494191698
 20
-2.830519516154557
 10
12.0055309722788
 20
-2.830318008564098
 10
12.00629122184638
 20
-2.829988170558256
 10
12.00663944426566
 20
-2.829768278554357
 10
12.00695990982544
 20
-2.829511978202276
 10
12.00724396703703
 20
-2.829209536577244
 10
12.0075006278678
 20
-2.828852302190592
 10
12.00770213545826
 20
-2.828458659455742
 10
12.00785786225446
 20
-2.828000491034508
 10
12.00794942384297
 20
-2.827496902297715
 10
12.00798583219115
 20
-2.826928787874534
 10
12.00794942384297
 20
-2.826498376312809
 10
12.00784848980839
 20
-2.826113745545333
 10
12.00769276301218
 20
-2.825783907539488
 10
12.00749125542173
 20
-2.825490838360531
 10
12.00723495506965
 20
-2.82523417752975
 10
12.00695089785806
 20
-2.825014646004549
 10
12.00627319791163
 20
-2.824666423585263
 10
12.00551294834406
 20
-2.824428147167924
 10
12.00470691798222
 20
-2.824254035958279
 10
12.00319543081446
 20
-2.823997735606197
 10
12.0024993464546
 20
-2.823814612429185
 97
        0
 92
        3
 72
     0
 73
     1
 93
        8
 10
12.01437027035675
 20
-2.822138386497842
 10
12.01702663785955
 20
-2.822138386497842
 10
12.01702663785955
 20
-2.820013364591331
 10
12.00904852338376
 20
-2.820013364591331
 10
12.00904852338376
 20
-2.822138386497842
 10
12.01170489088656
 20
-2.822138386497842
 10
12.01170489088656
 20
-2.830382173771794
 10
12.01437027035675
 20
-2.830382173771794
 97
        0
 92
        3
 72
     0
 73
     1
 93
       12
 10
12.01889535941398
 20
-2.830382173771794
 10
12.02687347388978
 20
-2.830382173771794
 10
12.02687347388978
 20
-2.828522824663435
 10
12.02128605411865
 20
-2.828522824663435
 10
12.02128605411865
 20
-2.826132129958772
 10
12.02607645549534
 20
-2.826132129958772
 10
12.02607645549534
 20
-2.823997735606197
 10
12.02128605411865
 20
-2.823997735606197
 10
12.02128605411865
 20
-2.822138386497842
 10
12.02634212829349
 20
-2.822138386497842
 10
12.02634212829349
 20
-2.820013364591331
 10
12.01889535941398
 20
-2.820013364591331
 97
        0
 92
        3
 72
     0
 73
     1
 93
        4
 10
12.02873282299814
 20
-2.830382173771794
 10
12.03139820246832
 20
-2.830382173771794
 10
12.03139820246832
 20
-2.820013364591331
 10
12.02873282299814
 20
-2.820013364591331
 97
        0
 92
        3
 72
     0
 73
     1
 93
       10
 10
12.03618896432372
 20
-2.830382173771794
 10
12.03618896432372
 20
-2.823997735606197
 10
12.03990766254043
 20
-2.830382173771794
 10
12.04257304201061
 20
-2.830382173771794
 10
12.04257304201061
 20
-2.820013364591331
 10
12.04017333533858
 20
-2.820013364591331
 10
12.04017333533858
 20
-2.826663115076388
 10
12.03645463712187
 20
-2.820013364591331
 10
12.03378889717299
 20
-2.820013364591331
 10
12.03378889717299
 20
-2.830382173771794
 97
        0
 92
        3
 72
     0
 73
     1
 93
       10
 10
12.05348256923345
 20
-2.822138386497842
 10
12.05348256923345
 20
-2.820013364591331
 10
12.04496373671528
 20
-2.820013364591331
 10
12.04496373671528
 20
-2.822138386497842
 10
12.05028584416696
 20
-2.822138386497842
 10
12.04469842439582
 20
-2.828522824663435
 10
12.04469842439582
 20
-2.830382173771794
 10
12.05348256923345
 20
-2.830382173771794
 10
12.05348256923345
 20
-2.828522824663435
 10
12.0478951494623
 20
-2.828522824663435
 97
        0
 92
        3
 72
     0
 73
     1
 93
       12
 10
12.05560759113995
 20
-2.830382173771794
 10
12.06359471758312
 20
-2.830382173771794
 10
12.06359471758312
 20
-2.828522824663435
 10
12.05827297061014
 20
-2.828522824663435
 10
12.05827297061014
 20
-2.826132129958772
 10
12.0627886872213
 20
-2.826132129958772
 10
12.0627886872213
 20
-2.823997735606197
 10
12.05827297061014
 20
-2.823997735606197
 10
12.05827297061014
 20
-2.822138386497842
 10
12.06332003281761
 20
-2.822138386497842
 10
12.06332003281761
 20
-2.820013364591331
 10
12.05560759113995
 20
-2.820013364591331
 97
        0
 92
        3
 72
     0
 73
     1
 93
       42
 10
12.06811079467299
 20
-2.820013364591331
 10
12.06545442717019
 20
-2.820013364591331
 10
12.06545442717019
 20
-2.826928787874534
 10
12.06548182355099
 20
-2.827405340709205
 10
12.06556437317212
 20
-2.827854136684373
 10
12.06569234310882
 20
-2.828257151865287
 10
12.06585744235109
 20
-2.828632410186693
 10
12.06632462273969
 20
-2.82927370178494
 10
12.066919773065
 20
-2.829786662967797
 10
12.06760684545751
 20
-2.830171293735268
 10
12.06836709502507
 20
-2.830446338979491
 10
12.06917312538689
 20
-2.830602065775687
 10
12.06997915574872
 20
-2.830656858537319
 10
12.07069362452203
 20
-2.830602065775687
 10
12.0714264777088
 20
-2.830446338979491
 10
12.07214094648211
 20
-2.830171293735268
 10
12.0728002620151
 20
-2.829786662967797
 10
12.07337738840567
 20
-2.82927370178494
 10
12.07382618438083
 20
-2.828632410186693
 10
12.07400029559047
 20
-2.828257151865287
 10
12.07412862600585
 20
-2.827854136684373
 10
12.07420180318093
 20
-2.827405340709205
 10
12.07422919956174
 20
-2.826928787874534
 10
12.07422919956174
 20
-2.820013364591331
 10
12.07183850485707
 20
-2.820013364591331
 10
12.07183850485707
 20
-2.826663115076388
 10
12.07181110847626
 20
-2.827057118289923
 10
12.07173793130119
 20
-2.827441749057397
 10
12.07160058891843
 20
-2.827798983444049
 10
12.07140809329536
 20
-2.828128821449894
 10
12.07115179294327
 20
-2.828394494248046
 10
12.0708309669048
 20
-2.828605013805877
 10
12.07043732416995
 20
-2.828742356188636
 10
12.06997915574872
 20
-2.828788136982896
 10
12.06951197536011
 20
-2.828742356188636
 10
12.06912734459265
 20
-2.828605013805877
 10
12.06880687903286
 20
-2.828394494248046
 10
12.06855021820209
 20
-2.828128821449894
 10
12.06834871061163
 20
-2.827798983444049
 10
12.06822038019624
 20
-2.827441749057397
 10
12.0681381910538
 20
-2.827057118289923
 10
12.06811079467299
 20
-2.826663115076388
 97
        0
 92
        3
 72
     0
 73
     1
 93
       75
 10
12.07643677108938
 20
-2.826479991899366
 10
12.07665666309328
 20
-2.827505914265087
 10
12.07683077430292
 20
-2.827982106621067
 10
12.07703228189338
 20
-2.828421890628865
 10
12.07727957027809
 20
-2.828824905809773
 10
12.07756362748968
 20
-2.829191152163803
 10
12.07823231546874
 20
-2.82981405934861
 10
12.07862595820359
 20
-2.830061347733319
 10
12.07905636976531
 20
-2.830272227769845
 10
12.07952355015391
 20
-2.83043696653342
 10
12.08002749936941
 20
-2.83055628498144
 10
12.081153995291
 20
-2.830656858537319
 10
12.08209772851428
 20
-2.830602065775687
 10
12.08291277084347
 20
-2.830418582119977
 10
12.08327000523014
 20
-2.830272227769845
 10
12.08358145882254
 20
-2.830089104592824
 10
12.08385614358807
 20
-2.829859840142869
 10
12.08407603559197
 20
-2.829585155377342
 10
12.08407603559197
 20
-2.830382173771794
 10
12.08621042994454
 20
-2.830382173771794
 10
12.08621042994454
 20
-2.82479475400065
 10
12.08168534088731
 20
-2.82479475400065
 10
12.08168534088731
 20
-2.826663115076388
 10
12.08381036279381
 20
-2.826663115076388
 10
12.08375557003219
 20
-2.82712128349762
 10
12.08359047078992
 20
-2.827514926232459
 10
12.08335255485127
 20
-2.827835752270929
 10
12.08305011322625
 20
-2.82809205262302
 10
12.08271126325303
 20
-2.828284548246093
 10
12.08235402886638
 20
-2.828421890628865
 10
12.08168534088731
 20
-2.828522824663435
 10
12.08103503732168
 20
-2.828467671423115
 10
12.08048530731194
 20
-2.828284548246093
 10
12.08001848740203
 20
-2.828000491034508
 10
12.07965188056931
 20
-2.827624872234412
 10
12.07937719580378
 20
-2.827157691845802
 10
12.07917568821332
 20
-2.826617334282131
 10
12.07905636976531
 20
-2.826003799543386
 10
12.07901996141712
 20
-2.825335111564329
 10
12.07907475417875
 20
-2.824492312375621
 10
12.07921209656151
 20
-2.823777843602311
 10
12.07944136101149
 20
-2.823182693277006
 10
12.07975281460388
 20
-2.822706140442325
 10
12.08013744537135
 20
-2.8223398940883
 10
12.08059525331389
 20
-2.822074221290148
 10
12.08110821449674
 20
-2.821918494493946
 10
12.08168534088731
 20
-2.821872713699687
 10
12.08242720604144
 20
-2.821964275288193
 10
12.08276641649335
 20
-2.822083233257527
 10
12.08307750960706
 20
-2.822238960053721
 10
12.0836272396168
 20
-2.822660359648074
 10
12.08407603559197
 20
-2.823200717211748
 10
12.08621042994454
 20
-2.822404059295994
 10
12.08577965790412
 20
-2.821753755730371
 10
12.08530346554814
 20
-2.821204025720627
 10
12.08478149239791
 20
-2.820745857299395
 10
12.08421337797472
 20
-2.820379610945364
 10
12.08359047078992
 20
-2.820095553733779
 10
12.08291277084347
 20
-2.81989404614332
 10
12.0821892901028
 20
-2.819784100141364
 10
12.08141966808916
 20
-2.819747691793182
 10
12.08078774893697
 20
-2.819775088173998
 10
12.08021062254642
 20
-2.819857637795138
 10
12.07967026498275
 20
-2.819985607731826
 10
12.07916631576726
 20
-2.82016909138753
 10
12.07870850782471
 20
-2.820397995358808
 10
12.07829612019774
 20
-2.820672680124326
 10
12.07792086187634
 20
-2.820984133716737
 10
12.0775910238705
 20
-2.821341368103389
 10
12.07729795469153
 20
-2.821735371316928
 10
12.07705066630682
 20
-2.822156770911279
 10
12.07683978627029
 20
-2.822623590821197
 10
12.07666567506065
 20
-2.823109155623242
 10
12.07643677108938
 20
-2.824171846815843
 10
12.07636359391431
 20
-2.825335111564329
 97
        0
 92
       18
 72
     0
 73
     1
 93
       19
 10
12.00319543081446
 20
-2.806704130696476
 10
12.0040288575571
 20
-2.806777307871536
 10
12.00474332633042
 20
-2.806997199875438
 10
12.00533883713442
 20
-2.807336049848655
 10
12.00582440193647
 20
-2.807803230237263
 10
12.0061906482905
 20
-2.80838035662781
 10
12.00644694864257
 20
-2.80906742902032
 10
12.00660267543878
 20
-2.809836690555259
 10
12.00664845623303
 20
-2.810697874157407
 10
12.00660267543878
 20
-2.811558697280852
 10
12.00644694864257
 20
-2.812328319294501
 10
12.0061906482905
 20
-2.813015031208309
 10
12.00582440193647
 20
-2.813592157598857
 10
12.00533883713442
 20
-2.814059337987464
 10
12.00474332633042
 20
-2.814398187960685
 10
12.0040288575571
 20
-2.814618079964577
 10
12.00319543081446
 20
-2.814691257139647
 10
12.00079536366375
 20
-2.814691257139647
 10
12.00079536366375
 20
-2.806704130696476
 97
        0
 75
     0
 76
     1
 98
        0
  0
HATCH
  5
82
330
1F
100
AcDbEntity
  8
XR$1$TB_111_1
  6
AUSGEZOGEN
 62
    18
420
        0
440
 33554687
370
    35
100
AcDbHatch
 10
0.0
 20
0.0
 30
0.0
210
0.0
220
0.0
230
1.0
  2
SOLID
 70
     1
 71
     0
 91
       20
 92
        3
 72
     0
 73
     1
 93
        8
 10
12.13250382490259
 20
-2.805641439503875
 10
12.12265698887236
 20
-2.830382173771794
 10
12.12504768357701
 20
-2.830382173771794
 10
12.12797873584535
 20
-2.822935044413602
 10
12.13888826306818
 20
-2.822935044413602
 10
12.14154463057099
 20
-2.830382173771794
 10
12.14421001004117
 20
-2.830382173771794
 10
12.13462884680909
 20
-2.805641439503875
 97
        0
 92
        3
 72
     0
 73
     1
 93
      116
 10
12.14713205034213
 20
-2.818144643036904
 10
12.14716845869032
 20
-2.817191897846252
 10
12.14726002027883
 20
-2.816230140688228
 10
12.14741574707502
 20
-2.815259371562825
 10
12.14764501152499
 20
-2.814306626372173
 10
12.14793808070396
 20
-2.813381638041029
 10
12.14829531509061
 20
-2.81247467364463
 10
12.14872572665234
 20
-2.811613850521176
 10
12.14922967586783
 20
-2.810798447713286
 10
12.14980644177968
 20
-2.810047570591791
 10
12.15044773337793
 20
-2.809360498199284
 10
12.15116220215124
 20
-2.80874660298185
 10
12.15195922054571
 20
-2.80823364179899
 10
12.15282941611522
 20
-2.807812602683331
 10
12.15378180082718
 20
-2.807501149090926
 10
12.1548077231929
 20
-2.807308653467842
 10
12.15591619517976
 20
-2.807235476292774
 10
12.15723518672444
 20
-2.807317665435215
 10
12.15841683588636
 20
-2.807546929885181
 10
12.15895719345004
 20
-2.807720680616123
 10
12.15946078218684
 20
-2.807940572620025
 10
12.15992796257543
 20
-2.808197233450798
 10
12.16036774658323
 20
-2.808499314597136
 10
12.16115539253162
 20
-2.809241179751264
 10
12.16182408051067
 20
-2.810157156115036
 10
12.16238282248779
 20
-2.81126562810189
 10
12.16283161846295
 20
-2.812557223265763
 10
12.16522231316761
 20
-2.811228859275013
 10
12.16448044801349
 20
-2.809818306141818
 10
12.16361962489003
 20
-2.808590876185645
 10
12.16265786773201
 20
-2.807537557439108
 10
12.1621265221357
 20
-2.807079749496571
 10
12.16156778015858
 20
-2.806676734315654
 10
12.16098164180067
 20
-2.806310127482932
 10
12.16035873461585
 20
-2.805998673890536
 10
12.15969905860416
 20
-2.805723989125002
 10
12.15901198621166
 20
-2.805504097121109
 10
12.15753726787078
 20
-2.805211027942148
 10
12.15591619517976
 20
-2.805110454386266
 10
12.15451465401393
 20
-2.805183631561332
 10
12.15322305885007
 20
-2.80539415111916
 10
12.15201401330733
 20
-2.805742373538445
 10
12.15091491376655
 20
-2.806209553927053
 10
12.14990737581426
 20
-2.806795692284982
 10
12.14899139945049
 20
-2.807482764677482
 10
12.14816698467523
 20
-2.808261398658495
 10
12.14743413148847
 20
-2.809131594228013
 10
12.14679283989022
 20
-2.810083978939973
 10
12.14624347035917
 20
-2.811100889338321
 10
12.14577628997056
 20
-2.812172592498295
 10
12.14540067117047
 20
-2.813308460865959
 10
12.14510760199151
 20
-2.814471725614443
 10
12.14490609440105
 20
-2.815680771157185
 10
12.14477776398567
 20
-2.816908201113362
 10
12.14474135563747
 20
-2.818144643036904
 10
12.14477776398567
 20
-2.81948201899503
 10
12.14490609440105
 20
-2.820773614158897
 10
12.14510760199151
 20
-2.822019068049828
 10
12.14539165920309
 20
-2.823219101625188
 10
12.14575790555712
 20
-2.824354969992859
 10
12.14621607397836
 20
-2.825426673152835
 10
12.14674705909596
 20
-2.82643421110511
 10
12.14736996628078
 20
-2.82735919943626
 10
12.14806605064065
 20
-2.828201998624969
 10
12.14885405706772
 20
-2.828953236225162
 10
12.14973326460462
 20
-2.829603539790788
 10
12.15068600979527
 20
-2.830162281767895
 10
12.15172995609574
 20
-2.830592693329625
 10
12.15286582446341
 20
-2.830922531335465
 10
12.15407487000614
 20
-2.831115026958551
 10
12.15538484958346
 20
-2.831188204133617
 10
12.15648394912425
 20
-2.831124038925923
 10
12.1575924211111
 20
-2.830931543302843
 10
12.15867313623844
 20
-2.830611077743063
 10
12.15970843105023
 20
-2.830153269800532
 10
12.16066081576219
 20
-2.829557758996532
 10
12.16152199936434
 20
-2.828824905809773
 10
12.1622548525511
 20
-2.82795471024026
 10
12.16255693369744
 20
-2.827460133470834
 10
12.16283161846295
 20
-2.826928787874534
 10
12.16283161846295
 20
-2.830382173771794
 10
12.16495664036947
 20
-2.830382173771794
 10
12.16495664036947
 20
-2.817613297440607
 10
12.15378180082718
 20
-2.817613297440607
 10
12.15378180082718
 20
-2.819747691793182
 10
12.16283161846295
 20
-2.819747691793182
 10
12.16283161846295
 20
-2.821075695305237
 10
12.16273104490708
 20
-2.822413071263366
 10
12.16241959131467
 20
-2.823777843602311
 10
12.16217230292996
 20
-2.82445554354874
 10
12.161879233751
 20
-2.825115219560431
 10
12.16152199936434
 20
-2.825756511158677
 10
12.16110059976999
 20
-2.826361033930044
 10
12.160624407414
 20
-2.826928787874534
 10
12.16007467740427
 20
-2.827441749057397
 10
12.15947015463289
 20
-2.827899917478629
 10
12.15879245468647
 20
-2.828293560213472
 10
12.15805022905364
 20
-2.828614386251942
 10
12.15722581427837
 20
-2.828852302190592
 10
12.15634660674148
 20
-2.829008028986788
 10
12.15538484958346
 20
-2.829053809781041
 10
12.15432215839086
 20
-2.828989644573351
 10
12.15335138926546
 20
-2.82879750942896
 10
12.15244442486905
 20
-2.828486055836555
 10
12.15162037057248
 20
-2.828064656242207
 10
12.15087814493967
 20
-2.827542683091968
 10
12.15020044499322
 20
-2.826938160320598
 10
12.14959592222186
 20
-2.826251087928101
 10
12.14906457662556
 20
-2.825499850327904
 10
12.14859739623695
 20
-2.824684807998704
 10
12.1482037535021
 20
-2.823823624396555
 10
12.14786454305019
 20
-2.822917020478848
 10
12.14759923073074
 20
-2.821982659701636
 10
12.14739772314029
 20
-2.821029914510993
 10
12.14725100831145
 20
-2.82006815735296
 10
12.14715944672294
 20
-2.819106400194935
 97
        0
 92
        3
 72
     0
 73
     1
 93
       37
 10
12.1684190382341
 20
-2.830382173771794
 10
12.17080973293876
 20
-2.830382173771794
 10
12.17080973293876
 20
-2.81948201899503
 10
12.1763975131886
 20
-2.81948201899503
 10
12.18438463963176
 20
-2.830382173771794
 10
12.18730667993274
 20
-2.830382173771794
 10
12.17932856545693
 20
-2.81948201899503
 10
12.1809316142132
 20
-2.819280511404575
 10
12.18167347936734
 20
-2.819106400194935
 10
12.18236019128114
 20
-2.818886508191036
 10
12.18300148287939
 20
-2.818611823425512
 10
12.18358762123733
 20
-2.818291357865735
 10
12.18412833927969
 20
-2.817924751033011
 10
12.18461354360304
 20
-2.817512723884728
 10
12.18505332761083
 20
-2.817054555463493
 10
12.18542894641093
 20
-2.816550966726701
 10
12.18575878441678
 20
-2.816001236716957
 10
12.18602409673623
 20
-2.81539671394559
 10
12.18623497677275
 20
-2.814755422347349
 10
12.18639070356896
 20
-2.814068710433532
 10
12.18648226515747
 20
-2.813335857246775
 10
12.18650966153827
 20
-2.812557223265763
 10
12.18640908798239
 20
-2.81126562810189
 10
12.18609763438999
 20
-2.810019813732277
 10
12.18585935797266
 20
-2.809424663406972
 10
12.18557530076107
 20
-2.808847537016424
 10
12.18521806637441
 20
-2.808307179452751
 10
12.1848150511935
 20
-2.807803230237263
 10
12.18434787080489
 20
-2.807336049848655
 10
12.18382589765465
 20
-2.806924022700368
 10
12.18323038685066
 20
-2.806548403900268
 10
12.18258008328504
 20
-2.806236950307869
 10
12.18186561451172
 20
-2.805980649955781
 10
12.18108698053071
 20
-2.805797166300074
 10
12.18024454182071
 20
-2.805678208330755
 10
12.17932856545693
 20
-2.805641439503875
 10
12.1684190382341
 20
-2.805641439503875
 97
        0
 92
        3
 72
     0
 73
     1
 93
       64
 10
12.18826843709076
 20
-2.820617887362707
 10
12.18847895664858
 20
-2.821817560459369
 10
12.18876301386018
 20
-2.822990197653923
 10
12.18913863266027
 20
-2.82411669357552
 10
12.18959644060281
 20
-2.825197769181564
 10
12.19013715864518
 20
-2.82621431910122
 10
12.19076907779736
 20
-2.827157691845802
 10
12.19148354657068
 20
-2.82802788741532
 10
12.1922895769325
 20
-2.8288158938424
 10
12.19318716888284
 20
-2.829502605756208
 10
12.1941673104543
 20
-2.830079732146762
 10
12.19524802558166
 20
-2.830546912535369
 10
12.19641129033013
 20
-2.830895134954651
 10
12.19766647714582
 20
-2.831115026958551
 10
12.19900313214655
 20
-2.831188204133617
 10
12.20031311172386
 20
-2.831115026958551
 10
12.20153152971267
 20
-2.830895134954651
 10
12.20265802563427
 20
-2.830546912535369
 10
12.20370233241343
 20
-2.830079732146762
 10
12.2046547171254
 20
-2.829502605756208
 10
12.20553428514097
 20
-2.8288158938424
 10
12.20632193108937
 20
-2.82802788741532
 10
12.20701801544924
 20
-2.827157691845802
 10
12.20764092263404
 20
-2.82621431910122
 10
12.20817226823035
 20
-2.825197769181564
 10
12.20863007617289
 20
-2.82411669357552
 10
12.20899668300561
 20
-2.822990197653923
 10
12.20928037973851
 20
-2.821817560459369
 10
12.20949125977503
 20
-2.820617887362707
 10
12.20961021774435
 20
-2.81939045740653
 10
12.20964698657123
 20
-2.818144643036904
 10
12.20961021774435
 20
-2.816908201113362
 10
12.20949125977503
 20
-2.815680771157185
 10
12.20928037973851
 20
-2.814471725614443
 10
12.20899668300561
 20
-2.813308460865959
 10
12.20863007617289
 20
-2.812172592498295
 10
12.20817226823035
 20
-2.811100889338321
 10
12.20764092263404
 20
-2.810083978939973
 10
12.20701801544924
 20
-2.809131594228013
 10
12.20632193108937
 20
-2.808261398658495
 10
12.20553428514097
 20
-2.807482764677482
 10
12.2046547171254
 20
-2.806795692284982
 10
12.20370233241343
 20
-2.806209553927053
 10
12.20265802563427
 20
-2.805742373538445
 10
12.20153152971267
 20
-2.80539415111916
 10
12.20031311172386
 20
-2.805183631561332
 10
12.19900313214655
 20
-2.805110454386266
 10
12.19766647714582
 20
-2.805183631561332
 10
12.19641129033013
 20
-2.80539415111916
 10
12.19524802558166
 20
-2.805742373538445
 10
12.1941673104543
 20
-2.806209553927053
 10
12.19318716888284
 20
-2.806795692284982
 10
12.1922895769325
 20
-2.807482764677482
 10
12.19148354657068
 20
-2.808261398658495
 10
12.19076907779736
 20
-2.809131594228013
 10
12.19013715864518
 20
-2.810083978939973
 10
12.18959644060281
 20
-2.811100889338321
 10
12.18913863266027
 20
-2.812172592498295
 10
12.18876301386018
 20
-2.813308460865959
 10
12.18847895664858
 20
-2.814471725614443
 10
12.18826843709076
 20
-2.815680771157185
 10
12.18814947912144
 20
-2.816908201113362
 10
12.18811271029455
 20
-2.818144643036904
 10
12.18814947912144
 20
-2.81939045740653
 97
        0
 92
        3
 72
     0
 73
     1
 93
       57
 10
12.2234872055837
 20
-2.830382173771794
 10
12.22449474353598
 20
-2.830345404944914
 10
12.22542910431319
 20
-2.830244831389035
 10
12.22629929988271
 20
-2.83007072017939
 10
12.2270873063098
 20
-2.82983244376205
 10
12.22781078705048
 20
-2.829539374583089
 10
12.22847010258348
 20
-2.829191152163803
 10
12.22905660142009
 20
-2.82879750942896
 10
12.22956956260296
 20
-2.828357725421169
 10
12.2300273705455
 20
-2.827872160619121
 10
12.23041200131297
 20
-2.82735919943626
 10
12.23074183931881
 20
-2.826809829905211
 10
12.23100751211697
 20
-2.826232703514661
 10
12.23120901970742
 20
-2.825637192710664
 10
12.23135573453625
 20
-2.825014646004549
 10
12.23143792367868
 20
-2.824382366373674
 10
12.23146532005951
 20
-2.823732062808052
 10
12.23139214288443
 20
-2.822477236471059
 10
12.23116323891316
 20
-2.82131397172258
 10
12.23098011573616
 20
-2.820764241712832
 10
12.23076923569962
 20
-2.820251280529972
 10
12.23050356290147
 20
-2.819766076206625
 10
12.23020148175514
 20
-2.819307907785391
 10
12.22985325933586
 20
-2.818895880637107
 10
12.22946862856839
 20
-2.818510889390941
 10
12.22902884456059
 20
-2.818163027450348
 10
12.22855265220461
 20
-2.817860585825315
 10
12.2280213066083
 20
-2.817594913027169
 10
12.22744418021775
 20
-2.817384393469332
 10
12.22682163351164
 20
-2.817210282259699
 10
12.22614357308651
 20
-2.817081951844303
 10
12.22726105704074
 20
-2.816825651492222
 10
12.22774662184278
 20
-2.816642528315203
 10
12.22819541781795
 20
-2.816431648278677
 10
12.22898306376633
 20
-2.815928059541893
 10
12.22960597095114
 20
-2.815286767943641
 10
12.23008252378581
 20
-2.814526518376071
 10
12.23026564696283
 20
-2.814096106814344
 10
12.23041200131297
 20
-2.813637938393116
 10
12.23060449693606
 20
-2.812630400440832
 10
12.23066866214375
 20
-2.811494532073162
 10
12.23062288134949
 20
-2.810862612920983
 10
12.23043975817248
 20
-2.810019813732277
 10
12.23028403137627
 20
-2.809552633343669
 10
12.23006413937237
 20
-2.809058056574246
 10
12.22978909412816
 20
-2.808563479804832
 10
12.22944123218756
 20
-2.808068903035409
 10
12.22901082062584
 20
-2.807592710679429
 10
12.22849785944298
 20
-2.807143914704261
 10
12.22789333667162
 20
-2.806731527077286
 10
12.22718787986567
 20
-2.806374292690628
 10
12.22637283753648
 20
-2.806072211544288
 10
12.22544748872663
 20
-2.805842947094324
 10
12.22440318194747
 20
-2.805696592744195
 10
12.22322153278555
 20
-2.805641439503875
 10
12.21257803883957
 20
-2.805641439503875
 10
12.21257803883957
 20
-2.830382173771794
 97
        0
 92
        3
 72
     0
 73
     1
 93
       56
 10
12.23945280698137
 20
-2.830382173771794
 10
12.25062764652366
 20
-2.830382173771794
 10
12.25289001081293
 20
-2.830299624150661
 10
12.25392530562472
 20
-2.830180666181336
 10
12.25489607475011
 20
-2.830015566939069
 10
12.25579366670044
 20
-2.829796035413868
 10
12.25662745392178
 20
-2.829530362615713
 10
12.25738770348934
 20
-2.829209536577244
 10
12.25807477588185
 20
-2.828824905809773
 10
12.25868831062059
 20
-2.828385121801981
 10
12.25921965621689
 20
-2.827881533065185
 10
12.25967746415943
 20
-2.827313418642004
 10
12.26005308295953
 20
-2.826681499489819
 10
12.2603461521385
 20
-2.825985415129946
 10
12.26055703217502
 20
-2.825216153595001
 10
12.26069437455778
 20
-2.824382366373674
 10
12.26073078290596
 20
-2.823466390009897
 10
12.26070338652515
 20
-2.822797702030837
 10
12.26061182493664
 20
-2.822165782878652
 10
12.2604654705865
 20
-2.821588656488104
 10
12.26026396299606
 20
-2.8210573108918
 10
12.26001631413265
 20
-2.820572106568448
 10
12.25972324495368
 20
-2.820132322560659
 10
12.25938439498047
 20
-2.819738319347117
 10
12.25900877618037
 20
-2.819381084960456
 10
12.25858737658602
 20
-2.819060619400685
 10
12.25813858061086
 20
-2.818785934635154
 10
12.2576533762875
 20
-2.818547658217822
 10
12.25714041510464
 20
-2.818346150627363
 10
12.25605032753122
 20
-2.818043709002337
 10
12.25487769033667
 20
-2.817878970238756
 10
12.25487769033667
 20
-2.817613297440607
 10
12.25601355870434
 20
-2.817274447467389
 10
12.25702109665662
 20
-2.816853047873041
 10
12.25788228025877
 20
-2.816340086690178
 10
12.25860576099945
 20
-2.815717179505367
 10
12.25917387542264
 20
-2.814984686797303
 10
12.25940277939391
 20
-2.814581671616395
 10
12.25959527501699
 20
-2.814132515162536
 10
12.25985157536908
 20
-2.813152734069757
 10
12.25993412499021
 20
-2.812025877669465
 10
12.25989735616334
 20
-2.811210835340267
 10
12.25977839819401
 20
-2.810459597740071
 10
12.25958590257093
 20
-2.809763513380192
 10
12.25932022977277
 20
-2.809122221781946
 10
12.25899075224562
 20
-2.808545095391391
 10
12.25858737658602
 20
-2.808023122241158
 10
12.25812956864348
 20
-2.807555941852557
 10
12.25760759549325
 20
-2.807143914704261
 10
12.25703046910269
 20
-2.806777307871536
 10
12.25639854995051
 20
-2.806465854279134
 10
12.25572048952538
 20
-2.806209553927053
 10
12.25499700878469
 20
-2.806008046336597
 10
12.25342135640924
 20
-2.805733001092378
 10
12.25169033771625
 20
-2.805641439503875
 10
12.23945280698137
 20
-2.805641439503875
 97
        0
 92
        3
 72
     0
 73
     1
 93
       58
 10
12.26499019916505
 20
-2.821872713699687
 10
12.26505436437274
 20
-2.823072747275059
 10
12.26523748754976
 20
-2.824180858783216
 10
12.26553992917479
 20
-2.825197769181564
 10
12.26594294435571
 20
-2.826132129958772
 10
12.26643752112513
 20
-2.826983941114854
 10
12.26701464751568
 20
-2.827744190682423
 10
12.2676649510813
 20
-2.828421890628865
 10
12.26837941985462
 20
-2.829026413400225
 10
12.26915805383563
 20
-2.829548386550464
 10
12.26998246861089
 20
-2.829988170558256
 10
12.27083427976696
 20
-2.830363789358358
 10
12.27172249927123
 20
-2.830665870504685
 10
12.27262946366764
 20
-2.830895134954651
 10
12.27354544003141
 20
-2.83105987371823
 10
12.27446141639518
 20
-2.831151435306736
 10
12.27536838079158
 20
-2.831188204133617
 10
12.27627498470928
 20
-2.831151435306736
 10
12.27719096107306
 20
-2.83105987371823
 10
12.27810693743683
 20
-2.830895134954651
 10
12.27900452938716
 20
-2.830665870504685
 10
12.27989310937012
 20
-2.830363789358358
 10
12.28075429297227
 20
-2.829988170558256
 10
12.28157870774754
 20
-2.829548386550464
 10
12.28234796928247
 20
-2.829026413400225
 10
12.28307145002317
 20
-2.828421890628865
 10
12.28372211406749
 20
-2.827744190682423
 10
12.28429887997934
 20
-2.826983941114854
 10
12.28479381722745
 20
-2.826132129958772
 10
12.28519683240837
 20
-2.825197769181564
 10
12.28549891355471
 20
-2.824180858783216
 10
12.28568203673172
 20
-2.823072747275059
 10
12.28574620193941
 20
-2.821872713699687
 10
12.28574620193941
 20
-2.805641439503875
 10
12.27962743657197
 20
-2.805641439503875
 10
12.27962743657197
 20
-2.821341368103389
 10
12.27957264381034
 20
-2.822312497707481
 10
12.27940754456808
 20
-2.823210089657819
 10
12.27912384783517
 20
-2.824025131987016
 10
12.27869307579476
 20
-2.824730588792963
 10
12.2781163098829
 20
-2.825316727150883
 10
12.27776808746361
 20
-2.825555003568219
 10
12.27738345669614
 20
-2.825756511158677
 10
12.27694367268835
 20
-2.82591223795488
 10
12.27646748033237
 20
-2.826031195924202
 10
12.27536838079158
 20
-2.826132129958772
 10
12.2742689207721
 20
-2.826031195924202
 10
12.27379272841611
 20
-2.82591223795488
 10
12.27335294440832
 20
-2.825756511158677
 10
12.27296831364085
 20
-2.825555003568219
 10
12.27262045170026
 20
-2.825316727150883
 10
12.27204332530971
 20
-2.824730588792963
 10
12.27161291374799
 20
-2.824025131987016
 10
12.27132885653639
 20
-2.823210089657819
 10
12.27116375729413
 20
-2.822312497707481
 10
12.2711089645325
 20
-2.821341368103389
 10
12.2711089645325
 20
-2.805641439503875
 10
12.26499019916505
 20
-2.805641439503875
 97
        0
 92
        3
 72
     0
 73
     1
 93
      105
 10
12.29612438356594
 20
-2.818144643036904
 10
12.29615177994676
 20
-2.817137105084627
 10
12.29624334153526
 20
-2.816202744307418
 10
12.29639005636409
 20
-2.8153325487379
 10
12.29659156395455
 20
-2.814544902789512
 10
12.29683885233926
 20
-2.813821061570128
 10
12.2971409334856
 20
-2.813170758004512
 10
12.29748915590488
 20
-2.812584619646582
 10
12.29788279863973
 20
-2.812062646496343
 10
12.29831357068016
 20
-2.811604478075111
 10
12.29878075106875
 20
-2.811219847307637
 10
12.29928433980554
 20
-2.810890009301792
 10
12.29982469736922
 20
-2.810624336503643
 10
12.3003928117924
 20
-2.810422828913185
 10
12.30098796211771
 20
-2.810276474563056
 10
12.30160185733514
 20
-2.810193924941919
 10
12.30224314893339
 20
-2.810166528561101
 10
12.30303980684914
 20
-2.810239705736175
 10
12.30381844083016
 20
-2.810450585772702
 10
12.30456030598428
 20
-2.810780063299846
 10
12.30526576279023
 20
-2.811228859275013
 10
12.30590705438847
 20
-2.811778589284754
 10
12.3064657963656
 20
-2.81241050843694
 10
12.3069326162755
 20
-2.813115965242877
 10
12.30729922310822
 20
-2.813894599223889
 10
12.3123462853157
 20
-2.811494532073162
 10
12.31141192453849
 20
-2.810074966972594
 10
12.31039501414013
 20
-2.808810768189537
 10
12.30927753018591
 20
-2.807720680616123
 10
12.30868237986061
 20
-2.807244488260143
 10
12.3080594726758
 20
-2.806804704252355
 10
12.30740916911017
 20
-2.806420073484881
 10
12.30673110868504
 20
-2.80608122351166
 10
12.30601663991172
 20
-2.805788154332698
 10
12.30527477475761
 20
-2.80554987791536
 10
12.30450551322265
 20
-2.805357742770974
 10
12.30369948286083
 20
-2.805220039909515
 10
12.30285668367213
 20
-2.805137850767073
 10
12.30197747613524
 20
-2.805110454386266
 10
12.30056692300204
 20
-2.805183631561332
 10
12.29924757097866
 20
-2.805385139151787
 10
12.29800211708774
 20
-2.805723989125002
 10
12.29684786430663
 20
-2.806172785100166
 10
12.29577616114666
 20
-2.806740899523354
 10
12.29479601957519
 20
-2.807409227023721
 10
12.29389842762486
 20
-2.808178849037355
 10
12.29309239726303
 20
-2.809030660193436
 10
12.29237792848971
 20
-2.809974032938027
 10
12.29175502130491
 20
-2.810981570890304
 10
12.29122367570861
 20
-2.812062646496343
 10
12.29078425217951
 20
-2.813189142417948
 10
12.2904450417276
 20
-2.814379803547244
 10
12.29019775334288
 20
-2.815598221536046
 10
12.29005139899275
 20
-2.816862420319102
 10
12.28999624575243
 20
-2.818144643036904
 10
12.29005139899275
 20
-2.819436238200777
 10
12.29020712578895
 20
-2.820691064537773
 10
12.29047279858711
 20
-2.821918494493946
 10
12.29083003297377
 20
-2.823100143655869
 10
12.29129721336237
 20
-2.82423601202354
 10
12.29185595533949
 20
-2.825316727150883
 10
12.29250625890511
 20
-2.826324265103164
 10
12.29325713602661
 20
-2.827258625880381
 10
12.29410894718269
 20
-2.828119449003826
 10
12.2950433079599
 20
-2.828880059050097
 10
12.29606923032562
 20
-2.829557758996532
 10
12.29718671427985
 20
-2.830116500973642
 10
12.29838674785521
 20
-2.830574308916182
 10
12.29967834301909
 20
-2.830904146922027
 10
12.30105212732539
 20
-2.831115026958551
 10
12.30250846125285
 20
-2.831188204133617
 10
12.30325068688567
 20
-2.831160807752807
 10
12.30398317959373
 20
-2.83107825813167
 10
12.3054305015538
 20
-2.830748420125825
 10
12.30612658591368
 20
-2.830510504187184
 10
12.30681365830618
 20
-2.830217074529521
 10
12.30748234628524
 20
-2.829878224556306
 10
12.30812363788349
 20
-2.829484581821463
 10
12.30935106783967
 20
-2.828577617425067
 10
12.31047756376127
 20
-2.827478517884278
 10
12.31147608974618
 20
-2.826223691547285
 10
12.31193389768872
 20
-2.825527246708714
 10
12.3123462853157
 20
-2.82479475400065
 10
12.30756489590638
 20
-2.822404059295994
 10
12.30710672748515
 20
-2.823237486038629
 10
12.30654798550804
 20
-2.823951954811947
 10
12.30591606635586
 20
-2.824547465615944
 10
12.30522899396334
 20
-2.825032669939291
 10
12.3045238976361
 20
-2.825399276772016
 10
12.30381844083016
 20
-2.825655577124101
 10
12.30314074088372
 20
-2.825811303920303
 10
12.30250846125285
 20
-2.825866457160627
 10
12.30160185733514
 20
-2.825811303920303
 10
12.30077744255987
 20
-2.825673961537544
 10
12.30003557740574
 20
-2.825445057566273
 10
12.29937590139405
 20
-2.825142615941243
 10
12.29878075106875
 20
-2.824766997141145
 10
12.29826778988589
 20
-2.824336585579418
 10
12.29780962146466
 20
-2.823842008809995
 10
12.29741561825112
 20
-2.823301651246325
 10
12.29708614072397
 20
-2.822724524855768
 10
12.29681109547975
 20
-2.822110990117029
 10
12.29658219150848
 20
-2.821469698518778
 10
12.29640808029884
 20
-2.820810022507091
 10
12.29618854877364
 20
-2.819472646548968
 97
        0
 92
        3
 72
     0
 73
     1
 93
       12
 10
12.31580868318033
 20
-2.830382173771794
 10
12.32192744854777
 20
-2.830382173771794
 10
12.32192744854777
 20
-2.820013364591331
 10
12.3312429389817
 20
-2.820013364591331
 10
12.3312429389817
 20
-2.830382173771794
 10
12.33736134387044
 20
-2.830382173771794
 10
12.33736134387044
 20
-2.805641439503875
 10
12.3312429389817
 20
-2.805641439503875
 10
12.3312429389817
 20
-2.814691257139647
 10
12.32192744854777
 20
-2.814691257139647
 10
12.32192744854777
 20
-2.805641439503875
 10
12.31580868318033
 20
-2.805641439503875
 97
        0
 92
        3
 72
     0
 73
     1
 93
        8
 10
12.35332694526813
 20
-2.810432201359258
 10
12.35971138343371
 20
-2.810432201359258
 10
12.35971138343371
 20
-2.805641439503875
 10
12.34054905696956
 20
-2.805641439503875
 10
12.34054905696956
 20
-2.810432201359258
 10
12.34720817990068
 20
-2.810432201359258
 10
12.34720817990068
 20
-2.830382173771794
 10
12.35332694526813
 20
-2.830382173771794
 97
        0
 92
        3
 72
     0
 73
     1
 93
        8
 10
12.35784266187929
 20
-2.830382173771794
 10
12.36450178481041
 20
-2.830382173771794
 10
12.36583014880115
 20
-2.826663115076388
 10
12.37487059399086
 20
-2.826663115076388
 10
12.37620796994899
 20
-2.830382173771794
 10
12.38285808091273
 20
-2.830382173771794
 10
12.37354259047881
 20
-2.805641439503875
 10
12.36715815231322
 20
-2.805641439503875
 97
        0
 92
        3
 72
     0
 73
     1
 93
        6
 10
12.38551444841555
 20
-2.830382173771794
 10
12.40147968933453
 20
-2.830382173771794
 10
12.40147968933453
 20
-2.825335111564329
 10
12.39189888658114
 20
-2.825335111564329
 10
12.39189888658114
 20
-2.805641439503875
 10
12.38551444841555
 20
-2.805641439503875
 97
        0
 92
       18
 72
     0
 73
     1
 93
        3
 10
12.1335661556165
 20
-2.808838164570359
 10
12.13809124467372
 20
-2.821075695305237
 10
12.1287757542398
 20
-2.821075695305237
 97
        0
 92
       18
 72
     0
 73
     1
 93
       29
 10
12.17853154706248
 20
-2.808041506654596
 10
12.18000626540336
 20
-2.808114683829665
 10
12.18124270732691
 20
-2.808334575833557
 10
12.18177405292322
 20
-2.808499314597136
 10
12.18225060575789
 20
-2.808700822187588
 10
12.18268101731961
 20
-2.808930086637558
 10
12.18305663611971
 20
-2.809204771403082
 10
12.18337710167949
 20
-2.80950685254941
 10
12.18365178644501
 20
-2.809846063001332
 10
12.18388105089497
 20
-2.810212309355359
 10
12.18406417407199
 20
-2.810615324536268
 10
12.18430209001064
 20
-2.81152228893267
 10
12.18438463963176
 20
-2.812557223265763
 10
12.18432047442408
 20
-2.813454815216097
 10
12.18410058242018
 20
-2.814315998818243
 10
12.18392683168923
 20
-2.81472802596653
 10
12.18370693968534
 20
-2.815131041147438
 10
12.18344126688718
 20
-2.815506659947539
 10
12.18312080132741
 20
-2.815854882366827
 10
12.18274518252732
 20
-2.816175347926599
 10
12.18230539851951
 20
-2.816468417105564
 10
12.18180144930403
 20
-2.816724717457645
 10
12.18124270732691
 20
-2.816935597494168
 10
12.18061078817473
 20
-2.817109708703814
 10
12.17990569184748
 20
-2.817237678640509
 10
12.17911768542041
 20
-2.817320228261645
 10
12.17826587426432
 20
-2.817347624642461
 10
12.17080973293876
 20
-2.817347624642461
 10
12.17080973293876
 20
-2.808041506654596
 97
        0
 92
       18
 72
     0
 73
     1
 93
       64
 10
12.19053080138003
 20
-2.817191897846252
 10
12.19063173541461
 20
-2.816230140688228
 10
12.19078746221081
 20
-2.815259371562825
 10
12.1910073542147
 20
-2.814306626372173
 10
12.19130042339367
 20
-2.813381638041029
 10
12.19165765778033
 20
-2.81247467364463
 10
12.19207869689598
 20
-2.811613850521176
 10
12.19256426169802
 20
-2.810798447713286
 10
12.19312300367514
 20
-2.810047570591791
 10
12.19375528330602
 20
-2.809360498199284
 10
12.19445136766589
 20
-2.80874660298185
 10
12.19522062920084
 20
-2.80823364179899
 10
12.19605405594347
 20
-2.807812602683331
 10
12.19697003230725
 20
-2.807501149090926
 10
12.19794981340002
 20
-2.807308653467842
 10
12.19900313214655
 20
-2.807235476292774
 10
12.20006582333916
 20
-2.807308653467842
 10
12.20104596491062
 20
-2.807501149090926
 10
12.20194355686095
 20
-2.807812602683331
 10
12.20276797163622
 20
-2.80823364179899
 10
12.20350983679035
 20
-2.80874660298185
 10
12.20418789721547
 20
-2.809360498199284
 10
12.20479241998685
 20
-2.810047570591791
 10
12.20532340510446
 20
-2.810798447713286
 10
12.20579058549305
 20
-2.811613850521176
 10
12.20618458870659
 20
-2.81247467364463
 10
12.20652343867981
 20
-2.813381638041029
 10
12.20678911147797
 20
-2.814306626372173
 10
12.20699963103579
 20
-2.815259371562825
 10
12.20713733389725
 20
-2.816230140688228
 10
12.20722889548576
 20
-2.817191897846252
 10
12.20725629186657
 20
-2.818144643036904
 10
12.20722889548576
 20
-2.819106400194935
 10
12.20713733389725
 20
-2.82006815735296
 10
12.20699963103579
 20
-2.821029914510993
 10
12.20678911147797
 20
-2.821982659701636
 10
12.20652343867981
 20
-2.822917020478848
 10
12.20618458870659
 20
-2.823823624396555
 10
12.20579058549305
 20
-2.824684807998704
 10
12.20532340510446
 20
-2.825499850327904
 10
12.20479241998685
 20
-2.826251087928101
 10
12.20418789721547
 20
-2.826938160320598
 10
12.20350983679035
 20
-2.827542683091968
 10
12.20276797163622
 20
-2.828064656242207
 10
12.20194355686095
 20
-2.828486055836555
 10
12.20104596491062
 20
-2.82879750942896
 10
12.20006582333916
 20
-2.828989644573351
 10
12.19900313214655
 20
-2.829053809781041
 10
12.19794981340002
 20
-2.828989644573351
 10
12.19697003230725
 20
-2.82879750942896
 10
12.19605405594347
 20
-2.828486055836555
 10
12.19522062920084
 20
-2.828064656242207
 10
12.19445136766589
 20
-2.827542683091968
 10
12.19375528330602
 20
-2.826938160320598
 10
12.19312300367514
 20
-2.826251087928101
 10
12.19256426169802
 20
-2.825499850327904
 10
12.19207869689598
 20
-2.824684807998704
 10
12.19165765778033
 20
-2.823823624396555
 10
12.19130042339367
 20
-2.822917020478848
 10
12.1910073542147
 20
-2.821982659701636
 10
12.19078746221081
 20
-2.821029914510993
 10
12.19063173541461
 20
-2.82006815735296
 10
12.19053080138003
 20
-2.819106400194935
 10
12.19050340499921
 20
-2.818144643036904
 97
        0
 92
       18
 72
     0
 73
     1
 93
       26
 10
12.22269054766794
 20
-2.808041506654596
 10
12.22400016676656
 20
-2.808077915002784
 10
12.22512702316685
 20
-2.808215617864244
 10
12.22608878032489
 20
-2.808453533802879
 10
12.22651017991924
 20
-2.808627645012525
 10
12.22687642627327
 20
-2.808838164570359
 10
12.22720626427911
 20
-2.809076440987696
 10
12.2274903214907
 20
-2.809360498199284
 10
12.22772823742934
 20
-2.809690336205126
 10
12.22792073305243
 20
-2.810056582559157
 10
12.22807645984863
 20
-2.810477982153505
 10
12.22818640585059
 20
-2.810935790096048
 10
12.22827796743909
 20
-2.812025877669465
 10
12.22817703340451
 20
-2.812978622860117
 10
12.22805807543519
 20
-2.813409034421841
 10
12.22788396422554
 20
-2.813812049602749
 10
12.22767344466772
 20
-2.814196680370223
 10
12.22741678383694
 20
-2.814544902789512
 10
12.22677585271739
 20
-2.81515843752826
 10
12.22597883432293
 20
-2.815644002330305
 10
12.22551165393433
 20
-2.815836497953387
 10
12.2250170771649
 20
-2.815992224749587
 10
12.22391797762412
 20
-2.816211756274791
 10
12.22269054766794
 20
-2.816285293928551
 10
12.21496873354422
 20
-2.816285293928551
 10
12.21496873354422
 20
-2.808041506654596
 97
        0
 92
       18
 72
     0
 73
     1
 93
       28
 10
12.22269054766794
 20
-2.818410315835062
 10
12.22418365042227
 20
-2.818510889390941
 10
12.22548425755351
 20
-2.81879494660253
 10
12.226052011498
 20
-2.819005826639056
 10
12.22657434512693
 20
-2.819253115023765
 10
12.22705053748291
 20
-2.819546184202726
 10
12.22747193707726
 20
-2.819875661729877
 10
12.22784755587736
 20
-2.820242268562605
 10
12.22817703340451
 20
-2.820645283743517
 10
12.22845207864873
 20
-2.821085067751314
 10
12.22867161017393
 20
-2.821552248139912
 10
12.22884572138357
 20
-2.822055836876708
 10
12.22897405179896
 20
-2.822587182473006
 10
12.22907462535484
 20
-2.823732062808052
 10
12.2289924362124
 20
-2.824538093169877
 10
12.22876353224113
 20
-2.825335111564329
 10
12.22836015658152
 20
-2.826104373099271
 10
12.2277740182236
 20
-2.826791445491771
 10
12.22741678383694
 20
-2.827102899084176
 10
12.22700475668866
 20
-2.827386956295765
 10
12.22654658826742
 20
-2.82763424468048
 10
12.22604299953063
 20
-2.827854136684373
 10
12.22548425755351
 20
-2.828018875447948
 10
12.22487036233609
 20
-2.828147205863334
 10
12.22420167435701
 20
-2.828229395005773
 10
12.2234872055837
 20
-2.828257151865287
 10
12.21496873354422
 20
-2.828257151865287
 10
12.21496873354422
 20
-2.818410315835062
 97
        0
 92
       18
 72
     0
 73
     1
 93
       19
 10
12.25062764652366
 20
-2.810432201359258
 10
12.25129633450272
 20
-2.810459597740071
 10
12.25191022972015
 20
-2.810542147361205
 10
12.25245058728383
 20
-2.810697874157407
 10
12.25291776767243
 20
-2.810926778128673
 10
12.25329338647254
 20
-2.811247243688453
 10
12.25357708320543
 20
-2.811668643282808
 10
12.25375119441508
 20
-2.812190976911738
 10
12.25381535962277
 20
-2.812822896063915
 10
12.25375119441508
 20
-2.813473199629535
 10
12.25357708320543
 20
-2.814031941606651
 10
12.25329338647254
 20
-2.814489749549191
 10
12.25291776767243
 20
-2.81485635638192
 10
12.25245058728383
 20
-2.815140413593506
 10
12.25191022972015
 20
-2.8153325487379
 10
12.25129633450272
 20
-2.815451506707218
 10
12.25062764652366
 20
-2.815488275534099
 10
12.24530589955067
 20
-2.815488275534099
 10
12.24530589955067
 20
-2.810432201359258
 97
        0
 92
       18
 72
     0
 73
     1
 93
       19
 10
12.25169033771625
 20
-2.820013364591331
 10
12.25242319090301
 20
-2.820059145385587
 10
12.25304573760912
 20
-2.820205499735724
 10
12.25354968682462
 20
-2.820443776153058
 10
12.25395270200553
 20
-2.820773614158897
 10
12.25424577118449
 20
-2.821195013753257
 10
12.25445665122102
 20
-2.821689590522675
 10
12.25457560919033
 20
-2.822275728880607
 10
12.25461237801722
 20
-2.822935044413602
 10
12.25457560919033
 20
-2.823521543250217
 10
12.25443826680757
 20
-2.82407091278127
 10
12.25419097842287
 20
-2.82456548955069
 10
12.25381535962277
 20
-2.824996261591109
 10
12.25329338647254
 20
-2.825362507945139
 10
12.25259694163397
 20
-2.825628180743291
 10
12.2517087221297
 20
-2.825802291952931
 10
12.25062764652366
 20
-2.825866457160627
 10
12.24557157234882
 20
-2.825866457160627
 10
12.24557157234882
 20
-2.820013364591331
 97
        0
 92
       18
 72
     0
 73
     1
 93
        3
 10
12.3703548773797
 20
-2.811760204871313
 10
12.37327691768066
 20
-2.822138386497842
 10
12.36715815231322
 20
-2.822138386497842
 97
        0
 75
     0
 76
     1
 98
        0
  0
HATCH
  5
84
102
{ACAD_REACTORS
330
83
102
}
330
1F
100
AcDbEntity
  8
XR$1$TB_111_1
  6
AUSGEZOGEN
 62
     3
440
 33554687
370
    35
100
AcDbHatch
 10
0.0
 20
0.0
 30
0.0
210
0.0
220
0.0
230
1.0
  2
SOLID
 70
     1
 71
     0
 91
        1
 92
        3
 72
     0
 73
     1
 93
       22
 10
12.09365719882404
 20
-2.830656858537319
 10
12.10882578182726
 20
-2.830656858537319
 10
12.10754355910946
 20
-2.82981405934861
 10
12.10629774473984
 20
-2.828898082984841
 10
12.10509771116447
 20
-2.827890545032561
 10
12.1039618427968
 20
-2.826791445491771
 10
12.10290852405028
 20
-2.825600784362475
 10
12.10193775492488
 20
-2.824290804785162
 10
12.10106755935536
 20
-2.822871239684598
 10
12.10030730978779
 20
-2.821341368103389
 10
12.09984012939918
 20
-2.820342842118487
 10
12.09943711421827
 20
-2.81933530416621
 10
12.09908889179898
 20
-2.818327766213923
 10
12.09879582262002
 20
-2.817320228261645
 10
12.09839280743911
 20
-2.815295779911019
 10
12.09820968426208
 20
-2.813290076452522
 10
12.09824609261028
 20
-2.811311408896147
 10
12.09847535706024
 20
-2.809369510166651
 10
12.09889675665459
 20
-2.807473392231414
 10
12.0991804533875
 20
-2.806548403900268
 10
12.09951029139333
 20
-2.805641439503875
 10
12.09365719882404
 20
-2.805641439503875
 97
        0
 75
     0
 76
     1
 98
        0
  0
HATCH
  5
85
102
{ACAD_REACTORS
330
83
102
}
330
1F
100
AcDbEntity
  8
XR$1$TB_111_1
  6
AUSGEZOGEN
 62
     3
440
 33554687
370
    35
100
AcDbHatch
 10
0.0
 20
0.0
 30
0.0
210
0.0
220
0.0
230
1.0
  2
SOLID
 70
     1
 71
     0
 91
        1
 92
        3
 72
     0
 73
     1
 93
       24
 10
12.10622456756477
 20
-2.826938160320598
 10
12.1074336131075
 20
-2.828055644274828
 10
12.10876161661957
 20
-2.829063182227109
 10
12.11019956613358
 20
-2.829924005350557
 10
12.11174782212823
 20
-2.830656858537319
 10
12.11866324541143
 20
-2.830656858537319
 10
12.11866324541143
 20
-2.805641439503875
 10
12.10509771116447
 20
-2.805641439503875
 10
12.10453896918736
 20
-2.806282731102122
 10
12.10406277683139
 20
-2.80700621184281
 10
12.10323836205612
 20
-2.808572852250896
 10
12.10286274325602
 20
-2.809369510166651
 10
12.10253290525018
 20
-2.81018491297455
 10
12.10225822048466
 20
-2.810999955303744
 10
12.10202931651338
 20
-2.811824370079004
 10
12.10170849047491
 20
-2.813473199629535
 10
12.10157114809215
 20
-2.815122029180066
 10
12.10160791691903
 20
-2.816770858730603
 10
12.10180942450948
 20
-2.818382919454243
 10
12.10217567086352
 20
-2.819967583797081
 10
12.10269800449244
 20
-2.821506106866964
 10
12.10337570443888
 20
-2.822980825207855
 10
12.10419110724677
 20
-2.824391738819742
 10
12.10514349195873
 20
-2.825710730364424
 97
        0
 75
     0
 76
     1
 98
        0
  0
HATCH
  5
86
330
1F
100
AcDbEntity
  8
XR$1$TB_111_1
  6
AUSGEZOGEN
 62
   250
440
 33554687
370
    18
100
AcDbHatch
 10
0.0
 20
0.0
 30
0.0
210
0.0
220
0.0
230
1.0
  2
SOLID
 70
     1
 71
     0
 91
        1
 92
        3
 72
     0
 73
     1
 93
        8
 10
12.05730206138302
 20
-2.357373350067162
 10
12.15730206138299
 20
-2.357373350067162
 10
12.15730206138299
 20
-2.355373350067163
 10
12.10830206138301
 20
-2.355373350067163
 10
12.10830206138301
 20
-2.305373350067162
 10
12.106302061383
 20
-2.305373350067162
 10
12.106302061383
 20
-2.355373350067163
 10
12.05730206138302
 20
-2.355373350067163
 97
        0
 75
     0
 76
     1
 98
        0
  0
HATCH
  5
87
330
1F
100
AcDbEntity
  8
XR$1$TB_111_1
  6
AUSGEZOGEN
 62
   250
440
 33554687
370
    18
100
AcDbHatch
 10
0.0
 20
0.0
 30
0.0
210
0.0
220
0.0
230
1.0
  2
SOLID
 70
     1
 71
     0
 91
        1
 92
        3
 72
     0
 73
     1
 93
        8
 10
12.48920319503042
 20
-2.357373350067162
 10
12.5892031950304
 20
-2.357373350067162
 10
12.5892031950304
 20
-2.355373350067163
 10
12.54020319503041
 20
-2.355373350067163
 10
12.54020319503041
 20
-2.305373350067162
 10
12.53820319503041
 20
-2.305373350067162
 10
12.53820319503041
 20
-2.355373350067163
 10
12.48920319503042
 20
-2.355373350067163
 97
        0
 75
     0
 76
     1
 98
        0
  0
HATCH
  5
89
102
{ACAD_REACTORS
330
88
102
}
330
1F
100
AcDbEntity
  8
XR$1$TB_111_1
  6
AUSGEZOGEN
 62
     9
440
 33554687
370
    18
100
AcDbHatch
 10
0.0
 20
0.0
 30
0.0
210
0.0
220
0.0
230
1.0
  2
SOLID
 70
     1
 71
     0
 91
        1
 92
        3
 72
     0
 73
     1
 93
        4
 10
12.02210544097523
 20
-2.363573349542672
 10
12.02210544097523
 20
-2.383573349542601
 10
12.103302061383
 20
-2.383573349542601
 10
12.103302061383
 20
-2.363573349542672
 97
        0
 75
     0
 76
     1
 98
        0
  0
HATCH
  5
8A
102
{ACAD_REACTORS
330
88
102
}
330
1F
100
AcDbEntity
  8
XR$1$TB_111_1
  6
AUSGEZOGEN
 62
     9
440
 33554687
370
    18
100
AcDbHatch
 10
0.0
 20
0.0
 30
0.0
210
0.0
220
0.0
230
1.0
  2
SOLID
 70
     1
 71
     0
 91
        1
 92
        3
 72
     0
 73
     1
 93
        4
 10
12.62960317368042
 20
-2.383573349542599
 10
12.62960317368042
 20
-2.363573349542672
 10
12.11130206138301
 20
-2.363573349542672
 10
12.11130206138301
 20
-2.383573349542599
 97
        0
 75
     0
 76
     1
 98
        0
  0
HATCH
  5
8B
330
1F
100
AcDbEntity
  8
XR$1$TB_111_1
  6
AUSGEZOGEN
 62
    18
420
        0
440
 33554687
370
    18
100
AcDbHatch
 10
0.0
 20
0.0
 30
0.0
210
0.0
220
0.0
230
1.0
  2
SOLID
 70
     1
 71
     0
 91
        2
 92
       18
 72
     0
 73
     1
 93
       31
 10
12.6370726452432
 20
-2.392012535022917
 10
12.63710317368041
 20
-2.391995612833846
 10
12.63713370211763
 20
-2.392012535022917
 10
12.63716480253363
 20
-2.392028381476357
 10
12.63719643703734
 20
-2.392043132887702
 10
12.637228567087
 20
-2.392056771284628
 10
12.63726115353709
 20
-2.392069280050844
 10
12.63729415668604
 20
-2.392080643946356
 10
12.6373275363246
 20
-2.392090849125998
 10
12.63736125178481
 20
-2.392099883156334
 10
12.63739526198959
 20
-2.392107735030793
 10
12.63742952550275
 20
-2.392114395183071
 10
12.63746400057945
 20
-2.3921198554988
 10
12.63749864521714
 20
-2.392124109325429
 10
12.63753341720667
 20
-2.392127151480319
 10
12.63756827418371
 20
-2.392128978257078
 10
12.63760317368041
 20
-2.392129587430059
 10
12.63660317368041
 20
-2.392129587430059
 10
12.63663807317712
 20
-2.392128978257078
 10
12.63667293015416
 20
-2.392127151480319
 10
12.63670770214368
 20
-2.392124109325429
 10
12.63674234678137
 20
-2.3921198554988
 10
12.63677682185808
 20
-2.392114395183071
 10
12.63681108537123
 20
-2.392107735030793
 10
12.63684509557601
 20
-2.392099883156334
 10
12.63687881103623
 20
-2.392090849125998
 10
12.63691219067479
 20
-2.392080643946356
 10
12.63694519382374
 20
-2.392069280050844
 10
12.63697778027383
 20
-2.392056771284628
 10
12.63700991032349
 20
-2.392043132887702
 10
12.6370415448272
 20
-2.392028381476357
 97
        0
 92
        3
 72
     0
 73
     1
 93
      341
 10
12.63713309294464
 20
-2.391977635526215
 10
12.63710317368041
 20
-2.391995612833846
 10
12.63707325441618
 20
-2.391977635526215
 10
12.63704398077694
 20
-2.391958625002615
 10
12.63701538842812
 20
-2.391938604424435
 10
12.63698751220509
 20
-2.391917598183667
 10
12.63696038607073
 20
-2.39189563187318
 10
12.63693404307405
 20
-2.391872732255535
 10
12.63690851530995
 20
-2.3918489272304
 10
12.63688383388008
 20
-2.391824245800519
 10
12.63686002885493
 20
-2.391798718036418
 10
12.63683712923729
 20
-2.391772375039745
 10
12.63681516292681
 20
-2.391745248905387
 10
12.63679415668604
 20
-2.391717372682353
 10
12.63677413610786
 20
-2.39168878033353
 10
12.63675512558425
 20
-2.391659506694294
 10
12.63673714827663
 20
-2.39162958743006
 10
12.63672022608755
 20
-2.391599058992844
 10
12.63670437963411
 20
-2.391567958576848
 10
12.63668962822277
 20
-2.391536324073135
 10
12.63667598982585
 20
-2.391504194023477
 10
12.63666348105963
 20
-2.391471607573385
 10
12.63665211716412
 20
-2.391438604424435
 10
12.63664191198448
 20
-2.391405224785875
 10
12.63663287795414
 20
-2.391371509325658
 10
12.63662502607968
 20
-2.391337499120877
 10
12.6366183659274
 20
-2.391303235607727
 10
12.63661290561167
 20
-2.39126876053102
 10
12.63660865178505
 20
-2.391234115893327
 10
12.63660560963016
 20
-2.391199343903805
 10
12.6366037828534
 20
-2.391164486926762
 10
12.63660317368041
 20
-2.39112958743006
 10
12.63660317351164
 20
-2.344429588824358
 10
12.63660134616147
 20
-2.344324888939951
 10
12.63659586583119
 20
-2.344220318008825
 10
12.63658673936652
 20
-2.344116002040257
 10
12.63657397788664
 20
-2.34401206812718
 10
12.63655759693945
 20
-2.343908642897059
 10
12.63653761648262
 20
-2.343805852357607
 10
12.63651406085924
 20
-2.34370382174326
 10
12.63648695876823
 20
-2.343602675362606
 10
12.6364563432293
 20
-2.343502536446933
 10
12.63642225154277
 20
-2.343403527000082
 10
12.63638472524411
 20
-2.34330576764981
 10
12.63634381005334
 20
-2.343209377500833
 10
12.63629955581931
 20
-2.343114473989692
 10
12.63625201645899
 20
-2.343021172741701
 10
12.63620124989177
 20
-2.342929587430059
 10
12.63614731796888
 20
-2.34283982963736
 10
12.63609028639808
 20
-2.342752008719646
 10
12.63603022466354
 20
-2.342666231673182
 10
12.63596720594123
 20
-2.342582603004085
 10
12.63590130700977
 20
-2.342501224601001
 10
12.63583260815684
 20
-2.342422195610983
 10
12.63576119308143
 20
-2.342345612318681
 10
12.63568714879179
 20
-2.342271568029042
 10
12.63561056549949
 20
-2.342200152953628
 10
12.63553153650947
 20
-2.342131454100701
 10
12.63545015810639
 20
-2.34206555516924
 10
12.63536652943729
 20
-2.342002536446933
 10
12.63528075239083
 20
-2.341942474712396
 10
12.63519293147311
 20
-2.341885443141589
 10
12.63510317368041
 20
-2.341831511218705
 10
12.63501158836877
 20
-2.341780744651482
 10
12.63491828712078
 20
-2.341733205291162
 10
12.63482338360964
 20
-2.341688951057131
 10
12.63472699346066
 20
-2.341648035866358
 10
12.63462923411039
 20
-2.341610509567701
 10
12.63453022466354
 20
-2.341576417881173
 10
12.63443008574786
 20
-2.341545802342243
 10
12.63432893936721
 20
-2.341518700251232
 10
12.63422690875287
 20
-2.341495144627857
 10
12.63412411821341
 20
-2.341475164171025
 10
12.63402069298329
 20
-2.341458783223836
 10
12.63391675907022
 20
-2.341446021743955
 10
12.63381244310164
 20
-2.341436895279279
 10
12.63370787217052
 20
-2.341431414949002
 10
12.63360317368041
 20
-2.341429587430059
 10
12.62060317507471
 20
-2.341429587598836
 10
12.62049847519031
 20
-2.341431414949002
 10
12.62039390425918
 20
-2.341436895279279
 10
12.62028958829061
 20
-2.341446021743955
 10
12.62018565437753
 20
-2.341458783223836
 10
12.62008222914741
 20
-2.341475164171025
 10
12.61997943860796
 20
-2.341495144627857
 10
12.61987740799361
 20
-2.341518700251232
 10
12.61977626161296
 20
-2.341545802342243
 10
12.61967612269729
 20
-2.341576417881173
 10
12.61957711325044
 20
-2.341610509567701
 10
12.61947935390017
 20
-2.341648035866358
 10
12.61938296375119
 20
-2.341688951057131
 10
12.61928806024005
 20
-2.341733205291162
 10
12.61919475899206
 20
-2.341780744651482
 10
12.61910317368041
 20
-2.341831511218705
 10
12.61901341588772
 20
-2.341885443141589
 10
12.61892559497
 20
-2.341942474712396
 10
12.61883981792354
 20
-2.342002536446933
 10
12.61875618925444
 20
-2.34206555516924
 10
12.61867481085135
 20
-2.342131454100701
 10
12.61859578186134
 20
-2.342200152953628
 10
12.61851919856904
 20
-2.342271568029042
 10
12.6184451542794
 20
-2.342345612318681
 10
12.61837373920398
 20
-2.342422195610983
 10
12.61830504035106
 20
-2.342501224601001
 10
12.61823914141959
 20
-2.342582603004081
 10
12.61817612269729
 20
-2.342666231673182
 10
12.61811606096275
 20
-2.342752008719646
 10
12.61805902939195
 20
-2.34283982963736
 10
12.61800509746906
 20
-2.342929587430059
 10
12.61795433090184
 20
-2.343021172741701
 10
12.61790679154151
 20
-2.343114473989692
 10
12.61786253730749
 20
-2.343209377500833
 10
12.61782162211671
 20
-2.34330576764981
 10
12.61778409581806
 20
-2.343403527000082
 10
12.61775000413153
 20
-2.343502536446933
 10
12.6177193885926
 20
-2.343602675362606
 10
12.61769228650159
 20
-2.34370382174326
 10
12.61766873087821
 20
-2.343805852357607
 10
12.61764875042138
 20
-2.343908642897059
 10
12.61763236947419
 20
-2.34401206812718
 10
12.61761960799431
 20
-2.344116002040257
 10
12.61761048152963
 20
-2.344220318008829
 10
12.61760500119935
 20
-2.344324888939951
 10
12.61760317368041
 20
-2.344429587430059
 10
12.61760317368041
 20
-2.351429587430059
 10
12.62060317368041
 20
-2.351429587430059
 10
12.62060317368041
 20
-2.345429587430059
 10
12.6206037828534
 20
-2.345394687933356
 10
12.62060560963016
 20
-2.345359830956317
 10
12.62060865178505
 20
-2.345325058966791
 10
12.62061290561167
 20
-2.345290414329098
 10
12.6206183659274
 20
-2.345255939252391
 10
12.62062502607968
 20
-2.345221675739241
 10
12.62063287795414
 20
-2.345187665534461
 10
12.62064191198448
 20
-2.345153950074244
 10
12.62065211716412
 20
-2.345120570435684
 10
12.62066348105963
 20
-2.345087567286734
 10
12.62067598982585
 20
-2.345054980836645
 10
12.62068962822277
 20
-2.345022850786983
 10
12.62070437963411
 20
-2.34499121628327
 10
12.62072022608755
 20
-2.344960115867274
 10
12.62073714827663
 20
-2.344929587430059
 10
12.62075512558425
 20
-2.344899668165825
 10
12.62077413610786
 20
-2.344870394526588
 10
12.62079415668604
 20
-2.344841802177769
 10
12.62081516292681
 20
-2.344813925954735
 10
12.62083712923729
 20
-2.344786799820373
 10
12.62086002885493
 20
-2.3447604568237
 10
12.62088383388008
 20
-2.344734929059599
 10
12.62090851530995
 20
-2.344710247629722
 10
12.62093404307405
 20
-2.344686442604583
 10
12.62096038607073
 20
-2.344663542986942
 10
12.62098751220509
 20
-2.344641576676451
 10
12.62101538842812
 20
-2.344620570435684
 10
12.62104398077694
 20
-2.344600549857503
 10
12.62107325441618
 20
-2.344581539333904
 10
12.62110317368041
 20
-2.344563562026277
 10
12.62113370211763
 20
-2.344546639837201
 10
12.62116480253363
 20
-2.344530793383761
 10
12.62119643703734
 20
-2.344516041972416
 10
12.621228567087
 20
-2.344502403575494
 10
12.62126115353709
 20
-2.344489894809274
 10
12.62129415668604
 20
-2.344478530913766
 10
12.6213275363246
 20
-2.344468325734121
 10
12.62136125178481
 20
-2.344459291703784
 10
12.62139526198959
 20
-2.344451439829325
 10
12.62142952550275
 20
-2.344444779677048
 10
12.62146400057945
 20
-2.344439319361318
 10
12.62149864521715
 20
-2.34443506553469
 10
12.62153341720667
 20
-2.344432023379799
 10
12.62156827418371
 20
-2.34443019660304
 10
12.62160317368041
 20
-2.344429587430059
 10
12.63260317368042
 20
-2.344429587430059
 10
12.63263807317712
 20
-2.34443019660304
 10
12.63267293015416
 20
-2.344432023379799
 10
12.63270770214368
 20
-2.34443506553469
 10
12.63274234678137
 20
-2.344439319361318
 10
12.63277682185808
 20
-2.344444779677048
 10
12.63281108537123
 20
-2.344451439829325
 10
12.63284509557601
 20
-2.344459291703784
 10
12.63287881103623
 20
-2.344468325734121
 10
12.63291219067479
 20
-2.344478530913766
 10
12.63294519382374
 20
-2.344489894809274
 10
12.63297778027383
 20
-2.344502403575494
 10
12.63300991032349
 20
-2.344516041972416
 10
12.6330415448272
 20
-2.344530793383761
 10
12.6330726452432
 20
-2.344546639837201
 10
12.63310317368041
 20
-2.344563562026273
 10
12.63313309294464
 20
-2.344581539333904
 10
12.63316236658389
 20
-2.344600549857503
 10
12.6331909589327
 20
-2.344620570435684
 10
12.63321883515574
 20
-2.344641576676451
 10
12.6332459612901
 20
-2.344663542986938
 10
12.63327230428677
 20
-2.344686442604583
 10
12.63329783205087
 20
-2.344710247629722
 10
12.63332251348075
 20
-2.344734929059599
 10
12.63334631850589
 20
-2.3447604568237
 10
12.63336921812353
 20
-2.344786799820373
 10
12.63339118443402
 20
-2.344813925954735
 10
12.63341219067479
 20
-2.344841802177769
 10
12.63343221125297
 20
-2.344870394526588
 10
12.63345122177657
 20
-2.344899668165825
 10
12.6334691990842
 20
-2.344929587430059
 10
12.63348612127327
 20
-2.344960115867274
 10
12.63350196772671
 20
-2.34499121628327
 10
12.63351671913806
 20
-2.345022850786983
 10
12.63353035753498
 20
-2.345054980836645
 10
12.6335428663012
 20
-2.345087567286734
 10
12.63355423019671
 20
-2.345120570435684
 10
12.63356443537635
 20
-2.345153950074244
 10
12.63357346940669
 20
-2.345187665534461
 10
12.63358132128115
 20
-2.345221675739241
 10
12.63358798143343
 20
-2.345255939252391
 10
12.63359344174916
 20
-2.345290414329098
 10
12.63359769557578
 20
-2.345325058966791
 10
12.63360073773067
 20
-2.345359830956317
 10
12.63360256450743
 20
-2.345394687933356
 10
12.63360317368041
 20
-2.345429587430059
 10
12.63360317384919
 20
-2.392129586035761
 10
12.63360500119935
 20
-2.392234285920167
 10
12.63361048152963
 20
-2.392338856851293
 10
12.63361960799431
 20
-2.392443172819862
 10
12.63363236947419
 20
-2.392547106732938
 10
12.63364875042138
 20
-2.39265053196306
 10
12.63366873087821
 20
-2.392753322502511
 10
12.63369228650159
 20
-2.392855353116858
 10
12.6337193885926
 20
-2.392956499497512
 10
12.63375000413153
 20
-2.393056638413185
 10
12.63378409581806
 20
-2.393155647860036
 10
12.63382162211671
 20
-2.393253407210308
 10
12.63386253730749
 20
-2.393349797359286
 10
12.63390679154151
 20
-2.393444700870427
 10
12.63395433090184
 20
-2.393538002118417
 10
12.63400509746906
 20
-2.393629587430059
 10
12.63405902939195
 20
-2.393719345222758
 10
12.63411606096275
 20
-2.393807166140472
 10
12.63417612269729
 20
-2.393892943186937
 10
12.63423914141959
 20
-2.393976571856038
 10
12.63430504035106
 20
-2.394057950259117
 10
12.63437373920398
 20
-2.394136979249135
 10
12.6344451542794
 20
-2.394213562541438
 10
12.63451919856904
 20
-2.394287606831076
 10
12.63459578186134
 20
-2.39435902190649
 10
12.63467481085135
 20
-2.394427720759417
 10
12.63475618925444
 20
-2.394493619690878
 10
12.63483981792354
 20
-2.394556638413185
 10
12.63492559497
 20
-2.394616700147726
 10
12.63501341588771
 20
-2.394673731718529
 10
12.63510317368041
 20
-2.394727663641413
 10
12.63519475899206
 20
-2.394778430208637
 10
12.63528806024004
 20
-2.394825969568956
 10
12.63538296375119
 20
-2.394870223802987
 10
12.63547935390017
 20
-2.394911138993761
 10
12.63557711325044
 20
-2.394948665292417
 10
12.63567612269729
 20
-2.394982756978945
 10
12.63577626161296
 20
-2.395013372517875
 10
12.63587740799361
 20
-2.395040474608886
 10
12.63597943860796
 20
-2.395064030232261
 10
12.63608222914741
 20
-2.395084010689097
 10
12.63618565437753
 20
-2.395100391636282
 10
12.63628958829061
 20
-2.395113153116163
 10
12.63639390425918
 20
-2.395122279580839
 10
12.63649847519031
 20
-2.395127759911116
 10
12.63660317368041
 20
-2.39512958743006
 10
12.63710317205373
 20
-2.395129587233154
 10
12.63722532191887
 20
-2.395127455324626
 10
12.63734732133852
 20
-2.395121061605969
 10
12.63746902330185
 20
-2.395110414063849
 10
12.63759027953377
 20
-2.395095525670655
 10
12.63771094230225
 20
-2.395076414565603
 10
12.63783086459828
 20
-2.395053104032628
 10
12.63794990031501
 20
-2.395025622472025
 10
12.63806790442577
 20
-2.394994003365842
 10
12.63818473316072
 20
-2.394958285237091
 10
12.63830024418205
 20
-2.39491851160281
 10
12.63841429675737
 20
-2.394874730921045
 10
12.63852675193118
 20
-2.394826996531807
 10
12.63863747269418
 20
-2.394775366592108
 10
12.63874632415017
 20
-2.394719904005066
 10
12.63885317368042
 20
-2.394660676343305
 10
12.63895789110523
 20
-2.394597755766608
 10
12.63906034884256
 20
-2.394531218934
 10
12.63916042206344
 20
-2.394461146910373
 10
12.63925798884405
 20
-2.394387625067684
 10
12.63935293031432
 20
-2.394310742980975
 10
12.63944513080267
 20
-2.39423059431923
 10
12.63953447797702
 20
-2.394147276731244
 10
12.6396208629816
 20
-2.394060891726665
 10
12.63970418056958
 20
-2.393971544552314
 10
12.63978432923133
 20
-2.393879344063964
 10
12.63986121131803
 20
-2.393784402593698
 10
12.63993473316073
 20
-2.393686835813082
 10
12.64000480518436
 20
-2.393586762592208
 10
12.64007134201696
 20
-2.393484304854876
 10
12.64013426259366
 20
-2.39337958743006
 10
12.64019349025542
 20
-2.39327273789981
 10
12.64024895284246
 20
-2.393163886443821
 10
12.64030058278216
 20
-2.393053165680823
 10
12.6403483171714
 20
-2.392940710507017
 10
12.64039209785316
 20
-2.392826657931699
 10
12.64043187148745
 20
-2.392711146910373
 10
12.6404675896162
 20
-2.392594318175419
 10
12.64049920872238
 20
-2.392476314064657
 10
12.64052669028298
 20
-2.392357278347921
 10
12.64055000081595
 20
-2.392237356051893
 10
12.64056911192101
 20
-2.392116693283421
 10
12.6405840003142
 20
-2.391995437051497
 10
12.64059464785632
 20
-2.391873735088164
 10
12.64060104157498
 20
-2.391751735668517
 10
12.64060317368041
 20
-2.39162958743006
 10
12.64060317368041
 20
-2.137373350067163
 10
12.63760317368041
 20
-2.137373350067163
 10
12.63760317368041
 20
-2.39112958743006
 10
12.63760256450743
 20
-2.391164486926762
 10
12.63760073773067
 20
-2.391199343903805
 10
12.63759769557578
 20
-2.391234115893327
 10
12.63759344174916
 20
-2.39126876053102
 10
12.63758798143343
 20
-2.391303235607727
 10
12.63758132128115
 20
-2.391337499120877
 10
12.63757346940669
 20
-2.391371509325658
 10
12.63756443537635
 20
-2.391405224785878
 10
12.63755423019671
 20
-2.391438604424435
 10
12.6375428663012
 20
-2.391471607573385
 10
12.63753035753498
 20
-2.391504194023477
 10
12.63751671913806
 20
-2.391536324073135
 10
12.63750196772671
 20
-2.391567958576848
 10
12.63748612127327
 20
-2.391599058992844
 10
12.6374691990842
 20
-2.39162958743006
 10
12.63745122177657
 20
-2.391659506694294
 10
12.63743221125297
 20
-2.39168878033353
 10
12.63741219067479
 20
-2.391717372682353
 10
12.63739118443402
 20
-2.391745248905387
 10
12.63736921812353
 20
-2.391772375039745
 10
12.63734631850589
 20
-2.391798718036418
 10
12.63732251348075
 20
-2.391824245800519
 10
12.63729783205087
 20
-2.3918489272304
 10
12.63727230428677
 20
-2.391872732255535
 10
12.6372459612901
 20
-2.39189563187318
 10
12.63721883515574
 20
-2.391917598183667
 10
12.6371909589327
 20
-2.391938604424435
 10
12.63716236658389
 20
-2.391958625002615
 97
        0
 75
     0
 76
     1
 98
        0
  0
LINE
  5
8C
330
1F
100
AcDbEntity
  8
XR$1$TB_111_1
  6
AUSGEZOGEN
 62
     1
440
 33554687
370
    70
100
AcDbLine
 10
12.930117
 20
-2.954021
 30
0.0
 11
12.930117
 21
-1.469036
 31
0.0
  0
LINE
  5
8D
330
1F
100
AcDbEntity
  8
XR$1$TB_111_1
  6
AUSGEZOGEN
 62
     1
440
 33554687
370
    70
100
AcDbLine
 10
12.930117
 20
-1.469036
 30
0.0
 11
11.880127
 21
-1.469036
 31
0.0
  0
LINE
  5
8E
330
1F
100
AcDbEntity
  8
XR$1$TB_111_1
  6
AUSGEZOGEN
 62
     7
440
 33554687
370
    18
100
AcDbLine
 10
12.645603
 20
-2.130373
 30
0.0
 11
12.645603
 21
-2.160373
 31
0.0
  0
LINE
  5
8F
330
1F
100
AcDbEntity
  8
XR$1$TB_111_1
  6
AUSGEZOGEN
 62
     7
440
 33554687
370
    18
100
AcDbLine
 10
12.645603
 20
-2.160373
 30
0.0
 11
12.642603
 21
-2.160373
 31
0.0
  0
LINE
  5
90
330
1F
100
AcDbEntity
  8
XR$1$TB_111_1
  6
AUSGEZOGEN
 62
     7
440
 33554687
370
    18
100
AcDbLine
 10
12.640603
 20
-2.157373
 30
0.0
 11
12.642603
 21
-2.160373
 31
0.0
  0
LINE
  5
91
330
1F
100
AcDbEntity
  8
XR$1$TB_111_1
  6
AUSGEZOGEN
 62
     7
440
 33554687
370
    18
100
AcDbLine
 10
12.642603
 20
-2.157373
 30
0.0
 11
12.640603
 21
-2.157373
 31
0.0
  0
LINE
  5
92
330
1F
100
AcDbEntity
  8
XR$1$TB_111_1
  6
AUSGEZOGEN
 62
     7
440
 33554687
370
    18
100
AcDbLine
 10
12.642603
 20
-2.133373
 30
0.0
 11
12.642603
 21
-2.157373
 31
0.0
  0
LINE
  5
93
330
1F
100
AcDbEntity
  8
XR$1$TB_111_1
  6
AUSGEZOGEN
 62
     7
440
 33554687
370
    18
100
AcDbLine
 10
12.632603
 20
-2.133373
 30
0.0
 11
12.632603
 21
-2.160373
 31
0.0
  0
LINE
  5
94
330
1F
100
AcDbEntity
  8
XR$1$TB_111_1
  6
AUSGEZOGEN
 62
     7
440
 33554687
370
    18
100
AcDbLine
 10
12.635603
 20
-2.160373
 30
0.0
 11
12.632603
 21
-2.160373
 31
0.0
  0
LINE
  5
95
330
1F
100
AcDbEntity
  8
XR$1$TB_111_1
  6
AUSGEZOGEN
 62
     7
440
 33554687
370
    18
100
AcDbLine
 10
12.637603
 20
-2.157373
 30
0.0
 11
12.635603
 21
-2.160373
 31
0.0
  0
LINE
  5
96
330
1F
100
AcDbEntity
  8
XR$1$TB_111_1
  6
AUSGEZOGEN
 62
     7
440
 33554687
370
    18
100
AcDbLine
 10
12.635603
 20
-2.157373
 30
0.0
 11
12.637603
 21
-2.157373
 31
0.0
  0
LINE
  5
97
330
1F
100
AcDbEntity
  8
XR$1$TB_111_1
  6
AUSGEZOGEN
 62
     7
440
 33554687
370
    18
100
AcDbLine
 10
12.635603
 20
-2.133373
 30
0.0
 11
12.635603
 21
-2.157373
 31
0.0
  0
LINE
  5
98
330
1F
100
AcDbEntity
  8
XR$1$TB_111_1
  6
AUSGEZOGEN
 62
     7
440
 33554687
370
    18
100
AcDbLine
 10
12.642603
 20
-2.133373
 30
0.0
 11
12.635603
 21
-2.133373
 31
0.0
  0
LINE
  5
99
330
1F
100
AcDbEntity
  8
XR$1$TB_111_1
  6
AUSGEZOGEN
 62
     7
440
 33554687
370
    18
100
AcDbLine
 10
12.597603
 20
-2.130373
 30
0.0
 11
12.597603
 21
-2.134373
 31
0.0
  0
LINE
  5
9A
330
1F
100
AcDbEntity
  8
XR$1$TB_111_1
  6
AUSGEZOGEN
 62
     3
440
 33554687
370
    25
100
AcDbLine
 10
12.607603
 20
-2.070373
 30
0.0
 11
12.607603
 21
-2.130373
 31
0.0
  0
LINE
  5
9B
330
1F
100
AcDbEntity
  8
XR$1$TB_111_1
  6
AUSGEZOGEN
 62
     7
440
 33554687
370
    18
100
AcDbLine
 10
12.609603
 20
-2.130373
 30
0.0
 11
12.609603
 21
-2.133373
 31
0.0
  0
LINE
  5
9C
330
1F
100
AcDbEntity
  8
XR$1$TB_111_1
  6
AUSGEZOGEN
 62
     7
440
 33554687
370
    18
100
AcDbLine
 10
12.632603
 20
-2.133373
 30
0.0
 11
12.609603
 21
-2.133373
 31
0.0
  0
LINE
  5
9D
330
1F
100
AcDbEntity
  8
XR$1$TB_111_1
  6
AUSGEZOGEN
 62
     7
440
 33554687
370
    18
100
AcDbLine
 10
12.620603
 20
-2.125373
 30
0.0
 11
12.620603
 21
-2.138373
 31
0.0
  0
LINE
  5
9E
330
1F
100
AcDbEntity
  8
XR$1$TB_111_1
  6
AUSGEZOGEN
 62
     7
440
 33554687
370
    18
100
AcDbLine
 10
12.637603
 20
-2.137373
 30
0.0
 11
12.640603
 21
-2.137373
 31
0.0
  0
LINE
  5
9F
330
1F
100
AcDbEntity
  8
XR$1$TB_111_1
  6
AUSGEZOGEN
 62
    52
440
 33554687
370
    13
100
AcDbLine
 10
12.637603
 20
-2.224373
 30
0.0
 11
12.597603
 21
-2.214373
 31
0.0
  0
LINE
  5
A0
330
1F
100
AcDbEntity
  8
XR$1$TB_111_1
  6
AUSGEZOGEN
 62
    52
440
 33554687
370
    13
100
AcDbLine
 10
12.597603
 20
-2.214373
 30
0.0
 11
12.637603
 21
-2.204373
 31
0.0
  0
LINE
  5
A1
330
1F
100
AcDbEntity
  8
XR$1$TB_111_1
  6
AUSGEZOGEN
 62
    52
440
 33554687
370
    13
100
AcDbLine
 10
12.637603
 20
-2.204373
 30
0.0
 11
12.597603
 21
-2.194373
 31
0.0
  0
LINE
  5
A2
330
1F
100
AcDbEntity
  8
XR$1$TB_111_1
  6
AUSGEZOGEN
 62
    52
440
 33554687
370
    13
100
AcDbLine
 10
12.597603
 20
-2.194373
 30
0.0
 11
12.637603
 21
-2.184373
 31
0.0
  0
LINE
  5
A3
330
1F
100
AcDbEntity
  8
XR$1$TB_111_1
  6
AUSGEZOGEN
 62
    52
440
 33554687
370
    13
100
AcDbLine
 10
12.637603
 20
-2.184373
 30
0.0
 11
12.597603
 21
-2.174373
 31
0.0
  0
LINE
  5
A4
330
1F
100
AcDbEntity
  8
XR$1$TB_111_1
  6
AUSGEZOGEN
 62
    52
440
 33554687
370
    13
100
AcDbLine
 10
12.597603
 20
-2.174373
 30
0.0
 11
12.637603
 21
-2.164373
 31
0.0
  0
LINE
  5
A5
330
1F
100
AcDbEntity
  8
XR$1$TB_111_1
  6
AUSGEZOGEN
 62
    52
440
 33554687
370
    13
100
AcDbLine
 10
12.637603
 20
-2.164373
 30
0.0
 11
12.597603
 21
-2.154373
 31
0.0
  0
LINE
  5
A6
330
1F
100
AcDbEntity
  8
XR$1$TB_111_1
  6
AUSGEZOGEN
 62
    52
440
 33554687
370
    13
100
AcDbLine
 10
12.632603
 20
-2.143123
 30
0.0
 11
12.597603
 21
-2.134373
 31
0.0
  0
LINE
  5
A7
330
1F
100
AcDbEntity
  8
XR$1$TB_111_1
  6
AUSGEZOGEN
 62
    52
440
 33554687
370
    13
100
AcDbLine
 10
12.597603
 20
-2.154373
 30
0.0
 11
12.632603
 21
-2.145623
 31
0.0
  0
LINE
  5
A8
330
1F
100
AcDbEntity
  8
XR$1$TB_111_1
  6
AUSGEZOGEN
 62
    52
440
 33554687
370
    13
100
AcDbLine
 10
12.597603
 20
-2.134373
 30
0.0
 11
12.609603
 21
-2.131373
 31
0.0
  0
LINE
  5
A9
330
1F
100
AcDbEntity
  8
XR$1$TB_111_1
  6
AUSGEZOGEN
 62
    32
440
 33554687
370
    18
100
AcDbLine
 10
12.597603
 20
-1.934373
 30
0.0
 11
12.022105
 21
-1.934373
 31
0.0
  0
LINE
  5
AA
330
1F
100
AcDbEntity
  8
XR$1$TB_111_1
  6
AUSGEZOGEN
 62
     7
440
 33554687
370
    18
100
AcDbLine
 10
12.070802
 20
-2.239373
 30
0.0
 11
12.070802
 21
-2.242373
 31
0.0
  0
LINE
  5
AB
330
1F
100
AcDbEntity
  8
XR$1$TB_111_1
  6
AUSGEZOGEN
 62
     7
440
 33554687
370
    18
100
AcDbLine
 10
12.070802
 20
-2.242373
 30
0.0
 11
12.108302
 21
-2.242373
 31
0.0
  0
LINE
  5
AC
330
1F
100
AcDbEntity
  8
XR$1$TB_111_1
  6
AUSGEZOGEN
 62
     7
440
 33554687
370
    18
100
AcDbLine
 10
12.108302
 20
-2.242373
 30
0.0
 11
12.108302
 21
-2.319373
 31
0.0
  0
LINE
  5
AD
330
1F
100
AcDbEntity
  8
XR$1$TB_111_1
  6
STRICHPUNKT2_S5
 62
     7
440
 33554687
370
    35
100
AcDbLine
 10
12.088702
 20
-2.274377
 30
0.0
 11
12.088702
 21
-2.134373
 31
0.0
  0
LINE
  5
AE
330
1F
100
AcDbEntity
  8
XR$1$TB_111_1
  6
AUSGEZOGEN
 62
     7
440
 33554687
370
    18
100
AcDbLine
 10
12.070802
 20
-2.239373
 30
0.0
 11
12.110802
 21
-2.239377
 31
0.0
  0
LINE
  5
AF
330
1F
100
AcDbEntity
  8
XR$1$TB_111_1
  6
STRICHPUNKT2_S5
 62
     7
440
 33554687
370
    18
100
AcDbLine
 10
12.022105
 20
-2.401573
 30
0.0
 11
12.022105
 21
-1.914373
 31
0.0
  0
MTEXT
  5
B0
330
1F
100
AcDbEntity
  8
XR$1$TB_111_1
  6
AUSGEZOGEN
 62
     7
440
 33554687
370
    18
100
AcDbMText
 10
11.998293
 20
-1.582685
 30
0.0
 40
0.0175
 41
0.374509
 46
0.0
 71
     7
 72
     5
  1
\W1.00;EMBRASURE OF THE WINDOW
  7
ARIAL
 73
     1
 44
1.0
  0
MTEXT
  5
B1
330
1F
100
AcDbEntity
  8
XR$1$TB_111_1
  6
AUSGEZOGEN
 62
     7
440
 33554687
370
    18
100
AcDbMText
 10
11.998293
 20
-1.608935
 30
0.0
 40
0.0175
 41
0.326106
 46
0.0
 71
     7
 72
     5
  1
\W1.00;EMBRASURE DE FENETRE
  7
ARIAL
 73
     1
 44
1.0
  0
MTEXT
  5
B2
330
1F
100
AcDbEntity
  8
XR$1$TB_111_1
  6
AUSGEZOGEN
 62
     7
440
 33554687
370
    18
100
AcDbMText
 10
11.998293
 20
-1.547674
 30
0.0
 40
0.025
 41
0.525859
 46
0.0
 71
     7
 72
     5
  1
\W1.00;FENSTERLEIBUNG MIT BLECH
  7
ARIAL
 73
     1
 44
1.0
  0
LINE
  5
B3
330
1F
100
AcDbEntity
  8
XR$1$TB_111_1
  6
AUSGEZOGEN
 62
     7
440
 33554687
370
    18
100
AcDbLine
 10
12.502703
 20
-2.239373
 30
0.0
 11
12.502703
 21
-2.242373
 31
0.0
  0
LINE
  5
B4
330
1F
100
AcDbEntity
  8
XR$1$TB_111_1
  6
AUSGEZOGEN
 62
     7
440
 33554687
370
    18
100
AcDbLine
 10
12.502703
 20
-2.239373
 30
0.0
 11
12.542703
 21
-2.239373
 31
0.0
  0
LINE
  5
B5
330
1F
100
AcDbEntity
  8
XR$1$TB_111_1
  6
AUSGEZOGEN
 62
     7
440
 33554687
370
    18
100
AcDbLine
 10
12.540203
 20
-2.242377
 30
0.0
 11
12.540203
 21
-2.319373
 31
0.0
  0
LINE
  5
B6
330
1F
100
AcDbEntity
  8
XR$1$TB_111_1
  6
STRICHPUNKT2_S5
 62
     7
440
 33554687
370
    35
100
AcDbLine
 10
12.520603
 20
-2.252377
 30
0.0
 11
12.520603
 21
-2.134377
 31
0.0
  0
LINE
  5
B7
330
1F
100
AcDbEntity
  8
XR$1$TB_111_1
  6
AUSGEZOGEN
 62
     7
440
 33554687
370
    18
100
AcDbLine
 10
12.502703
 20
-2.242373
 30
0.0
 11
12.540203
 21
-2.242377
 31
0.0
  0
LINE
  5
B8
330
1F
100
AcDbEntity
  8
XR$1$TB_111_1
  6
AUSGEZOGEN
 62
    35
440
 33554687
370
    70
100
AcDbLine
 10
11.880211
 20
-2.954021
 30
0.0
 11
12.930211
 21
-2.954021
 31
0.0
  0
MTEXT
  5
B9
330
1F
100
AcDbEntity
  8
XR$1$TB_111_1
  6
AUSGEZOGEN
 62
     7
440
 33554687
370
    18
100
AcDbMText
 10
11.998019
 20
-2.886643
 30
0.0
 40
0.009
 41
0.89646
 46
0.0
 71
     7
 72
     5
  1
\W0.85;THESE ARE NOT BINDING CONSTRUCTION PROPOSALS WHICH HAVE TO BE VERIFIED FOR EACH INDIVIDUAL PROJECT AS REGARDS APPLICABILITY AND CORRECTNESS.
  7
ARIAL
 73
     1
 44
1.0
  0
MTEXT
  5
BA
330
1F
100
AcDbEntity
  8
XR$1$TB_111_1
  6
AUSGEZOGEN
 62
     7
440
 33554687
370
    18
100
AcDbMText
 10
11.998019
 20
-2.868643
 30
0.0
 40
0.009
 41
0.8975
 46
0.0
 71
     7
 72
     5
  1
\W0.91;DIES SIND UNVERBINDLICHE KONSTRUKTIONSVORSCHLÄGE, DIE FÜR JEDES PROJEKT AUF ANWENDBARKEIT UND RICHTIGKEIT GEPRÜFT WERDEN MÜSSEN.
  7
ARIAL
 73
     1
 44
1.0
  0
MTEXT
  5
BB
330
1F
100
AcDbEntity
  8
XR$1$TB_111_1
  6
AUSGEZOGEN
 62
     7
440
 33554687
370
    18
100
AcDbMText
 10
11.998019
 20
-2.904643
 30
0.0
 40
0.009
 41
0.895804
 46
0.0
 71
     7
 72
     5
  1
\W0.80;IL S' AGIT DE PROPOSITIONS DE CONSTRUCTION SANS ENGAGEMENT DE NOTRE PART QUI DOIVENT ETRE VERIFIEES POUR CHAQUE PROJET A LEUR EXACTITUDE ET FAISABILITE.
  7
ARIAL
 73
     1
 44
1.0
  0
MTEXT
  5
BC
330
1F
100
AcDbEntity
  8
XR$1$TB_111_1
  6
AUSGEZOGEN
 62
     7
440
 33554687
370
    18
100
AcDbMText
 10
12.41268
 20
-2.830714
 30
0.0
 40
0.009
 41
0.348436
 46
0.0
 71
     7
 72
     5
  1
\W0.92;Tel. 09435 / 391 3238   e-mail: as.fassade@deutsche-steinzeug.de
  7
ARIAL
 73
     1
 44
1.0
  0
ARC
  5
BD
330
1F
100
AcDbEntity
  8
XR$1$TB_111_1
  6
AUSGEZOGEN
 62
     7
440
 33554687
370
    18
100
AcDbCircle
 10
12.637103
 20
-2.39163
 30
0.0
 40
0.0035
100
AcDbArc
 50
270.0
 51
0.0
  0
ARC
  5
BE
330
1F
100
AcDbEntity
  8
XR$1$TB_111_1
  6
AUSGEZOGEN
 62
     7
440
 33554687
370
    18
100
AcDbCircle
 10
12.636603
 20
-2.39113
 30
0.0
 40
0.001
100
AcDbArc
 50
270.0
 51
0.0
  0
LINE
  5
BF
330
1F
100
AcDbEntity
  8
XR$1$TB_111_1
  6
AUSGEZOGEN
 62
     7
440
 33554687
370
    18
100
AcDbLine
 10
12.108302
 20
-2.339373
 30
0.0
 11
12.110802
 21
-2.339373
 31
0.0
  0
LINE
  5
C0
330
1F
100
AcDbEntity
  8
XR$1$TB_111_1
  6
AUSGEZOGEN
 62
     7
440
 33554687
370
    18
100
AcDbLine
 10
12.115802
 20
-2.327376
 30
0.0
 11
12.100302
 21
-2.327376
 31
0.0
  0
LINE
  5
C1
330
1F
100
AcDbEntity
  8
XR$1$TB_111_1
  6
AUSGEZOGEN
 62
     7
440
 33554687
370
    18
100
AcDbLine
 10
12.106302
 20
-2.305373
 30
0.0
 11
12.106302
 21
-2.355373
 31
0.0
  0
LINE
  5
C2
330
1F
100
AcDbEntity
  8
XR$1$TB_111_1
  6
AUSGEZOGEN
 62
     7
440
 33554687
370
    18
100
AcDbLine
 10
12.108302
 20
-2.305373
 30
0.0
 11
12.108302
 21
-2.355373
 31
0.0
  0
LINE
  5
C3
330
1F
100
AcDbEntity
  8
XR$1$TB_111_1
  6
AUSGEZOGEN
 62
     7
440
 33554687
370
    18
100
AcDbLine
 10
12.108302
 20
-2.305373
 30
0.0
 11
12.106302
 21
-2.305373
 31
0.0
  0
LINE
  5
C4
330
1F
100
AcDbEntity
  8
XR$1$TB_111_1
  6
AUSGEZOGEN
 62
     7
440
 33554687
370
    18
100
AcDbLine
 10
12.147302
 20
-2.357373
 30
0.0
 11
12.157302
 21
-2.357373
 31
0.0
  0
LINE
  5
C5
330
1F
100
AcDbEntity
  8
XR$1$TB_111_1
  6
AUSGEZOGEN
 62
     7
440
 33554687
370
    18
100
AcDbLine
 10
12.157302
 20
-2.357373
 30
0.0
 11
12.157302
 21
-2.355373
 31
0.0
  0
LINE
  5
C6
330
1F
100
AcDbEntity
  8
XR$1$TB_111_1
  6
AUSGEZOGEN
 62
     7
440
 33554687
370
    18
100
AcDbLine
 10
12.157302
 20
-2.355373
 30
0.0
 11
12.108302
 21
-2.355373
 31
0.0
  0
LINE
  5
C7
330
1F
100
AcDbEntity
  8
XR$1$TB_111_1
  6
AUSGEZOGEN
 62
     7
440
 33554687
370
    18
100
AcDbLine
 10
12.106302
 20
-2.355373
 30
0.0
 11
12.057302
 21
-2.355373
 31
0.0
  0
LINE
  5
C8
330
1F
100
AcDbEntity
  8
XR$1$TB_111_1
  6
AUSGEZOGEN
 62
     7
440
 33554687
370
    18
100
AcDbLine
 10
12.057302
 20
-2.355373
 30
0.0
 11
12.057302
 21
-2.357373
 31
0.0
  0
LINE
  5
C9
330
1F
100
AcDbEntity
  8
XR$1$TB_111_1
  6
AUSGEZOGEN
 62
     7
440
 33554687
370
    18
100
AcDbLine
 10
12.057302
 20
-2.357373
 30
0.0
 11
12.157302
 21
-2.357373
 31
0.0
  0
LINE
  5
CA
330
1F
100
AcDbEntity
  8
XR$1$TB_111_1
  6
AUSGEZOGEN
 62
     7
440
 33554687
370
    25
100
AcDbLine
 10
12.111302
 20
-2.383573
 30
0.0
 11
12.111302
 21
-2.363573
 31
0.0
  0
LINE
  5
CB
330
1F
100
AcDbEntity
  8
XR$1$TB_111_1
  6
AUSGEZOGEN
 62
     7
440
 33554687
370
    25
100
AcDbLine
 10
12.022105
 20
-2.383573
 30
0.0
 11
12.103302
 21
-2.383573
 31
0.0
  0
LINE
  5
CC
330
1F
100
AcDbEntity
  8
XR$1$TB_111_1
  6
VERDECKT2_S2
 62
     7
440
 33554687
370
    13
100
AcDbLine
 10
12.022105
 20
-2.377573
 30
0.0
 11
12.103302
 21
-2.377573
 31
0.0
  0
LINE
  5
CD
330
1F
100
AcDbEntity
  8
XR$1$TB_111_1
  6
AUSGEZOGEN
 62
     7
440
 33554687
370
    25
100
AcDbLine
 10
12.103302
 20
-2.363573
 30
0.0
 11
12.022105
 21
-2.363573
 31
0.0
  0
LINE
  5
CE
330
1F
100
AcDbEntity
  8
XR$1$TB_111_1
  6
VERDECKT2_S2
 62
     7
440
 33554687
370
    13
100
AcDbLine
 10
12.103302
 20
-2.369579
 30
0.0
 11
12.022105
 21
-2.369579
 31
0.0
  0
LINE
  5
CF
330
1F
100
AcDbEntity
  8
XR$1$TB_111_1
  6
AUSGEZOGEN
 62
     7
440
 33554687
370
    18
100
AcDbLine
 10
12.055302
 20
-2.357372
 30
0.0
 11
12.155302
 21
-2.357372
 31
0.0
  0
LINE
  5
D0
330
1F
100
AcDbEntity
  8
XR$1$TB_111_1
  6
AUSGEZOGEN
 62
     7
440
 33554687
370
    18
100
AcDbLine
 10
12.119802
 20
-2.359372
 30
0.0
 11
12.164279
 21
-2.359372
 31
0.0
  0
ARC
  5
D1
330
1F
100
AcDbEntity
  8
XR$1$TB_111_1
  6
AUSGEZOGEN
 62
     7
440
 33554687
370
    18
100
AcDbCircle
 10
12.164279
 20
-2.361372
 30
0.0
 40
0.002
100
AcDbArc
 50
23.578178
 51
90.0
  0
ARC
  5
D2
330
1F
100
AcDbEntity
  8
XR$1$TB_111_1
  6
AUSGEZOGEN
 62
     7
440
 33554687
370
    18
100
AcDbCircle
 10
12.168861
 20
-2.359372
 30
0.0
 40
0.003
100
AcDbArc
 50
203.578178
 51
345.287786
  0
LINE
  5
D3
330
1F
100
AcDbEntity
  8
XR$1$TB_111_1
  6
AUSGEZOGEN
 62
     7
440
 33554687
370
    18
100
AcDbLine
 10
12.171763
 20
-2.360134
 30
0.0
 11
12.172302
 21
-2.35808
 31
0.0
  0
LINE
  5
D4
330
1F
100
AcDbEntity
  8
XR$1$TB_111_1
  6
AUSGEZOGEN
 62
     7
440
 33554687
370
    18
100
AcDbLine
 10
12.172302
 20
-2.35808
 30
0.0
 11
12.170368
 21
-2.357572
 31
0.0
  0
LINE
  5
D5
330
1F
100
AcDbEntity
  8
XR$1$TB_111_1
  6
AUSGEZOGEN
 62
     7
440
 33554687
370
    18
100
AcDbLine
 10
12.170368
 20
-2.357572
 30
0.0
 11
12.169828
 21
-2.359626
 31
0.0
  0
ARC
  5
D6
330
1F
100
AcDbEntity
  8
XR$1$TB_111_1
  6
AUSGEZOGEN
 62
     7
440
 33554687
370
    18
100
AcDbCircle
 10
12.168861
 20
-2.359372
 30
0.0
 40
0.001
100
AcDbArc
 50
203.578178
 51
345.287786
  0
ARC
  5
D7
330
1F
100
AcDbEntity
  8
XR$1$TB_111_1
  6
AUSGEZOGEN
 62
     7
440
 33554687
370
    18
100
AcDbCircle
 10
12.164279
 20
-2.361372
 30
0.0
 40
0.004
100
AcDbArc
 50
23.578178
 51
90.0
  0
LINE
  5
D8
330
1F
100
AcDbEntity
  8
XR$1$TB_111_1
  6
AUSGEZOGEN
 62
     7
440
 33554687
370
    18
100
AcDbLine
 10
12.164279
 20
-2.357372
 30
0.0
 11
12.119802
 21
-2.357372
 31
0.0
  0
LINE
  5
D9
330
1F
100
AcDbEntity
  8
XR$1$TB_111_1
  6
AUSGEZOGEN
 62
     7
440
 33554687
370
    18
100
AcDbLine
 10
12.094802
 20
-2.357372
 30
0.0
 11
12.050326
 21
-2.357372
 31
0.0
  0
ARC
  5
DA
330
1F
100
AcDbEntity
  8
XR$1$TB_111_1
  6
AUSGEZOGEN
 62
     7
440
 33554687
370
    18
100
AcDbCircle
 10
12.050326
 20
-2.361372
 30
0.0
 40
0.004
100
AcDbArc
 50
90.0
 51
156.421822
  0
ARC
  5
DB
330
1F
100
AcDbEntity
  8
XR$1$TB_111_1
  6
AUSGEZOGEN
 62
     7
440
 33554687
370
    18
100
AcDbCircle
 10
12.045743
 20
-2.359372
 30
0.0
 40
0.001
100
AcDbArc
 50
194.712214
 51
336.421822
  0
LINE
  5
DC
330
1F
100
AcDbEntity
  8
XR$1$TB_111_1
  6
AUSGEZOGEN
 62
     7
440
 33554687
370
    18
100
AcDbLine
 10
12.044776
 20
-2.359626
 30
0.0
 11
12.044236
 21
-2.357572
 31
0.0
  0
LINE
  5
DD
330
1F
100
AcDbEntity
  8
XR$1$TB_111_1
  6
AUSGEZOGEN
 62
     7
440
 33554687
370
    18
100
AcDbLine
 10
12.044236
 20
-2.357572
 30
0.0
 11
12.042302
 21
-2.35808
 31
0.0
  0
LINE
  5
DE
330
1F
100
AcDbEntity
  8
XR$1$TB_111_1
  6
AUSGEZOGEN
 62
     7
440
 33554687
370
    18
100
AcDbLine
 10
12.042302
 20
-2.35808
 30
0.0
 11
12.042841
 21
-2.360134
 31
0.0
  0
ARC
  5
DF
330
1F
100
AcDbEntity
  8
XR$1$TB_111_1
  6
AUSGEZOGEN
 62
     7
440
 33554687
370
    18
100
AcDbCircle
 10
12.045743
 20
-2.359372
 30
0.0
 40
0.003
100
AcDbArc
 50
194.712214
 51
336.421822
  0
ARC
  5
E0
330
1F
100
AcDbEntity
  8
XR$1$TB_111_1
  6
AUSGEZOGEN
 62
     7
440
 33554687
370
    18
100
AcDbCircle
 10
12.050326
 20
-2.361372
 30
0.0
 40
0.002
100
AcDbArc
 50
90.0
 51
156.421822
  0
LINE
  5
E1
330
1F
100
AcDbEntity
  8
XR$1$TB_111_1
  6
AUSGEZOGEN
 62
     7
440
 33554687
370
    25
100
AcDbLine
 10
12.094798
 20
-2.362982
 30
0.0
 11
12.094798
 21
-2.362833
 31
0.0
  0
LWPOLYLINE
  5
E2
330
1F
100
AcDbEntity
  8
XR$1$TB_111_1
  6
AUSGEZOGEN
 62
     7
440
 33554687
370
    18
100
AcDbPolyline
 90
        3
 70
     0
 43
0.0
 10
12.058287
 20
-2.359372
 10
12.061196
 20
-2.360124
 10
12.063336
 20
-2.362129
  0
LINE
  5
E3
330
1F
100
AcDbEntity
  8
XR$1$TB_111_1
  6
AUSGEZOGEN
 62
     7
440
 33554687
370
    18
100
AcDbLine
 10
12.082295
 20
-2.359372
 30
0.0
 11
12.088296
 21
-2.359372
 31
0.0
  0
LINE
  5
E4
330
1F
100
AcDbEntity
  8
XR$1$TB_111_1
  6
AUSGEZOGEN
 62
     7
440
 33554687
370
    18
100
AcDbLine
 10
12.077293
 20
-2.359372
 30
0.0
 11
12.082295
 21
-2.359372
 31
0.0
  0
LINE
  5
E5
330
1F
100
AcDbEntity
  8
XR$1$TB_111_1
  6
AUSGEZOGEN
 62
     7
440
 33554687
370
    18
100
AcDbLine
 10
12.071291
 20
-2.359372
 30
0.0
 11
12.077293
 21
-2.359372
 31
0.0
  0
LINE
  5
E6
330
1F
100
AcDbEntity
  8
XR$1$TB_111_1
  6
AUSGEZOGEN
 62
     7
440
 33554687
370
    18
100
AcDbLine
 10
12.077293
 20
-2.357372
 30
0.0
 11
12.071291
 21
-2.357372
 31
0.0
  0
LINE
  5
E7
330
1F
100
AcDbEntity
  8
XR$1$TB_111_1
  6
AUSGEZOGEN
 62
     7
440
 33554687
370
    18
100
AcDbLine
 10
12.082295
 20
-2.357372
 30
0.0
 11
12.077293
 21
-2.357372
 31
0.0
  0
LINE
  5
E8
330
1F
100
AcDbEntity
  8
XR$1$TB_111_1
  6
AUSGEZOGEN
 62
     7
440
 33554687
370
    18
100
AcDbLine
 10
12.088296
 20
-2.357372
 30
0.0
 11
12.082295
 21
-2.357372
 31
0.0
  0
LWPOLYLINE
  5
E9
330
1F
100
AcDbEntity
  8
XR$1$TB_111_1
  6
AUSGEZOGEN
 62
     7
440
 33554687
370
    18
100
AcDbPolyline
 90
       27
 70
     1
 43
0.0
 10
12.073068
 20
-2.359872
 10
12.073668
 20
-2.360113
 10
12.074047
 20
-2.360399
 10
12.074292
 20
-2.361025
 10
12.074038
 20
-2.361669
 10
12.073565
 20
-2.362077
 10
12.073014
 20
-2.362288
 10
12.07272
 20
-2.362329
 10
12.072557
 20
-2.362335
 10
12.07242
 20
-2.362332
 10
12.072258
 20
-2.362318
 10
12.071974
 20
-2.362271
 10
12.071006
 20
-2.361933
 10
12.069968
 20
-2.361354
 10
12.068977
 20
-2.360652
 10
12.068444
 20
-2.360165
 10
12.068291
 20
-2.359853
 10
12.068464
 20
-2.35967
 10
12.068888
 20
-2.359576
 10
12.069359
 20
-2.359541
 10
12.069651
 20
-2.359533
 10
12.069858
 20
-2.359532
 10
12.070064
 20
-2.359533
 10
12.070347
 20
-2.359538
 10
12.070987
 20
-2.359565
 10
12.072057
 20
-2.359665
 10
12.073068
 20
-2.359872
  0
LWPOLYLINE
  5
EA
330
1F
100
AcDbEntity
  8
XR$1$TB_111_1
  6
AUSGEZOGEN
 62
     7
440
 33554687
370
    18
100
AcDbPolyline
 90
        7
 70
     0
 43
0.0
 10
12.071235
 20
-2.359581
 10
12.071619
 20
-2.359695
 10
12.072133
 20
-2.359796
 10
12.072387
 20
-2.359821
 10
12.072582
 20
-2.359827
 10
12.072788
 20
-2.359819
 10
12.072855
 20
-2.359814
  0
LWPOLYLINE
  5
EB
330
1F
100
AcDbEntity
  8
XR$1$TB_111_1
  6
AUSGEZOGEN
 62
     7
440
 33554687
370
    18
100
AcDbPolyline
 90
       27
 70
     1
 43
0.0
 10
12.08739
 20
-2.359578
 10
12.087798
 20
-2.359554
 10
12.088312
 20
-2.359536
 10
12.088571
 20
-2.359532
 10
12.088772
 20
-2.359532
 10
12.088988
 20
-2.359534
 10
12.089319
 20
-2.359546
 10
12.090007
 20
-2.359631
 10
12.090288
 20
-2.359812
 10
12.09016
 20
-2.360144
 10
12.089572
 20
-2.360683
 10
12.088561
 20
-2.361391
 10
12.087618
 20
-2.361916
 10
12.086771
 20
-2.362233
 10
12.086498
 20
-2.362293
 10
12.086273
 20
-2.362324
 10
12.086125
 20
-2.362334
 10
12.085987
 20
-2.362335
 10
12.085801
 20
-2.362324
 10
12.085407
 20
-2.362245
 10
12.084774
 20
-2.361903
 10
12.084331
 20
-2.361249
 10
12.084392
 20
-2.360605
 10
12.084858
 20
-2.360149
 10
12.085595
 20
-2.35985
 10
12.086483
 20
-2.359672
 10
12.08739
 20
-2.359578
  0
LWPOLYLINE
  5
EC
330
1F
100
AcDbEntity
  8
XR$1$TB_111_1
  6
AUSGEZOGEN
 62
     7
440
 33554687
370
    18
100
AcDbPolyline
 90
        7
 70
     0
 43
0.0
 10
12.085733
 20
-2.359814
 10
12.08586
 20
-2.359823
 10
12.086056
 20
-2.359826
 10
12.086258
 20
-2.359817
 10
12.08655
 20
-2.359782
 10
12.087073
 20
-2.359667
 10
12.087353
 20
-2.359581
  0
LINE
  5
ED
330
1F
100
AcDbEntity
  8
XR$1$TB_111_1
  6
AUSGEZOGEN
 62
     7
440
 33554687
370
    18
100
AcDbLine
 10
12.099574
 20
-2.362873
 30
0.0
 11
12.10155
 21
-2.362873
 31
0.0
  0
LINE
  5
EE
330
1F
100
AcDbEntity
  8
XR$1$TB_111_1
  6
AUSGEZOGEN
 62
     7
440
 33554687
370
    18
100
AcDbLine
 10
12.10155
 20
-2.362873
 30
0.0
 11
12.10155
 21
-2.360873
 31
0.0
  0
LWPOLYLINE
  5
EF
330
1F
100
AcDbEntity
  8
XR$1$TB_111_1
  6
AUSGEZOGEN
 62
     7
440
 33554687
370
    18
100
AcDbPolyline
 90
        3
 70
     0
 43
0.0
 10
12.1003
 20
-2.359372
 10
12.097392
 20
-2.360124
 10
12.095251
 20
-2.362129
  0
LINE
  5
F0
330
1F
100
AcDbEntity
  8
XR$1$TB_111_1
  6
AUSGEZOGEN
 62
     7
440
 33554687
370
    18
100
AcDbLine
 10
12.10155
 20
-2.360873
 30
0.0
 11
12.099574
 21
-2.360873
 31
0.0
  0
LINE
  5
F1
330
1F
100
AcDbEntity
  8
XR$1$TB_111_1
  6
AUSGEZOGEN
 62
     7
440
 33554687
370
    18
100
AcDbLine
 10
12.113054
 20
-2.360873
 30
0.0
 11
12.113054
 21
-2.362873
 31
0.0
  0
LINE
  5
F2
330
1F
100
AcDbEntity
  8
XR$1$TB_111_1
  6
AUSGEZOGEN
 62
     7
440
 33554687
370
    18
100
AcDbLine
 10
12.11503
 20
-2.360873
 30
0.0
 11
12.113054
 21
-2.360873
 31
0.0
  0
LINE
  5
F3
330
1F
100
AcDbEntity
  8
XR$1$TB_111_1
  6
AUSGEZOGEN
 62
     7
440
 33554687
370
    18
100
AcDbLine
 10
12.113054
 20
-2.362873
 30
0.0
 11
12.11503
 21
-2.362873
 31
0.0
  0
LINE
  5
F4
330
1F
100
AcDbEntity
  8
XR$1$TB_111_1
  6
AUSGEZOGEN
 62
     7
440
 33554687
370
    18
100
AcDbLine
 10
12.119806
 20
-2.362982
 30
0.0
 11
12.119806
 21
-2.362833
 31
0.0
  0
LWPOLYLINE
  5
F5
330
1F
100
AcDbEntity
  8
XR$1$TB_111_1
  6
AUSGEZOGEN
 62
     7
440
 33554687
370
    18
100
AcDbPolyline
 90
        3
 70
     0
 43
0.0
 10
12.114304
 20
-2.359372
 10
12.117212
 20
-2.360124
 10
12.119353
 20
-2.362129
  0
LWPOLYLINE
  5
F6
330
1F
100
AcDbEntity
  8
XR$1$TB_111_1
  6
AUSGEZOGEN
 62
     7
440
 33554687
370
    18
100
AcDbPolyline
 90
        3
 70
     0
 43
0.0
 10
12.156317
 20
-2.359372
 10
12.153409
 20
-2.360124
 10
12.151268
 20
-2.362129
  0
LINE
  5
F7
330
1F
100
AcDbEntity
  8
XR$1$TB_111_1
  6
AUSGEZOGEN
 62
     7
440
 33554687
370
    18
100
AcDbLine
 10
12.137311
 20
-2.359372
 30
0.0
 11
12.143313
 21
-2.359372
 31
0.0
  0
LINE
  5
F8
330
1F
100
AcDbEntity
  8
XR$1$TB_111_1
  6
AUSGEZOGEN
 62
     7
440
 33554687
370
    18
100
AcDbLine
 10
12.13231
 20
-2.359372
 30
0.0
 11
12.137311
 21
-2.359372
 31
0.0
  0
LINE
  5
F9
330
1F
100
AcDbEntity
  8
XR$1$TB_111_1
  6
AUSGEZOGEN
 62
     7
440
 33554687
370
    18
100
AcDbLine
 10
12.126308
 20
-2.359372
 30
0.0
 11
12.13231
 21
-2.359372
 31
0.0
  0
LINE
  5
FA
330
1F
100
AcDbEntity
  8
XR$1$TB_111_1
  6
AUSGEZOGEN
 62
     7
440
 33554687
370
    18
100
AcDbLine
 10
12.13231
 20
-2.357372
 30
0.0
 11
12.126308
 21
-2.357372
 31
0.0
  0
LINE
  5
FB
330
1F
100
AcDbEntity
  8
XR$1$TB_111_1
  6
AUSGEZOGEN
 62
     7
440
 33554687
370
    18
100
AcDbLine
 10
12.137311
 20
-2.357372
 30
0.0
 11
12.13231
 21
-2.357372
 31
0.0
  0
LINE
  5
FC
330
1F
100
AcDbEntity
  8
XR$1$TB_111_1
  6
AUSGEZOGEN
 62
     7
440
 33554687
370
    18
100
AcDbLine
 10
12.143313
 20
-2.357372
 30
0.0
 11
12.137311
 21
-2.357372
 31
0.0
  0
LWPOLYLINE
  5
FD
330
1F
100
AcDbEntity
  8
XR$1$TB_111_1
  6
AUSGEZOGEN
 62
     7
440
 33554687
370
    18
100
AcDbPolyline
 90
       27
 70
     1
 43
0.0
 10
12.129085
 20
-2.359872
 10
12.129684
 20
-2.360113
 10
12.130063
 20
-2.360399
 10
12.130308
 20
-2.361025
 10
12.130055
 20
-2.361669
 10
12.129581
 20
-2.362077
 10
12.129031
 20
-2.362288
 10
12.128737
 20
-2.362329
 10
12.128574
 20
-2.362335
 10
12.128436
 20
-2.362332
 10
12.128275
 20
-2.362318
 10
12.127991
 20
-2.362271
 10
12.127023
 20
-2.361933
 10
12.125985
 20
-2.361354
 10
12.124993
 20
-2.360652
 10
12.124461
 20
-2.360165
 10
12.124308
 20
-2.359853
 10
12.124481
 20
-2.35967
 10
12.124904
 20
-2.359576
 10
12.125376
 20
-2.359541
 10
12.125668
 20
-2.359533
 10
12.125875
 20
-2.359532
 10
12.126081
 20
-2.359533
 10
12.126363
 20
-2.359538
 10
12.127004
 20
-2.359565
 10
12.128074
 20
-2.359665
 10
12.129085
 20
-2.359872
  0
LWPOLYLINE
  5
FE
330
1F
100
AcDbEntity
  8
XR$1$TB_111_1
  6
AUSGEZOGEN
 62
     7
440
 33554687
370
    18
100
AcDbPolyline
 90
        7
 70
     0
 43
0.0
 10
12.127251
 20
-2.359581
 10
12.127636
 20
-2.359695
 10
12.12815
 20
-2.359796
 10
12.128404
 20
-2.359821
 10
12.128598
 20
-2.359827
 10
12.128805
 20
-2.359819
 10
12.128871
 20
-2.359814
  0
LWPOLYLINE
  5
FF
330
1F
100
AcDbEntity
  8
XR$1$TB_111_1
  6
AUSGEZOGEN
 62
     7
440
 33554687
370
    18
100
AcDbPolyline
 90
       27
 70
     1
 43
0.0
 10
12.143407
 20
-2.359578
 10
12.143814
 20
-2.359554
 10
12.144329
 20
-2.359536
 10
12.144588
 20
-2.359532
 10
12.144789
 20
-2.359532
 10
12.145005
 20
-2.359534
 10
12.145336
 20
-2.359546
 10
12.146024
 20
-2.359631
 10
12.146304
 20
-2.359812
 10
12.146177
 20
-2.360144
 10
12.145589
 20
-2.360683
 10
12.144578
 20
-2.361391
 10
12.143635
 20
-2.361916
 10
12.142788
 20
-2.362233
 10
12.142515
 20
-2.362293
 10
12.142289
 20
-2.362324
 10
12.142142
 20
-2.362334
 10
12.142003
 20
-2.362335
 10
12.141818
 20
-2.362324
 10
12.141424
 20
-2.362245
 10
12.140791
 20
-2.361903
 10
12.140348
 20
-2.361249
 10
12.140409
 20
-2.360605
 10
12.140875
 20
-2.360149
 10
12.141611
 20
-2.35985
 10
12.1425
 20
-2.359672
 10
12.143407
 20
-2.359578
  0
LWPOLYLINE
  5
100
330
1F
100
AcDbEntity
  8
XR$1$TB_111_1
  6
AUSGEZOGEN
 62
     7
440
 33554687
370
    18
100
AcDbPolyline
 90
        7
 70
     0
 43
0.0
 10
12.14175
 20
-2.359814
 10
12.141876
 20
-2.359823
 10
12.142073
 20
-2.359826
 10
12.142275
 20
-2.359817
 10
12.142567
 20
-2.359782
 10
12.14309
 20
-2.359667
 10
12.143369
 20
-2.359581
  0
LINE
  5
101
330
1F
100
AcDbEntity
  8
XR$1$TB_111_1
  6
AUSGEZOGEN
 62
     7
440
 33554687
370
    18
100
AcDbLine
 10
12.126308
 20
-2.357372
 30
0.0
 11
12.088296
 21
-2.357372
 31
0.0
  0
LINE
  5
102
330
1F
100
AcDbEntity
  8
XR$1$TB_111_1
  6
AUSGEZOGEN
 62
     7
440
 33554687
370
    18
100
AcDbLine
 10
12.119806
 20
-2.362982
 30
0.0
 11
12.119806
 21
-2.363573
 31
0.0
  0
LINE
  5
103
330
1F
100
AcDbEntity
  8
XR$1$TB_111_1
  6
AUSGEZOGEN
 62
     7
440
 33554687
370
    18
100
AcDbLine
 10
12.119806
 20
-2.363573
 30
0.0
 11
12.119806
 21
-2.363765
 31
0.0
  0
LINE
  5
104
330
1F
100
AcDbEntity
  8
XR$1$TB_111_1
  6
AUSGEZOGEN
 62
     7
440
 33554687
370
    18
100
AcDbLine
 10
12.119353
 20
-2.362129
 30
0.0
 11
12.120281
 21
-2.363573
 31
0.0
  0
LINE
  5
105
330
1F
100
AcDbEntity
  8
XR$1$TB_111_1
  6
AUSGEZOGEN
 62
     7
440
 33554687
370
    18
100
AcDbLine
 10
12.151268
 20
-2.362129
 30
0.0
 11
12.150339
 21
-2.363573
 31
0.0
  0
LINE
  5
106
330
1F
100
AcDbEntity
  8
XR$1$TB_111_1
  6
AUSGEZOGEN
 62
     7
440
 33554687
370
    18
100
AcDbLine
 10
12.063336
 20
-2.362129
 30
0.0
 11
12.064265
 21
-2.363573
 31
0.0
  0
LINE
  5
107
330
1F
100
AcDbEntity
  8
XR$1$TB_111_1
  6
AUSGEZOGEN
 62
     7
440
 33554687
370
    18
100
AcDbLine
 10
12.095251
 20
-2.362129
 30
0.0
 11
12.094323
 21
-2.363573
 31
0.0
  0
LINE
  5
108
330
1F
100
AcDbEntity
  8
XR$1$TB_111_1
  6
AUSGEZOGEN
 62
     7
440
 33554687
370
    18
100
AcDbLine
 10
12.094798
 20
-2.363765
 30
0.0
 11
12.094798
 21
-2.363573
 31
0.0
  0
LINE
  5
109
330
1F
100
AcDbEntity
  8
XR$1$TB_111_1
  6
AUSGEZOGEN
 62
     7
440
 33554687
370
    18
100
AcDbLine
 10
12.094798
 20
-2.363573
 30
0.0
 11
12.094798
 21
-2.362982
 31
0.0
  0
LINE
  5
10A
330
1F
100
AcDbEntity
  8
XR$1$TB_111_1
  6
AUSGEZOGEN
 62
     7
440
 33554687
370
    25
100
AcDbLine
 10
12.103302
 20
-2.383573
 30
0.0
 11
12.103302
 21
-2.363573
 31
0.0
  0
LINE
  5
10B
330
1F
100
AcDbEntity
  8
XR$1$TB_111_1
  6
STRICHLINIE_S4
 62
     7
440
 33554687
370
    13
100
AcDbLine
 10
12.087203
 20
-2.369624
 30
0.0
 11
12.084295
 21
-2.370376
 31
0.0
  0
LWPOLYLINE
  5
10C
330
1F
100
AcDbEntity
  8
XR$1$TB_111_1
  6
AUSGEZOGEN
 62
     7
440
 33554687
370
    13
100
AcDbPolyline
 90
        4
 70
     0
 43
0.0
 10
12.075292
 20
-2.371576
 10
12.074541
 20
-2.370387
 10
12.074365
 20
-2.370019
 10
12.074292
 20
-2.369705
  0
LWPOLYLINE
  5
10D
330
1F
100
AcDbEntity
  8
XR$1$TB_111_1
  6
AUSGEZOGEN
 62
     7
440
 33554687
370
    13
100
AcDbPolyline
 90
        4
 70
     0
 43
0.0
 10
12.084295
 20
-2.369705
 10
12.084222
 20
-2.370019
 10
12.084046
 20
-2.370387
 10
12.083295
 20
-2.371576
  0
LINE
  5
10E
330
1F
100
AcDbEntity
  8
XR$1$TB_111_1
  6
AUSGEZOGEN
 62
     7
440
 33554687
370
    13
100
AcDbLine
 10
12.074292
 20
-2.372376
 30
0.0
 11
12.074292
 21
-2.370376
 31
0.0
  0
LINE
  5
10F
330
1F
100
AcDbEntity
  8
XR$1$TB_111_1
  6
AUSGEZOGEN
 62
     7
440
 33554687
370
    13
100
AcDbLine
 10
12.074292
 20
-2.369325
 30
0.0
 11
12.074292
 21
-2.370376
 31
0.0
  0
LINE
  5
110
330
1F
100
AcDbEntity
  8
XR$1$TB_111_1
  6
AUSGEZOGEN
 62
     7
440
 33554687
370
    13
100
AcDbLine
 10
12.071384
 20
-2.369624
 30
0.0
 11
12.071291
 21
-2.369572
 31
0.0
  0
LINE
  5
111
330
1F
100
AcDbEntity
  8
XR$1$TB_111_1
  6
AUSGEZOGEN
 62
     7
440
 33554687
370
    13
100
AcDbLine
 10
12.074292
 20
-2.370376
 30
0.0
 11
12.071384
 21
-2.369624
 31
0.0
  0
LINE
  5
112
330
1F
100
AcDbEntity
  8
XR$1$TB_111_1
  6
AUSGEZOGEN
 62
     7
440
 33554687
370
    13
100
AcDbLine
 10
12.074292
 20
-2.372376
 30
0.0
 11
12.071291
 21
-2.371792
 31
0.0
  0
LINE
  5
113
330
1F
100
AcDbEntity
  8
XR$1$TB_111_1
  6
AUSGEZOGEN
 62
     7
440
 33554687
370
    13
100
AcDbLine
 10
12.071291
 20
-2.369572
 30
0.0
 11
12.069243
 21
-2.367619
 31
0.0
  0
LINE
  5
114
330
1F
100
AcDbEntity
  8
XR$1$TB_111_1
  6
AUSGEZOGEN
 62
     7
440
 33554687
370
    13
100
AcDbLine
 10
12.087203
 20
-2.369624
 30
0.0
 11
12.087296
 21
-2.369572
 31
0.0
  0
LINE
  5
115
330
1F
100
AcDbEntity
  8
XR$1$TB_111_1
  6
AUSGEZOGEN
 62
     7
440
 33554687
370
    13
100
AcDbLine
 10
12.084295
 20
-2.370376
 30
0.0
 11
12.084295
 21
-2.372376
 31
0.0
  0
LINE
  5
116
330
1F
100
AcDbEntity
  8
XR$1$TB_111_1
  6
AUSGEZOGEN
 62
     7
440
 33554687
370
    13
100
AcDbLine
 10
12.087296
 20
-2.371792
 30
0.0
 11
12.084295
 21
-2.372376
 31
0.0
  0
LINE
  5
117
330
1F
100
AcDbEntity
  8
XR$1$TB_111_1
  6
AUSGEZOGEN
 62
     7
440
 33554687
370
    13
100
AcDbLine
 10
12.084295
 20
-2.370376
 30
0.0
 11
12.087203
 21
-2.369624
 31
0.0
  0
LINE
  5
118
330
1F
100
AcDbEntity
  8
XR$1$TB_111_1
  6
AUSGEZOGEN
 62
     7
440
 33554687
370
    13
100
AcDbLine
 10
12.084295
 20
-2.371576
 30
0.0
 11
12.074292
 21
-2.371576
 31
0.0
  0
LINE
  5
119
330
1F
100
AcDbEntity
  8
XR$1$TB_111_1
  6
AUSGEZOGEN
 62
     7
440
 33554687
370
    13
100
AcDbLine
 10
12.084295
 20
-2.370376
 30
0.0
 11
12.084295
 21
-2.369325
 31
0.0
  0
LINE
  5
11A
330
1F
100
AcDbEntity
  8
XR$1$TB_111_1
  6
AUSGEZOGEN
 62
     7
440
 33554687
370
    13
100
AcDbLine
 10
12.074292
 20
-2.370376
 30
0.0
 11
12.079294
 21
-2.370376
 31
0.0
  0
LINE
  5
11B
330
1F
100
AcDbEntity
  8
XR$1$TB_111_1
  6
AUSGEZOGEN
 62
     7
440
 33554687
370
    13
100
AcDbLine
 10
12.079294
 20
-2.370376
 30
0.0
 11
12.084295
 21
-2.370376
 31
0.0
  0
ARC
  5
11C
330
1F
100
AcDbEntity
  8
XR$1$TB_111_1
  6
AUSGEZOGEN
 62
     7
440
 33554687
370
    13
100
AcDbCircle
 10
12.078896
 20
-2.370076
 30
0.0
 40
0.0008002397722164
100
AcDbArc
 50
223.432537
 51
270.0
  0
ARC
  5
11D
330
1F
100
AcDbEntity
  8
XR$1$TB_111_1
  6
AUSGEZOGEN
 62
     7
440
 33554687
370
    13
100
AcDbCircle
 10
12.079692
 20
-2.370076
 30
0.0
 40
0.0008002397722164
100
AcDbArc
 50
270.0
 51
316.567463
  0
LINE
  5
11E
330
1F
100
AcDbEntity
  8
XR$1$TB_111_1
  6
AUSGEZOGEN
 62
     7
440
 33554687
370
    13
100
AcDbLine
 10
12.078896
 20
-2.370876
 30
0.0
 11
12.079692
 21
-2.370876
 31
0.0
  0
ARC
  5
11F
330
1F
100
AcDbEntity
  8
XR$1$TB_111_1
  6
AUSGEZOGEN
 62
     7
440
 33554687
370
    13
100
AcDbCircle
 10
12.077734
 20
-2.371176
 30
0.0
 40
0.0008002397722164
100
AcDbArc
 50
43.432537
 51
90.0
  0
ARC
  5
120
330
1F
100
AcDbEntity
  8
XR$1$TB_111_1
  6
AUSGEZOGEN
 62
     7
440
 33554687
370
    13
100
AcDbCircle
 10
12.080854
 20
-2.371176
 30
0.0
 40
0.0008002397722164
100
AcDbArc
 50
90.0
 51
136.567463
  0
LINE
  5
121
330
1F
100
AcDbEntity
  8
XR$1$TB_111_1
  6
AUSGEZOGEN
 62
     7
440
 33554687
370
    13
100
AcDbLine
 10
12.084295
 20
-2.369325
 30
0.0
 11
12.074292
 21
-2.369325
 31
0.0
  0
LINE
  5
122
330
1F
100
AcDbEntity
  8
XR$1$TB_111_1
  6
AUSGEZOGEN
 62
     7
440
 33554687
370
    13
100
AcDbLine
 10
12.087296
 20
-2.369572
 30
0.0
 11
12.089344
 21
-2.367619
 31
0.0
  0
LWPOLYLINE
  5
123
330
1F
100
AcDbEntity
  8
XR$1$TB_111_1
  6
AUSGEZOGEN
 62
     7
440
 33554687
370
    13
100
AcDbPolyline
 90
        4
 70
     0
 43
0.0
 10
12.067561
 20
-2.368701
 10
12.068851
 20
-2.370239
 10
12.07048
 20
-2.37141
 10
12.071291
 20
-2.371792
  0
ARC
  5
124
330
1F
100
AcDbEntity
  8
XR$1$TB_111_1
  6
AUSGEZOGEN
 62
     7
440
 33554687
370
    13
100
AcDbCircle
 10
12.080319
 20
-2.371676
 30
0.0
 40
0.0012003596583246
100
AcDbArc
 50
270.0
 51
324.314665
  0
ARC
  5
125
330
1F
100
AcDbEntity
  8
XR$1$TB_111_1
  6
AUSGEZOGEN
 62
     7
440
 33554687
370
    13
100
AcDbCircle
 10
12.078268
 20
-2.371676
 30
0.0
 40
0.0012003596583246
100
AcDbArc
 50
215.685335
 51
270.0
  0
LINE
  5
126
330
1F
100
AcDbEntity
  8
XR$1$TB_111_1
  6
AUSGEZOGEN
 62
     7
440
 33554687
370
    13
100
AcDbLine
 10
12.080319
 20
-2.372876
 30
0.0
 11
12.078268
 21
-2.372876
 31
0.0
  0
LINE
  5
127
330
1F
100
AcDbEntity
  8
XR$1$TB_111_1
  6
AUSGEZOGEN
 62
     7
440
 33554687
370
    13
100
AcDbLine
 10
12.079294
 20
-2.372376
 30
0.0
 11
12.074292
 21
-2.372376
 31
0.0
  0
LINE
  5
128
330
1F
100
AcDbEntity
  8
XR$1$TB_111_1
  6
AUSGEZOGEN
 62
     7
440
 33554687
370
    13
100
AcDbLine
 10
12.084295
 20
-2.372376
 30
0.0
 11
12.079294
 21
-2.372376
 31
0.0
  0
LWPOLYLINE
  5
129
330
1F
100
AcDbEntity
  8
XR$1$TB_111_1
  6
AUSGEZOGEN
 62
     7
440
 33554687
370
    13
100
AcDbPolyline
 90
        4
 70
     0
 43
0.0
 10
12.091027
 20
-2.368701
 10
12.089736
 20
-2.370239
 10
12.088107
 20
-2.37141
 10
12.087296
 20
-2.371792
  0
LINE
  5
12A
330
1F
100
AcDbEntity
  8
XR$1$TB_111_1
  6
AUSGEZOGEN
 62
     7
440
 33554687
370
    13
100
AcDbLine
 10
12.093138
 20
-2.365416
 30
0.0
 11
12.094798
 21
-2.365416
 31
0.0
  0
LINE
  5
12B
330
1F
100
AcDbEntity
  8
XR$1$TB_111_1
  6
AUSGEZOGEN
 62
     7
440
 33554687
370
    13
100
AcDbLine
 10
12.094798
 20
-2.363765
 30
0.0
 11
12.094798
 21
-2.365416
 31
0.0
  0
LWPOLYLINE
  5
12C
330
1F
100
AcDbEntity
  8
XR$1$TB_111_1
  6
AUSGEZOGEN
 62
     7
440
 33554687
370
    13
100
AcDbPolyline
 90
        3
 70
     0
 43
0.0
 10
12.069243
 20
-2.367619
 10
12.067227
 20
-2.364481
 10
12.066643
 20
-2.363573
  0
LWPOLYLINE
  5
12D
330
1F
100
AcDbEntity
  8
XR$1$TB_111_1
  6
AUSGEZOGEN
 62
     7
440
 33554687
370
    13
100
AcDbPolyline
 90
        3
 70
     0
 43
0.0
 10
12.089344
 20
-2.367619
 10
12.091361
 20
-2.364481
 10
12.091944
 20
-2.363573
  0
LWPOLYLINE
  5
12E
330
1F
100
AcDbEntity
  8
XR$1$TB_111_1
  6
AUSGEZOGEN
 62
     7
440
 33554687
370
    13
100
AcDbPolyline
 90
        4
 70
     0
 43
0.0
 10
12.064265
 20
-2.363573
 10
12.064279
 20
-2.363596
 10
12.065925
 20
-2.366156
 10
12.067561
 20
-2.368701
  0
LWPOLYLINE
  5
12F
330
1F
100
AcDbEntity
  8
XR$1$TB_111_1
  6
AUSGEZOGEN
 62
     7
440
 33554687
370
    13
100
AcDbPolyline
 90
        4
 70
     0
 43
0.0
 10
12.094323
 20
-2.363573
 10
12.094308
 20
-2.363596
 10
12.092663
 20
-2.366156
 10
12.091027
 20
-2.368701
  0
LWPOLYLINE
  5
130
330
1F
100
AcDbEntity
  8
XR$1$TB_111_1
  6
AUSGEZOGEN
 62
     7
440
 33554687
370
    13
100
AcDbPolyline
 90
        3
 70
     0
 43
0.0
 10
12.131309
 20
-2.371576
 10
12.130558
 20
-2.370387
 10
12.130552
 20
-2.370376
  0
LWPOLYLINE
  5
131
330
1F
100
AcDbEntity
  8
XR$1$TB_111_1
  6
AUSGEZOGEN
 62
     7
440
 33554687
370
    13
100
AcDbPolyline
 90
        3
 70
     0
 43
0.0
 10
12.130552
 20
-2.370376
 10
12.130382
 20
-2.370019
 10
12.130309
 20
-2.369705
  0
LWPOLYLINE
  5
132
330
1F
100
AcDbEntity
  8
XR$1$TB_111_1
  6
AUSGEZOGEN
 62
     7
440
 33554687
370
    13
100
AcDbPolyline
 90
        3
 70
     0
 43
0.0
 10
12.140312
 20
-2.369705
 10
12.140239
 20
-2.370019
 10
12.140069
 20
-2.370376
  0
LWPOLYLINE
  5
133
330
1F
100
AcDbEntity
  8
XR$1$TB_111_1
  6
AUSGEZOGEN
 62
     7
440
 33554687
370
    13
100
AcDbPolyline
 90
        3
 70
     0
 43
0.0
 10
12.140069
 20
-2.370376
 10
12.140063
 20
-2.370387
 10
12.139312
 20
-2.371576
  0
LINE
  5
134
330
1F
100
AcDbEntity
  8
XR$1$TB_111_1
  6
AUSGEZOGEN
 62
     7
440
 33554687
370
    13
100
AcDbLine
 10
12.130309
 20
-2.372376
 30
0.0
 11
12.130309
 21
-2.370376
 31
0.0
  0
LINE
  5
135
330
1F
100
AcDbEntity
  8
XR$1$TB_111_1
  6
AUSGEZOGEN
 62
     7
440
 33554687
370
    13
100
AcDbLine
 10
12.130309
 20
-2.369325
 30
0.0
 11
12.130309
 21
-2.370376
 31
0.0
  0
LINE
  5
136
330
1F
100
AcDbEntity
  8
XR$1$TB_111_1
  6
AUSGEZOGEN
 62
     7
440
 33554687
370
    13
100
AcDbLine
 10
12.127401
 20
-2.369624
 30
0.0
 11
12.127308
 21
-2.369572
 31
0.0
  0
LINE
  5
137
330
1F
100
AcDbEntity
  8
XR$1$TB_111_1
  6
AUSGEZOGEN
 62
     7
440
 33554687
370
    13
100
AcDbLine
 10
12.127308
 20
-2.369572
 30
0.0
 11
12.12526
 21
-2.367619
 31
0.0
  0
LINE
  5
138
330
1F
100
AcDbEntity
  8
XR$1$TB_111_1
  6
AUSGEZOGEN
 62
     7
440
 33554687
370
    13
100
AcDbLine
 10
12.14322
 20
-2.369624
 30
0.0
 11
12.143313
 21
-2.369572
 31
0.0
  0
LINE
  5
139
330
1F
100
AcDbEntity
  8
XR$1$TB_111_1
  6
AUSGEZOGEN
 62
     7
440
 33554687
370
    13
100
AcDbLine
 10
12.140312
 20
-2.370376
 30
0.0
 11
12.140312
 21
-2.372376
 31
0.0
  0
LINE
  5
13A
330
1F
100
AcDbEntity
  8
XR$1$TB_111_1
  6
AUSGEZOGEN
 62
     7
440
 33554687
370
    13
100
AcDbLine
 10
12.140312
 20
-2.371576
 30
0.0
 11
12.130309
 21
-2.371576
 31
0.0
  0
LINE
  5
13B
330
1F
100
AcDbEntity
  8
XR$1$TB_111_1
  6
AUSGEZOGEN
 62
     7
440
 33554687
370
    13
100
AcDbLine
 10
12.140312
 20
-2.370376
 30
0.0
 11
12.140312
 21
-2.369325
 31
0.0
  0
LINE
  5
13C
330
1F
100
AcDbEntity
  8
XR$1$TB_111_1
  6
AUSGEZOGEN
 62
     7
440
 33554687
370
    13
100
AcDbLine
 10
12.130309
 20
-2.370376
 30
0.0
 11
12.13531
 21
-2.370376
 31
0.0
  0
LINE
  5
13D
330
1F
100
AcDbEntity
  8
XR$1$TB_111_1
  6
AUSGEZOGEN
 62
     7
440
 33554687
370
    13
100
AcDbLine
 10
12.13531
 20
-2.370376
 30
0.0
 11
12.140312
 21
-2.370376
 31
0.0
  0
ARC
  5
13E
330
1F
100
AcDbEntity
  8
XR$1$TB_111_1
  6
AUSGEZOGEN
 62
     7
440
 33554687
370
    13
100
AcDbCircle
 10
12.134913
 20
-2.370076
 30
0.0
 40
0.0008002397722164
100
AcDbArc
 50
223.432537
 51
270.0
  0
ARC
  5
13F
330
1F
100
AcDbEntity
  8
XR$1$TB_111_1
  6
AUSGEZOGEN
 62
     7
440
 33554687
370
    13
100
AcDbCircle
 10
12.135708
 20
-2.370076
 30
0.0
 40
0.0008002397722164
100
AcDbArc
 50
270.0
 51
316.567463
  0
LINE
  5
140
330
1F
100
AcDbEntity
  8
XR$1$TB_111_1
  6
AUSGEZOGEN
 62
     7
440
 33554687
370
    13
100
AcDbLine
 10
12.134913
 20
-2.370876
 30
0.0
 11
12.135708
 21
-2.370876
 31
0.0
  0
ARC
  5
141
330
1F
100
AcDbEntity
  8
XR$1$TB_111_1
  6
AUSGEZOGEN
 62
     7
440
 33554687
370
    13
100
AcDbCircle
 10
12.13375
 20
-2.371176
 30
0.0
 40
0.0008002397722164
100
AcDbArc
 50
43.432537
 51
90.0
  0
ARC
  5
142
330
1F
100
AcDbEntity
  8
XR$1$TB_111_1
  6
AUSGEZOGEN
 62
     7
440
 33554687
370
    13
100
AcDbCircle
 10
12.136871
 20
-2.371176
 30
0.0
 40
0.0008002397722164
100
AcDbArc
 50
90.0
 51
136.567463
  0
LINE
  5
143
330
1F
100
AcDbEntity
  8
XR$1$TB_111_1
  6
AUSGEZOGEN
 62
     7
440
 33554687
370
    13
100
AcDbLine
 10
12.140312
 20
-2.369325
 30
0.0
 11
12.130309
 21
-2.369325
 31
0.0
  0
LINE
  5
144
330
1F
100
AcDbEntity
  8
XR$1$TB_111_1
  6
AUSGEZOGEN
 62
     7
440
 33554687
370
    13
100
AcDbLine
 10
12.130309
 20
-2.370376
 30
0.0
 11
12.127401
 21
-2.369624
 31
0.0
  0
LINE
  5
145
330
1F
100
AcDbEntity
  8
XR$1$TB_111_1
  6
AUSGEZOGEN
 62
     7
440
 33554687
370
    13
100
AcDbLine
 10
12.14322
 20
-2.369624
 30
0.0
 11
12.140312
 21
-2.370376
 31
0.0
  0
LINE
  5
146
330
1F
100
AcDbEntity
  8
XR$1$TB_111_1
  6
AUSGEZOGEN
 62
     7
440
 33554687
370
    13
100
AcDbLine
 10
12.143313
 20
-2.369572
 30
0.0
 11
12.145361
 21
-2.367619
 31
0.0
  0
LINE
  5
147
330
1F
100
AcDbEntity
  8
XR$1$TB_111_1
  6
AUSGEZOGEN
 62
     7
440
 33554687
370
    13
100
AcDbLine
 10
12.119806
 20
-2.365416
 30
0.0
 11
12.119806
 21
-2.363765
 31
0.0
  0
LINE
  5
148
330
1F
100
AcDbEntity
  8
XR$1$TB_111_1
  6
AUSGEZOGEN
 62
     7
440
 33554687
370
    13
100
AcDbLine
 10
12.119806
 20
-2.365416
 30
0.0
 11
12.121466
 21
-2.365416
 31
0.0
  0
LWPOLYLINE
  5
149
330
1F
100
AcDbEntity
  8
XR$1$TB_111_1
  6
AUSGEZOGEN
 62
     7
440
 33554687
370
    13
100
AcDbPolyline
 90
        4
 70
     0
 43
0.0
 10
12.123577
 20
-2.368701
 10
12.124868
 20
-2.370239
 10
12.126497
 20
-2.37141
 10
12.127308
 20
-2.371792
  0
ARC
  5
14A
330
1F
100
AcDbEntity
  8
XR$1$TB_111_1
  6
AUSGEZOGEN
 62
     7
440
 33554687
370
    13
100
AcDbCircle
 10
12.136336
 20
-2.371676
 30
0.0
 40
0.0012003596583246
100
AcDbArc
 50
270.0
 51
324.314665
  0
ARC
  5
14B
330
1F
100
AcDbEntity
  8
XR$1$TB_111_1
  6
AUSGEZOGEN
 62
     7
440
 33554687
370
    13
100
AcDbCircle
 10
12.134285
 20
-2.371676
 30
0.0
 40
0.0012003596583246
100
AcDbArc
 50
215.685335
 51
270.0
  0
LINE
  5
14C
330
1F
100
AcDbEntity
  8
XR$1$TB_111_1
  6
AUSGEZOGEN
 62
     7
440
 33554687
370
    13
100
AcDbLine
 10
12.136336
 20
-2.372876
 30
0.0
 11
12.134285
 21
-2.372876
 31
0.0
  0
LINE
  5
14D
330
1F
100
AcDbEntity
  8
XR$1$TB_111_1
  6
AUSGEZOGEN
 62
     7
440
 33554687
370
    13
100
AcDbLine
 10
12.13531
 20
-2.372376
 30
0.0
 11
12.130309
 21
-2.372376
 31
0.0
  0
LINE
  5
14E
330
1F
100
AcDbEntity
  8
XR$1$TB_111_1
  6
AUSGEZOGEN
 62
     7
440
 33554687
370
    13
100
AcDbLine
 10
12.140312
 20
-2.372376
 30
0.0
 11
12.13531
 21
-2.372376
 31
0.0
  0
LWPOLYLINE
  5
14F
330
1F
100
AcDbEntity
  8
XR$1$TB_111_1
  6
AUSGEZOGEN
 62
     7
440
 33554687
370
    13
100
AcDbPolyline
 90
        4
 70
     0
 43
0.0
 10
12.147044
 20
-2.368701
 10
12.145753
 20
-2.370239
 10
12.144124
 20
-2.37141
 10
12.143313
 20
-2.371792
  0
LINE
  5
150
330
1F
100
AcDbEntity
  8
XR$1$TB_111_1
  6
AUSGEZOGEN
 62
     7
440
 33554687
370
    13
100
AcDbLine
 10
12.143313
 20
-2.371792
 30
0.0
 11
12.140312
 21
-2.372376
 31
0.0
  0
LINE
  5
151
330
1F
100
AcDbEntity
  8
XR$1$TB_111_1
  6
AUSGEZOGEN
 62
     7
440
 33554687
370
    13
100
AcDbLine
 10
12.127308
 20
-2.371792
 30
0.0
 11
12.130309
 21
-2.372376
 31
0.0
  0
LWPOLYLINE
  5
152
330
1F
100
AcDbEntity
  8
XR$1$TB_111_1
  6
AUSGEZOGEN
 62
     7
440
 33554687
370
    13
100
AcDbPolyline
 90
        3
 70
     0
 43
0.0
 10
12.12526
 20
-2.367619
 10
12.123243
 20
-2.364481
 10
12.12266
 20
-2.363573
  0
LWPOLYLINE
  5
153
330
1F
100
AcDbEntity
  8
XR$1$TB_111_1
  6
AUSGEZOGEN
 62
     7
440
 33554687
370
    13
100
AcDbPolyline
 90
        3
 70
     0
 43
0.0
 10
12.145361
 20
-2.367619
 10
12.147378
 20
-2.364481
 10
12.147961
 20
-2.363573
  0
LWPOLYLINE
  5
154
330
1F
100
AcDbEntity
  8
XR$1$TB_111_1
  6
AUSGEZOGEN
 62
     7
440
 33554687
370
    13
100
AcDbPolyline
 90
        4
 70
     0
 43
0.0
 10
12.120281
 20
-2.363573
 10
12.120296
 20
-2.363596
 10
12.121942
 20
-2.366156
 10
12.123577
 20
-2.368701
  0
LWPOLYLINE
  5
155
330
1F
100
AcDbEntity
  8
XR$1$TB_111_1
  6
AUSGEZOGEN
 62
     7
440
 33554687
370
    13
100
AcDbPolyline
 90
        4
 70
     0
 43
0.0
 10
12.150339
 20
-2.363573
 10
12.150325
 20
-2.363596
 10
12.148679
 20
-2.366156
 10
12.147044
 20
-2.368701
  0
LINE
  5
156
330
1F
100
AcDbEntity
  8
XR$1$TB_111_1
  6
AUSGEZOGEN
 62
     7
440
 33554687
370
    18
100
AcDbLine
 10
12.088296
 20
-2.359372
 30
0.0
 11
12.126308
 21
-2.359372
 31
0.0
  0
ARC
  5
157
330
1F
100
AcDbEntity
  8
XR$1$TB_111_1
  6
AUSGEZOGEN
 62
     7
440
 33554687
370
    13
100
AcDbCircle
 10
12.094798
 20
-2.360873
 30
0.0
 40
0.0015004495729057
100
AcDbArc
 50
81.307769
 51
90.0
  0
ARC
  5
158
330
1F
100
AcDbEntity
  8
XR$1$TB_111_1
  6
AUSGEZOGEN
 62
     7
440
 33554687
370
    18
100
AcDbCircle
 10
12.099574
 20
-2.359372
 30
0.0
 40
0.0015004495729057
100
AcDbArc
 50
201.443925
 51
270.0
  0
ARC
  5
159
330
1F
100
AcDbEntity
  8
XR$1$TB_111_1
  6
AUSGEZOGEN
 62
     7
440
 33554687
370
    18
100
AcDbCircle
 10
12.099574
 20
-2.359372
 30
0.0
 40
0.0035010490034467
100
AcDbArc
 50
207.494728
 51
270.0
  0
ARC
  5
15A
330
1F
100
AcDbEntity
  8
XR$1$TB_111_1
  6
AUSGEZOGEN
 62
     7
440
 33554687
370
    18
100
AcDbCircle
 10
12.11503
 20
-2.359372
 30
0.0
 40
0.0015004495729057
100
AcDbArc
 50
270.0
 51
338.556075
  0
ARC
  5
15B
330
1F
100
AcDbEntity
  8
XR$1$TB_111_1
  6
AUSGEZOGEN
 62
     7
440
 33554687
370
    18
100
AcDbCircle
 10
12.11503
 20
-2.359372
 30
0.0
 40
0.0035010490034467
100
AcDbArc
 50
270.0
 51
332.505272
  0
LWPOLYLINE
  5
15C
330
1F
100
AcDbEntity
  8
XR$1$TB_111_1
  6
AUSGEZOGEN
 62
     7
440
 33554687
370
    18
100
AcDbPolyline
 90
        3
 70
     0
 43
0.0
 10
12.147961
 20
-2.363573
 10
12.148511
 20
-2.362719
 10
12.149585
 20
-2.361047
  0
LWPOLYLINE
  5
15D
330
1F
100
AcDbEntity
  8
XR$1$TB_111_1
  6
AUSGEZOGEN
 62
     7
440
 33554687
370
    18
100
AcDbPolyline
 90
        3
 70
     0
 43
0.0
 10
12.149585
 20
-2.361047
 10
12.150875
 20
-2.359509
 10
12.151066
 20
-2.359372
  0
LWPOLYLINE
  5
15E
330
1F
100
AcDbEntity
  8
XR$1$TB_111_1
  6
AUSGEZOGEN
 62
     7
440
 33554687
370
    18
100
AcDbPolyline
 90
        3
 70
     0
 43
0.0
 10
12.12266
 20
-2.363573
 10
12.12211
 20
-2.362719
 10
12.119959
 20
-2.359372
  0
LWPOLYLINE
  5
15F
330
1F
100
AcDbEntity
  8
XR$1$TB_111_1
  6
AUSGEZOGEN
 62
     7
440
 33554687
370
    18
100
AcDbPolyline
 90
        3
 70
     0
 43
0.0
 10
12.091944
 20
-2.363573
 10
12.092494
 20
-2.362719
 10
12.093568
 20
-2.361047
  0
LWPOLYLINE
  5
160
330
1F
100
AcDbEntity
  8
XR$1$TB_111_1
  6
AUSGEZOGEN
 62
     7
440
 33554687
370
    18
100
AcDbPolyline
 90
        3
 70
     0
 43
0.0
 10
12.093568
 20
-2.361047
 10
12.094859
 20
-2.359509
 10
12.095049
 20
-2.359372
  0
LWPOLYLINE
  5
161
330
1F
100
AcDbEntity
  8
XR$1$TB_111_1
  6
AUSGEZOGEN
 62
     7
440
 33554687
370
    18
100
AcDbPolyline
 90
        3
 70
     0
 43
0.0
 10
12.066643
 20
-2.363573
 10
12.066094
 20
-2.362719
 10
12.065019
 20
-2.361047
  0
LWPOLYLINE
  5
162
330
1F
100
AcDbEntity
  8
XR$1$TB_111_1
  6
AUSGEZOGEN
 62
     7
440
 33554687
370
    18
100
AcDbPolyline
 90
        3
 70
     0
 43
0.0
 10
12.065019
 20
-2.361047
 10
12.063729
 20
-2.359509
 10
12.063538
 20
-2.359372
  0
LINE
  5
163
330
1F
100
AcDbEntity
  8
XR$1$TB_111_1
  6
AUSGEZOGEN
 62
     7
440
 33554687
370
    18
100
AcDbLine
 10
12.0843
 20
-2.363773
 30
0.0
 11
12.0843
 21
-2.359456
 31
0.0
  0
LINE
  5
164
330
1F
100
AcDbEntity
  8
XR$1$TB_111_1
  6
AUSGEZOGEN
 62
     7
440
 33554687
370
    18
100
AcDbLine
 10
12.0743
 20
-2.359456
 30
0.0
 11
12.0743
 21
-2.363773
 31
0.0
  0
LINE
  5
165
330
1F
100
AcDbEntity
  8
XR$1$TB_111_1
  6
AUSGEZOGEN
 62
     7
440
 33554687
370
    18
100
AcDbLine
 10
12.050326
 20
-2.359372
 30
0.0
 11
12.094802
 21
-2.359372
 31
0.0
  0
LINE
  5
166
330
1F
100
AcDbEntity
  8
XR$1$TB_111_1
  6
AUSGEZOGEN
 62
     7
440
 33554687
370
    18
100
AcDbLine
 10
12.0888
 20
-2.359372
 30
0.0
 11
12.0888
 21
-2.363773
 31
0.0
  0
LINE
  5
167
330
1F
100
AcDbEntity
  8
XR$1$TB_111_1
  6
AUSGEZOGEN
 62
     7
440
 33554687
370
    18
100
AcDbLine
 10
12.130304
 20
-2.363773
 30
0.0
 11
12.130304
 21
-2.359456
 31
0.0
  0
LINE
  5
168
330
1F
100
AcDbEntity
  8
XR$1$TB_111_1
  6
AUSGEZOGEN
 62
     7
440
 33554687
370
    18
100
AcDbLine
 10
12.140304
 20
-2.359456
 30
0.0
 11
12.140304
 21
-2.363773
 31
0.0
  0
LINE
  5
169
330
1F
100
AcDbEntity
  8
XR$1$TB_111_1
  6
AUSGEZOGEN
 62
     7
440
 33554687
370
    18
100
AcDbLine
 10
12.125804
 20
-2.359372
 30
0.0
 11
12.125804
 21
-2.363773
 31
0.0
  0
LINE
  5
16A
330
1F
100
AcDbEntity
  8
XR$1$TB_111_1
  6
AUSGEZOGEN
 62
     7
440
 33554687
370
    18
100
AcDbLine
 10
12.620603
 20
-2.35143
 30
0.0
 11
12.617603
 21
-2.35143
 31
0.0
  0
ARC
  5
16B
330
1F
100
AcDbEntity
  8
XR$1$TB_111_1
  6
AUSGEZOGEN
 62
     7
440
 33554687
370
    18
100
AcDbCircle
 10
12.633603
 20
-2.34443
 30
0.0
 40
0.003
100
AcDbArc
 50
0.0
 51
90.0
  0
ARC
  5
16C
330
1F
100
AcDbEntity
  8
XR$1$TB_111_1
  6
AUSGEZOGEN
 62
     7
440
 33554687
370
    18
100
AcDbCircle
 10
12.620603
 20
-2.34443
 30
0.0
 40
0.003
100
AcDbArc
 50
90.0
 51
180.0
  0
LINE
  5
16D
330
1F
100
AcDbEntity
  8
XR$1$TB_111_1
  6
AUSGEZOGEN
 62
     7
440
 33554687
370
    18
100
AcDbLine
 10
12.620603
 20
-2.34143
 30
0.0
 11
12.633603
 21
-2.34143
 31
0.0
  0
LINE
  5
16E
330
1F
100
AcDbEntity
  8
XR$1$TB_111_1
  6
AUSGEZOGEN
 62
     7
440
 33554687
370
    18
100
AcDbLine
 10
12.617603
 20
-2.35143
 30
0.0
 11
12.617603
 21
-2.34443
 31
0.0
  0
ARC
  5
16F
330
1F
100
AcDbEntity
  8
XR$1$TB_111_1
  6
AUSGEZOGEN
 62
     7
440
 33554687
370
    18
100
AcDbCircle
 10
12.621603
 20
-2.34543
 30
0.0
 40
0.001
100
AcDbArc
 50
90.0
 51
180.0
  0
LINE
  5
170
330
1F
100
AcDbEntity
  8
XR$1$TB_111_1
  6
AUSGEZOGEN
 62
     7
440
 33554687
370
    18
100
AcDbLine
 10
12.620603
 20
-2.34543
 30
0.0
 11
12.620603
 21
-2.35143
 31
0.0
  0
ARC
  5
171
330
1F
100
AcDbEntity
  8
XR$1$TB_111_1
  6
AUSGEZOGEN
 62
     7
440
 33554687
370
    18
100
AcDbCircle
 10
12.632603
 20
-2.34543
 30
0.0
 40
0.001
100
AcDbArc
 50
0.0
 51
90.0
  0
LINE
  5
172
330
1F
100
AcDbEntity
  8
XR$1$TB_111_1
  6
AUSGEZOGEN
 62
     7
440
 33554687
370
    18
100
AcDbLine
 10
12.632603
 20
-2.34443
 30
0.0
 11
12.621603
 21
-2.34443
 31
0.0
  0
ARC
  5
173
330
1F
100
AcDbEntity
  8
XR$1$TB_111_1
  6
AUSGEZOGEN
 62
     7
440
 33554687
370
    18
100
AcDbCircle
 10
12.636603
 20
-2.39213
 30
0.0
 40
0.003
100
AcDbArc
 50
180.0
 51
270.0
  0
LINE
  5
174
330
1F
100
AcDbEntity
  8
XR$1$TB_111_1
  6
AUSGEZOGEN
 62
     7
440
 33554687
370
    18
100
AcDbLine
 10
12.637103
 20
-2.39513
 30
0.0
 11
12.636603
 21
-2.39513
 31
0.0
  0
ARC
  5
175
330
1F
100
AcDbEntity
  8
XR$1$TB_111_1
  6
AUSGEZOGEN
 62
     7
440
 33554687
370
    18
100
AcDbCircle
 10
12.637603
 20
-2.39113
 30
0.0
 40
0.001
100
AcDbArc
 50
180.0
 51
270.0
  0
LINE
  5
176
330
1F
100
AcDbEntity
  8
XR$1$TB_111_1
  6
AUSGEZOGEN
 62
     7
440
 33554687
370
    18
100
AcDbLine
 10
12.637603
 20
-2.39213
 30
0.0
 11
12.636603
 21
-2.39213
 31
0.0
  0
LINE
  5
177
330
1F
100
AcDbEntity
  8
XR$1$TB_111_1
  6
AUSGEZOGEN
 62
     7
440
 33554687
370
    18
100
AcDbLine
 10
12.633603
 20
-2.39213
 30
0.0
 11
12.633603
 21
-2.34543
 31
0.0
  0
LINE
  5
178
330
1F
100
AcDbEntity
  8
XR$1$TB_111_1
  6
AUSGEZOGEN
 62
     7
440
 33554687
370
    18
100
AcDbLine
 10
12.636603
 20
-2.34443
 30
0.0
 11
12.636603
 21
-2.39113
 31
0.0
  0
LINE
  5
179
330
1F
100
AcDbEntity
  8
XR$1$TB_111_1
  6
AUSGEZOGEN
 62
     7
440
 33554687
370
    18
100
AcDbLine
 10
12.540203
 20
-2.339373
 30
0.0
 11
12.542703
 21
-2.339373
 31
0.0
  0
LINE
  5
17A
330
1F
100
AcDbEntity
  8
XR$1$TB_111_1
  6
AUSGEZOGEN
 62
     7
440
 33554687
370
    18
100
AcDbLine
 10
12.547703
 20
-2.327376
 30
0.0
 11
12.532203
 21
-2.327376
 31
0.0
  0
LINE
  5
17B
330
1F
100
AcDbEntity
  8
XR$1$TB_111_1
  6
AUSGEZOGEN
 62
     7
440
 33554687
370
    18
100
AcDbLine
 10
12.540203
 20
-2.305373
 30
0.0
 11
12.540203
 21
-2.355373
 31
0.0
  0
LINE
  5
17C
330
1F
100
AcDbEntity
  8
XR$1$TB_111_1
  6
AUSGEZOGEN
 62
     7
440
 33554687
370
    18
100
AcDbLine
 10
12.540203
 20
-2.305373
 30
0.0
 11
12.538203
 21
-2.305373
 31
0.0
  0
LINE
  5
17D
330
1F
100
AcDbEntity
  8
XR$1$TB_111_1
  6
AUSGEZOGEN
 62
     7
440
 33554687
370
    18
100
AcDbLine
 10
12.579203
 20
-2.357373
 30
0.0
 11
12.589203
 21
-2.357373
 31
0.0
  0
LINE
  5
17E
330
1F
100
AcDbEntity
  8
XR$1$TB_111_1
  6
AUSGEZOGEN
 62
     7
440
 33554687
370
    18
100
AcDbLine
 10
12.489203
 20
-2.355373
 30
0.0
 11
12.489203
 21
-2.357373
 31
0.0
  0
LINE
  5
17F
330
1F
100
AcDbEntity
  8
XR$1$TB_111_1
  6
AUSGEZOGEN
 62
     7
440
 33554687
370
    18
100
AcDbLine
 10
12.538203
 20
-2.355373
 30
0.0
 11
12.489203
 21
-2.355373
 31
0.0
  0
LINE
  5
180
330
1F
100
AcDbEntity
  8
XR$1$TB_111_1
  6
AUSGEZOGEN
 62
     7
440
 33554687
370
    18
100
AcDbLine
 10
12.489203
 20
-2.357373
 30
0.0
 11
12.589203
 21
-2.357373
 31
0.0
  0
LINE
  5
181
330
1F
100
AcDbEntity
  8
XR$1$TB_111_1
  6
AUSGEZOGEN
 62
     7
440
 33554687
370
    18
100
AcDbLine
 10
12.589203
 20
-2.357373
 30
0.0
 11
12.589203
 21
-2.355373
 31
0.0
  0
LINE
  5
182
330
1F
100
AcDbEntity
  8
XR$1$TB_111_1
  6
AUSGEZOGEN
 62
     7
440
 33554687
370
    18
100
AcDbLine
 10
12.589203
 20
-2.355373
 30
0.0
 11
12.540203
 21
-2.355373
 31
0.0
  0
LINE
  5
183
330
1F
100
AcDbEntity
  8
XR$1$TB_111_1
  6
AUSGEZOGEN
 62
     7
440
 33554687
370
    25
100
AcDbLine
 10
12.629603
 20
-2.383573
 30
0.0
 11
12.111302
 21
-2.383573
 31
0.0
  0
LINE
  5
184
330
1F
100
AcDbEntity
  8
XR$1$TB_111_1
  6
VERDECKT2_S2
 62
     7
440
 33554687
370
    13
100
AcDbLine
 10
12.629603
 20
-2.377573
 30
0.0
 11
12.111302
 21
-2.377573
 31
0.0
  0
LINE
  5
185
330
1F
100
AcDbEntity
  8
XR$1$TB_111_1
  6
VERDECKT2_S2
 62
     7
440
 33554687
370
    13
100
AcDbLine
 10
12.629603
 20
-2.369579
 30
0.0
 11
12.111302
 21
-2.369579
 31
0.0
  0
LINE
  5
186
330
1F
100
AcDbEntity
  8
XR$1$TB_111_1
  6
AUSGEZOGEN
 62
     7
440
 33554687
370
    25
100
AcDbLine
 10
12.629603
 20
-2.363573
 30
0.0
 11
12.111302
 21
-2.363573
 31
0.0
  0
LINE
  5
187
330
1F
100
AcDbEntity
  8
XR$1$TB_111_1
  6
AUSGEZOGEN
 62
     7
440
 33554687
370
    25
100
AcDbLine
 10
12.629603
 20
-2.383573
 30
0.0
 11
12.629603
 21
-2.363573
 31
0.0
  0
LINE
  5
188
330
1F
100
AcDbEntity
  8
XR$1$TB_111_1
  6
AUSGEZOGEN
 62
     7
440
 33554687
370
    18
100
AcDbLine
 10
12.486715
 20
-2.357373
 30
0.0
 11
12.586715
 21
-2.357373
 31
0.0
  0
LINE
  5
189
330
1F
100
AcDbEntity
  8
XR$1$TB_111_1
  6
AUSGEZOGEN
 62
     7
440
 33554687
370
    18
100
AcDbLine
 10
12.551215
 20
-2.359373
 30
0.0
 11
12.595692
 21
-2.359373
 31
0.0
  0
ARC
  5
18A
330
1F
100
AcDbEntity
  8
XR$1$TB_111_1
  6
AUSGEZOGEN
 62
     7
440
 33554687
370
    18
100
AcDbCircle
 10
12.595692
 20
-2.361373
 30
0.0
 40
0.002
100
AcDbArc
 50
23.578178
 51
90.0
  0
ARC
  5
18B
330
1F
100
AcDbEntity
  8
XR$1$TB_111_1
  6
AUSGEZOGEN
 62
     7
440
 33554687
370
    18
100
AcDbCircle
 10
12.600274
 20
-2.359373
 30
0.0
 40
0.003
100
AcDbArc
 50
203.578178
 51
345.287786
  0
LINE
  5
18C
330
1F
100
AcDbEntity
  8
XR$1$TB_111_1
  6
AUSGEZOGEN
 62
     7
440
 33554687
370
    18
100
AcDbLine
 10
12.603176
 20
-2.360135
 30
0.0
 11
12.603715
 21
-2.358081
 31
0.0
  0
LINE
  5
18D
330
1F
100
AcDbEntity
  8
XR$1$TB_111_1
  6
AUSGEZOGEN
 62
     7
440
 33554687
370
    18
100
AcDbLine
 10
12.603715
 20
-2.358081
 30
0.0
 11
12.601781
 21
-2.357573
 31
0.0
  0
LINE
  5
18E
330
1F
100
AcDbEntity
  8
XR$1$TB_111_1
  6
AUSGEZOGEN
 62
     7
440
 33554687
370
    18
100
AcDbLine
 10
12.601781
 20
-2.357573
 30
0.0
 11
12.601242
 21
-2.359627
 31
0.0
  0
ARC
  5
18F
330
1F
100
AcDbEntity
  8
XR$1$TB_111_1
  6
AUSGEZOGEN
 62
     7
440
 33554687
370
    18
100
AcDbCircle
 10
12.600274
 20
-2.359373
 30
0.0
 40
0.001
100
AcDbArc
 50
203.578178
 51
345.287786
  0
ARC
  5
190
330
1F
100
AcDbEntity
  8
XR$1$TB_111_1
  6
AUSGEZOGEN
 62
     7
440
 33554687
370
    18
100
AcDbCircle
 10
12.595692
 20
-2.361373
 30
0.0
 40
0.004
100
AcDbArc
 50
23.578178
 51
90.0
  0
LINE
  5
191
330
1F
100
AcDbEntity
  8
XR$1$TB_111_1
  6
AUSGEZOGEN
 62
     7
440
 33554687
370
    18
100
AcDbLine
 10
12.595692
 20
-2.357373
 30
0.0
 11
12.551215
 21
-2.357373
 31
0.0
  0
LINE
  5
192
330
1F
100
AcDbEntity
  8
XR$1$TB_111_1
  6
AUSGEZOGEN
 62
     7
440
 33554687
370
    18
100
AcDbLine
 10
12.526215
 20
-2.357373
 30
0.0
 11
12.481739
 21
-2.357373
 31
0.0
  0
ARC
  5
193
330
1F
100
AcDbEntity
  8
XR$1$TB_111_1
  6
AUSGEZOGEN
 62
     7
440
 33554687
370
    18
100
AcDbCircle
 10
12.481739
 20
-2.361373
 30
0.0
 40
0.004
100
AcDbArc
 50
90.0
 51
156.421822
  0
ARC
  5
194
330
1F
100
AcDbEntity
  8
XR$1$TB_111_1
  6
AUSGEZOGEN
 62
     7
440
 33554687
370
    18
100
AcDbCircle
 10
12.477156
 20
-2.359373
 30
0.0
 40
0.001
100
AcDbArc
 50
194.712214
 51
336.421822
  0
LINE
  5
195
330
1F
100
AcDbEntity
  8
XR$1$TB_111_1
  6
AUSGEZOGEN
 62
     7
440
 33554687
370
    18
100
AcDbLine
 10
12.476189
 20
-2.359627
 30
0.0
 11
12.47565
 21
-2.357573
 31
0.0
  0
LINE
  5
196
330
1F
100
AcDbEntity
  8
XR$1$TB_111_1
  6
AUSGEZOGEN
 62
     7
440
 33554687
370
    18
100
AcDbLine
 10
12.47565
 20
-2.357573
 30
0.0
 11
12.473715
 21
-2.358081
 31
0.0
  0
LINE
  5
197
330
1F
100
AcDbEntity
  8
XR$1$TB_111_1
  6
AUSGEZOGEN
 62
     7
440
 33554687
370
    18
100
AcDbLine
 10
12.473715
 20
-2.358081
 30
0.0
 11
12.474255
 21
-2.360135
 31
0.0
  0
ARC
  5
198
330
1F
100
AcDbEntity
  8
XR$1$TB_111_1
  6
AUSGEZOGEN
 62
     7
440
 33554687
370
    18
100
AcDbCircle
 10
12.477156
 20
-2.359373
 30
0.0
 40
0.003
100
AcDbArc
 50
194.712214
 51
336.421822
  0
ARC
  5
199
330
1F
100
AcDbEntity
  8
XR$1$TB_111_1
  6
AUSGEZOGEN
 62
     7
440
 33554687
370
    18
100
AcDbCircle
 10
12.481739
 20
-2.361373
 30
0.0
 40
0.002
100
AcDbArc
 50
90.0
 51
156.421822
  0
LINE
  5
19A
330
1F
100
AcDbEntity
  8
XR$1$TB_111_1
  6
AUSGEZOGEN
 62
     7
440
 33554687
370
    25
100
AcDbLine
 10
12.526212
 20
-2.362983
 30
0.0
 11
12.526212
 21
-2.362835
 31
0.0
  0
LWPOLYLINE
  5
19B
330
1F
100
AcDbEntity
  8
XR$1$TB_111_1
  6
AUSGEZOGEN
 62
     7
440
 33554687
370
    18
100
AcDbPolyline
 90
        3
 70
     0
 43
0.0
 10
12.489701
 20
-2.359374
 10
12.492609
 20
-2.360126
 10
12.494749
 20
-2.36213
  0
LINE
  5
19C
330
1F
100
AcDbEntity
  8
XR$1$TB_111_1
  6
AUSGEZOGEN
 62
     7
440
 33554687
370
    18
100
AcDbLine
 10
12.513708
 20
-2.359374
 30
0.0
 11
12.51971
 21
-2.359374
 31
0.0
  0
LINE
  5
19D
330
1F
100
AcDbEntity
  8
XR$1$TB_111_1
  6
AUSGEZOGEN
 62
     7
440
 33554687
370
    18
100
AcDbLine
 10
12.508706
 20
-2.359374
 30
0.0
 11
12.513708
 21
-2.359374
 31
0.0
  0
LINE
  5
19E
330
1F
100
AcDbEntity
  8
XR$1$TB_111_1
  6
AUSGEZOGEN
 62
     7
440
 33554687
370
    18
100
AcDbLine
 10
12.502704
 20
-2.359374
 30
0.0
 11
12.508706
 21
-2.359374
 31
0.0
  0
LINE
  5
19F
330
1F
100
AcDbEntity
  8
XR$1$TB_111_1
  6
AUSGEZOGEN
 62
     7
440
 33554687
370
    18
100
AcDbLine
 10
12.508706
 20
-2.357373
 30
0.0
 11
12.502704
 21
-2.357373
 31
0.0
  0
LINE
  5
1A0
330
1F
100
AcDbEntity
  8
XR$1$TB_111_1
  6
AUSGEZOGEN
 62
     7
440
 33554687
370
    18
100
AcDbLine
 10
12.513708
 20
-2.357373
 30
0.0
 11
12.508706
 21
-2.357373
 31
0.0
  0
LINE
  5
1A1
330
1F
100
AcDbEntity
  8
XR$1$TB_111_1
  6
AUSGEZOGEN
 62
     7
440
 33554687
370
    18
100
AcDbLine
 10
12.51971
 20
-2.357373
 30
0.0
 11
12.513708
 21
-2.357373
 31
0.0
  0
LWPOLYLINE
  5
1A2
330
1F
100
AcDbEntity
  8
XR$1$TB_111_1
  6
AUSGEZOGEN
 62
     7
440
 33554687
370
    18
100
AcDbPolyline
 90
       27
 70
     1
 43
0.0
 10
12.504481
 20
-2.359873
 10
12.505081
 20
-2.360115
 10
12.50546
 20
-2.360401
 10
12.505705
 20
-2.361027
 10
12.505451
 20
-2.361671
 10
12.504978
 20
-2.362079
 10
12.504427
 20
-2.36229
 10
12.504134
 20
-2.362331
 10
12.50397
 20
-2.362337
 10
12.503833
 20
-2.362333
 10
12.503672
 20
-2.362319
 10
12.503387
 20
-2.362273
 10
12.502419
 20
-2.361935
 10
12.501381
 20
-2.361356
 10
12.50039
 20
-2.360654
 10
12.499858
 20
-2.360167
 10
12.499704
 20
-2.359854
 10
12.499878
 20
-2.359671
 10
12.500301
 20
-2.359578
 10
12.500772
 20
-2.359543
 10
12.501064
 20
-2.359535
 10
12.501271
 20
-2.359533
 10
12.501477
 20
-2.359534
 10
12.50176
 20
-2.359539
 10
12.5024
 20
-2.359566
 10
12.503471
 20
-2.359667
 10
12.504481
 20
-2.359873
  0
LWPOLYLINE
  5
1A3
330
1F
100
AcDbEntity
  8
XR$1$TB_111_1
  6
AUSGEZOGEN
 62
     7
440
 33554687
370
    18
100
AcDbPolyline
 90
        7
 70
     0
 43
0.0
 10
12.502648
 20
-2.359583
 10
12.503032
 20
-2.359696
 10
12.503546
 20
-2.359798
 10
12.503801
 20
-2.359822
 10
12.503995
 20
-2.359828
 10
12.504201
 20
-2.359821
 10
12.504268
 20
-2.359815
  0
LWPOLYLINE
  5
1A4
330
1F
100
AcDbEntity
  8
XR$1$TB_111_1
  6
AUSGEZOGEN
 62
     7
440
 33554687
370
    18
100
AcDbPolyline
 90
       27
 70
     1
 43
0.0
 10
12.518803
 20
-2.35958
 10
12.519211
 20
-2.359556
 10
12.519725
 20
-2.359538
 10
12.519984
 20
-2.359534
 10
12.520185
 20
-2.359533
 10
12.520401
 20
-2.359536
 10
12.520733
 20
-2.359547
 10
12.52142
 20
-2.359633
 10
12.521701
 20
-2.359813
 10
12.521574
 20
-2.360146
 10
12.520985
 20
-2.360685
 10
12.519975
 20
-2.361393
 10
12.519031
 20
-2.361918
 10
12.518184
 20
-2.362235
 10
12.517911
 20
-2.362295
 10
12.517686
 20
-2.362325
 10
12.517538
 20
-2.362335
 10
12.5174
 20
-2.362337
 10
12.517214
 20
-2.362325
 10
12.51682
 20
-2.362246
 10
12.516187
 20
-2.361904
 10
12.515745
 20
-2.36125
 10
12.515806
 20
-2.360607
 10
12.516272
 20
-2.36015
 10
12.517008
 20
-2.359852
 10
12.517896
 20
-2.359673
 10
12.518803
 20
-2.35958
  0
LWPOLYLINE
  5
1A5
330
1F
100
AcDbEntity
  8
XR$1$TB_111_1
  6
AUSGEZOGEN
 62
     7
440
 33554687
370
    18
100
AcDbPolyline
 90
        7
 70
     0
 43
0.0
 10
12.517146
 20
-2.359815
 10
12.517273
 20
-2.359825
 10
12.51747
 20
-2.359828
 10
12.517671
 20
-2.359818
 10
12.517963
 20
-2.359784
 10
12.518486
 20
-2.359668
 10
12.518766
 20
-2.359583
  0
LINE
  5
1A6
330
1F
100
AcDbEntity
  8
XR$1$TB_111_1
  6
AUSGEZOGEN
 62
     7
440
 33554687
370
    18
100
AcDbLine
 10
12.530987
 20
-2.362875
 30
0.0
 11
12.532964
 21
-2.362875
 31
0.0
  0
LINE
  5
1A7
330
1F
100
AcDbEntity
  8
XR$1$TB_111_1
  6
AUSGEZOGEN
 62
     7
440
 33554687
370
    18
100
AcDbLine
 10
12.532964
 20
-2.362875
 30
0.0
 11
12.532964
 21
-2.360874
 31
0.0
  0
LWPOLYLINE
  5
1A8
330
1F
100
AcDbEntity
  8
XR$1$TB_111_1
  6
AUSGEZOGEN
 62
     7
440
 33554687
370
    18
100
AcDbPolyline
 90
        3
 70
     0
 43
0.0
 10
12.531713
 20
-2.359374
 10
12.528805
 20
-2.360126
 10
12.526664
 20
-2.36213
  0
LINE
  5
1A9
330
1F
100
AcDbEntity
  8
XR$1$TB_111_1
  6
AUSGEZOGEN
 62
     7
440
 33554687
370
    18
100
AcDbLine
 10
12.532964
 20
-2.360874
 30
0.0
 11
12.530987
 21
-2.360874
 31
0.0
  0
LINE
  5
1AA
330
1F
100
AcDbEntity
  8
XR$1$TB_111_1
  6
AUSGEZOGEN
 62
     7
440
 33554687
370
    18
100
AcDbLine
 10
12.544467
 20
-2.360874
 30
0.0
 11
12.544467
 21
-2.362875
 31
0.0
  0
LINE
  5
1AB
330
1F
100
AcDbEntity
  8
XR$1$TB_111_1
  6
AUSGEZOGEN
 62
     7
440
 33554687
370
    18
100
AcDbLine
 10
12.546443
 20
-2.360874
 30
0.0
 11
12.544467
 21
-2.360874
 31
0.0
  0
LINE
  5
1AC
330
1F
100
AcDbEntity
  8
XR$1$TB_111_1
  6
AUSGEZOGEN
 62
     7
440
 33554687
370
    18
100
AcDbLine
 10
12.544467
 20
-2.362875
 30
0.0
 11
12.546443
 21
-2.362875
 31
0.0
  0
LINE
  5
1AD
330
1F
100
AcDbEntity
  8
XR$1$TB_111_1
  6
AUSGEZOGEN
 62
     7
440
 33554687
370
    18
100
AcDbLine
 10
12.551219
 20
-2.362983
 30
0.0
 11
12.551219
 21
-2.362835
 31
0.0
  0
LWPOLYLINE
  5
1AE
330
1F
100
AcDbEntity
  8
XR$1$TB_111_1
  6
AUSGEZOGEN
 62
     7
440
 33554687
370
    18
100
AcDbPolyline
 90
        3
 70
     0
 43
0.0
 10
12.545717
 20
-2.359374
 10
12.548626
 20
-2.360126
 10
12.550766
 20
-2.36213
  0
LWPOLYLINE
  5
1AF
330
1F
100
AcDbEntity
  8
XR$1$TB_111_1
  6
AUSGEZOGEN
 62
     7
440
 33554687
370
    18
100
AcDbPolyline
 90
        3
 70
     0
 43
0.0
 10
12.58773
 20
-2.359374
 10
12.584822
 20
-2.360126
 10
12.582681
 20
-2.36213
  0
LINE
  5
1B0
330
1F
100
AcDbEntity
  8
XR$1$TB_111_1
  6
AUSGEZOGEN
 62
     7
440
 33554687
370
    18
100
AcDbLine
 10
12.568724
 20
-2.359374
 30
0.0
 11
12.574726
 21
-2.359374
 31
0.0
  0
LINE
  5
1B1
330
1F
100
AcDbEntity
  8
XR$1$TB_111_1
  6
AUSGEZOGEN
 62
     7
440
 33554687
370
    18
100
AcDbLine
 10
12.563723
 20
-2.359374
 30
0.0
 11
12.568724
 21
-2.359374
 31
0.0
  0
LINE
  5
1B2
330
1F
100
AcDbEntity
  8
XR$1$TB_111_1
  6
AUSGEZOGEN
 62
     7
440
 33554687
370
    18
100
AcDbLine
 10
12.557721
 20
-2.359374
 30
0.0
 11
12.563723
 21
-2.359374
 31
0.0
  0
LINE
  5
1B3
330
1F
100
AcDbEntity
  8
XR$1$TB_111_1
  6
AUSGEZOGEN
 62
     7
440
 33554687
370
    18
100
AcDbLine
 10
12.563723
 20
-2.357373
 30
0.0
 11
12.557721
 21
-2.357373
 31
0.0
  0
LINE
  5
1B4
330
1F
100
AcDbEntity
  8
XR$1$TB_111_1
  6
AUSGEZOGEN
 62
     7
440
 33554687
370
    18
100
AcDbLine
 10
12.568724
 20
-2.357373
 30
0.0
 11
12.563723
 21
-2.357373
 31
0.0
  0
LINE
  5
1B5
330
1F
100
AcDbEntity
  8
XR$1$TB_111_1
  6
AUSGEZOGEN
 62
     7
440
 33554687
370
    18
100
AcDbLine
 10
12.574726
 20
-2.357373
 30
0.0
 11
12.568724
 21
-2.357373
 31
0.0
  0
LWPOLYLINE
  5
1B6
330
1F
100
AcDbEntity
  8
XR$1$TB_111_1
  6
AUSGEZOGEN
 62
     7
440
 33554687
370
    18
100
AcDbPolyline
 90
       27
 70
     1
 43
0.0
 10
12.560498
 20
-2.359873
 10
12.561098
 20
-2.360115
 10
12.561477
 20
-2.360401
 10
12.561722
 20
-2.361027
 10
12.561468
 20
-2.361671
 10
12.560995
 20
-2.362079
 10
12.560444
 20
-2.36229
 10
12.560151
 20
-2.362331
 10
12.559987
 20
-2.362337
 10
12.55985
 20
-2.362333
 10
12.559688
 20
-2.362319
 10
12.559404
 20
-2.362273
 10
12.558436
 20
-2.361935
 10
12.557398
 20
-2.361356
 10
12.556407
 20
-2.360654
 10
12.555874
 20
-2.360167
 10
12.555721
 20
-2.359854
 10
12.555894
 20
-2.359671
 10
12.556318
 20
-2.359578
 10
12.556789
 20
-2.359543
 10
12.557081
 20
-2.359535
 10
12.557288
 20
-2.359533
 10
12.557494
 20
-2.359534
 10
12.557777
 20
-2.359539
 10
12.558417
 20
-2.359566
 10
12.559488
 20
-2.359667
 10
12.560498
 20
-2.359873
  0
LWPOLYLINE
  5
1B7
330
1F
100
AcDbEntity
  8
XR$1$TB_111_1
  6
AUSGEZOGEN
 62
     7
440
 33554687
370
    18
100
AcDbPolyline
 90
        7
 70
     0
 43
0.0
 10
12.558665
 20
-2.359583
 10
12.559049
 20
-2.359696
 10
12.559563
 20
-2.359798
 10
12.559817
 20
-2.359822
 10
12.560012
 20
-2.359828
 10
12.560218
 20
-2.359821
 10
12.560285
 20
-2.359815
  0
LWPOLYLINE
  5
1B8
330
1F
100
AcDbEntity
  8
XR$1$TB_111_1
  6
AUSGEZOGEN
 62
     7
440
 33554687
370
    18
100
AcDbPolyline
 90
       27
 70
     1
 43
0.0
 10
12.57482
 20
-2.35958
 10
12.575228
 20
-2.359556
 10
12.575742
 20
-2.359538
 10
12.576001
 20
-2.359534
 10
12.576202
 20
-2.359533
 10
12.576418
 20
-2.359536
 10
12.576749
 20
-2.359547
 10
12.577437
 20
-2.359633
 10
12.577718
 20
-2.359813
 10
12.57759
 20
-2.360146
 10
12.577002
 20
-2.360685
 10
12.575991
 20
-2.361393
 10
12.575048
 20
-2.361918
 10
12.574201
 20
-2.362235
 10
12.573928
 20
-2.362295
 10
12.573703
 20
-2.362325
 10
12.573555
 20
-2.362335
 10
12.573417
 20
-2.362337
 10
12.573231
 20
-2.362325
 10
12.572837
 20
-2.362246
 10
12.572204
 20
-2.361904
 10
12.571761
 20
-2.36125
 10
12.571822
 20
-2.360607
 10
12.572288
 20
-2.36015
 10
12.573025
 20
-2.359852
 10
12.573913
 20
-2.359673
 10
12.57482
 20
-2.35958
  0
LWPOLYLINE
  5
1B9
330
1F
100
AcDbEntity
  8
XR$1$TB_111_1
  6
AUSGEZOGEN
 62
     7
440
 33554687
370
    18
100
AcDbPolyline
 90
        7
 70
     0
 43
0.0
 10
12.573163
 20
-2.359815
 10
12.57329
 20
-2.359825
 10
12.573486
 20
-2.359828
 10
12.573688
 20
-2.359818
 10
12.57398
 20
-2.359784
 10
12.574503
 20
-2.359668
 10
12.574783
 20
-2.359583
  0
LINE
  5
1BA
330
1F
100
AcDbEntity
  8
XR$1$TB_111_1
  6
AUSGEZOGEN
 62
     7
440
 33554687
370
    18
100
AcDbLine
 10
12.557721
 20
-2.357373
 30
0.0
 11
12.51971
 21
-2.357373
 31
0.0
  0
LINE
  5
1BB
330
1F
100
AcDbEntity
  8
XR$1$TB_111_1
  6
AUSGEZOGEN
 62
     7
440
 33554687
370
    18
100
AcDbLine
 10
12.551219
 20
-2.362983
 30
0.0
 11
12.551219
 21
-2.363575
 31
0.0
  0
LINE
  5
1BC
330
1F
100
AcDbEntity
  8
XR$1$TB_111_1
  6
AUSGEZOGEN
 62
     7
440
 33554687
370
    18
100
AcDbLine
 10
12.551219
 20
-2.363575
 30
0.0
 11
12.551219
 21
-2.363767
 31
0.0
  0
LINE
  5
1BD
330
1F
100
AcDbEntity
  8
XR$1$TB_111_1
  6
AUSGEZOGEN
 62
     7
440
 33554687
370
    18
100
AcDbLine
 10
12.550766
 20
-2.36213
 30
0.0
 11
12.551695
 21
-2.363575
 31
0.0
  0
LINE
  5
1BE
330
1F
100
AcDbEntity
  8
XR$1$TB_111_1
  6
AUSGEZOGEN
 62
     7
440
 33554687
370
    18
100
AcDbLine
 10
12.582681
 20
-2.36213
 30
0.0
 11
12.581753
 21
-2.363575
 31
0.0
  0
LINE
  5
1BF
330
1F
100
AcDbEntity
  8
XR$1$TB_111_1
  6
AUSGEZOGEN
 62
     7
440
 33554687
370
    18
100
AcDbLine
 10
12.494749
 20
-2.36213
 30
0.0
 11
12.495678
 21
-2.363575
 31
0.0
  0
LINE
  5
1C0
330
1F
100
AcDbEntity
  8
XR$1$TB_111_1
  6
AUSGEZOGEN
 62
     7
440
 33554687
370
    18
100
AcDbLine
 10
12.526664
 20
-2.36213
 30
0.0
 11
12.525736
 21
-2.363575
 31
0.0
  0
LINE
  5
1C1
330
1F
100
AcDbEntity
  8
XR$1$TB_111_1
  6
AUSGEZOGEN
 62
     7
440
 33554687
370
    18
100
AcDbLine
 10
12.526212
 20
-2.363767
 30
0.0
 11
12.526212
 21
-2.363575
 31
0.0
  0
LINE
  5
1C2
330
1F
100
AcDbEntity
  8
XR$1$TB_111_1
  6
AUSGEZOGEN
 62
     7
440
 33554687
370
    18
100
AcDbLine
 10
12.526212
 20
-2.363575
 30
0.0
 11
12.526212
 21
-2.362983
 31
0.0
  0
LINE
  5
1C3
330
1F
100
AcDbEntity
  8
XR$1$TB_111_1
  6
STRICHLINIE_S4
 62
     7
440
 33554687
370
    13
100
AcDbLine
 10
12.518617
 20
-2.369626
 30
0.0
 11
12.515708
 21
-2.370377
 31
0.0
  0
LWPOLYLINE
  5
1C4
330
1F
100
AcDbEntity
  8
XR$1$TB_111_1
  6
AUSGEZOGEN
 62
     7
440
 33554687
370
    13
100
AcDbPolyline
 90
        4
 70
     0
 43
0.0
 10
12.506706
 20
-2.371578
 10
12.505954
 20
-2.370388
 10
12.505778
 20
-2.37002
 10
12.505705
 20
-2.369706
  0
LWPOLYLINE
  5
1C5
330
1F
100
AcDbEntity
  8
XR$1$TB_111_1
  6
AUSGEZOGEN
 62
     7
440
 33554687
370
    13
100
AcDbPolyline
 90
        4
 70
     0
 43
0.0
 10
12.515708
 20
-2.369706
 10
12.515636
 20
-2.37002
 10
12.515459
 20
-2.370388
 10
12.514708
 20
-2.371578
  0
LINE
  5
1C6
330
1F
100
AcDbEntity
  8
XR$1$TB_111_1
  6
AUSGEZOGEN
 62
     7
440
 33554687
370
    13
100
AcDbLine
 10
12.505705
 20
-2.372378
 30
0.0
 11
12.505705
 21
-2.370377
 31
0.0
  0
LINE
  5
1C7
330
1F
100
AcDbEntity
  8
XR$1$TB_111_1
  6
AUSGEZOGEN
 62
     7
440
 33554687
370
    13
100
AcDbLine
 10
12.505705
 20
-2.369327
 30
0.0
 11
12.505705
 21
-2.370377
 31
0.0
  0
LINE
  5
1C8
330
1F
100
AcDbEntity
  8
XR$1$TB_111_1
  6
AUSGEZOGEN
 62
     7
440
 33554687
370
    13
100
AcDbLine
 10
12.502797
 20
-2.369626
 30
0.0
 11
12.502704
 21
-2.369573
 31
0.0
  0
LINE
  5
1C9
330
1F
100
AcDbEntity
  8
XR$1$TB_111_1
  6
AUSGEZOGEN
 62
     7
440
 33554687
370
    13
100
AcDbLine
 10
12.505705
 20
-2.370377
 30
0.0
 11
12.502797
 21
-2.369626
 31
0.0
  0
LINE
  5
1CA
330
1F
100
AcDbEntity
  8
XR$1$TB_111_1
  6
AUSGEZOGEN
 62
     7
440
 33554687
370
    13
100
AcDbLine
 10
12.505705
 20
-2.372378
 30
0.0
 11
12.502704
 21
-2.371794
 31
0.0
  0
LINE
  5
1CB
330
1F
100
AcDbEntity
  8
XR$1$TB_111_1
  6
AUSGEZOGEN
 62
     7
440
 33554687
370
    13
100
AcDbLine
 10
12.502704
 20
-2.369573
 30
0.0
 11
12.500657
 21
-2.367621
 31
0.0
  0
LINE
  5
1CC
330
1F
100
AcDbEntity
  8
XR$1$TB_111_1
  6
AUSGEZOGEN
 62
     7
440
 33554687
370
    13
100
AcDbLine
 10
12.518617
 20
-2.369626
 30
0.0
 11
12.518709
 21
-2.369573
 31
0.0
  0
LINE
  5
1CD
330
1F
100
AcDbEntity
  8
XR$1$TB_111_1
  6
AUSGEZOGEN
 62
     7
440
 33554687
370
    13
100
AcDbLine
 10
12.515708
 20
-2.370377
 30
0.0
 11
12.515708
 21
-2.372378
 31
0.0
  0
LINE
  5
1CE
330
1F
100
AcDbEntity
  8
XR$1$TB_111_1
  6
AUSGEZOGEN
 62
     7
440
 33554687
370
    13
100
AcDbLine
 10
12.518709
 20
-2.371794
 30
0.0
 11
12.515708
 21
-2.372378
 31
0.0
  0
LINE
  5
1CF
330
1F
100
AcDbEntity
  8
XR$1$TB_111_1
  6
AUSGEZOGEN
 62
     7
440
 33554687
370
    13
100
AcDbLine
 10
12.515708
 20
-2.370377
 30
0.0
 11
12.518617
 21
-2.369626
 31
0.0
  0
LINE
  5
1D0
330
1F
100
AcDbEntity
  8
XR$1$TB_111_1
  6
AUSGEZOGEN
 62
     7
440
 33554687
370
    13
100
AcDbLine
 10
12.515708
 20
-2.371578
 30
0.0
 11
12.505705
 21
-2.371578
 31
0.0
  0
LINE
  5
1D1
330
1F
100
AcDbEntity
  8
XR$1$TB_111_1
  6
AUSGEZOGEN
 62
     7
440
 33554687
370
    13
100
AcDbLine
 10
12.515708
 20
-2.370377
 30
0.0
 11
12.515708
 21
-2.369327
 31
0.0
  0
LINE
  5
1D2
330
1F
100
AcDbEntity
  8
XR$1$TB_111_1
  6
AUSGEZOGEN
 62
     7
440
 33554687
370
    13
100
AcDbLine
 10
12.505705
 20
-2.370377
 30
0.0
 11
12.510707
 21
-2.370377
 31
0.0
  0
LINE
  5
1D3
330
1F
100
AcDbEntity
  8
XR$1$TB_111_1
  6
AUSGEZOGEN
 62
     7
440
 33554687
370
    13
100
AcDbLine
 10
12.510707
 20
-2.370377
 30
0.0
 11
12.515708
 21
-2.370377
 31
0.0
  0
ARC
  5
1D4
330
1F
100
AcDbEntity
  8
XR$1$TB_111_1
  6
AUSGEZOGEN
 62
     7
440
 33554687
370
    13
100
AcDbCircle
 10
12.510309
 20
-2.370077
 30
0.0
 40
0.0008002397722164
100
AcDbArc
 50
223.432537
 51
270.0
  0
ARC
  5
1D5
330
1F
100
AcDbEntity
  8
XR$1$TB_111_1
  6
AUSGEZOGEN
 62
     7
440
 33554687
370
    13
100
AcDbCircle
 10
12.511105
 20
-2.370077
 30
0.0
 40
0.0008002397722164
100
AcDbArc
 50
270.0
 51
316.567463
  0
LINE
  5
1D6
330
1F
100
AcDbEntity
  8
XR$1$TB_111_1
  6
AUSGEZOGEN
 62
     7
440
 33554687
370
    13
100
AcDbLine
 10
12.510309
 20
-2.370877
 30
0.0
 11
12.511105
 21
-2.370877
 31
0.0
  0
ARC
  5
1D7
330
1F
100
AcDbEntity
  8
XR$1$TB_111_1
  6
AUSGEZOGEN
 62
     7
440
 33554687
370
    13
100
AcDbCircle
 10
12.509147
 20
-2.371177
 30
0.0
 40
0.0008002397722164
100
AcDbArc
 50
43.432537
 51
90.0
  0
ARC
  5
1D8
330
1F
100
AcDbEntity
  8
XR$1$TB_111_1
  6
AUSGEZOGEN
 62
     7
440
 33554687
370
    13
100
AcDbCircle
 10
12.512267
 20
-2.371177
 30
0.0
 40
0.0008002397722164
100
AcDbArc
 50
90.0
 51
136.567463
  0
LINE
  5
1D9
330
1F
100
AcDbEntity
  8
XR$1$TB_111_1
  6
AUSGEZOGEN
 62
     7
440
 33554687
370
    13
100
AcDbLine
 10
12.515708
 20
-2.369327
 30
0.0
 11
12.505705
 21
-2.369327
 31
0.0
  0
LINE
  5
1DA
330
1F
100
AcDbEntity
  8
XR$1$TB_111_1
  6
AUSGEZOGEN
 62
     7
440
 33554687
370
    13
100
AcDbLine
 10
12.518709
 20
-2.369573
 30
0.0
 11
12.520757
 21
-2.367621
 31
0.0
  0
LWPOLYLINE
  5
1DB
330
1F
100
AcDbEntity
  8
XR$1$TB_111_1
  6
AUSGEZOGEN
 62
     7
440
 33554687
370
    13
100
AcDbPolyline
 90
        4
 70
     0
 43
0.0
 10
12.498974
 20
-2.368702
 10
12.500264
 20
-2.37024
 10
12.501893
 20
-2.371412
 10
12.502704
 20
-2.371794
  0
ARC
  5
1DC
330
1F
100
AcDbEntity
  8
XR$1$TB_111_1
  6
AUSGEZOGEN
 62
     7
440
 33554687
370
    13
100
AcDbCircle
 10
12.511733
 20
-2.371678
 30
0.0
 40
0.0012003596583246
100
AcDbArc
 50
270.0
 51
324.314665
  0
ARC
  5
1DD
330
1F
100
AcDbEntity
  8
XR$1$TB_111_1
  6
AUSGEZOGEN
 62
     7
440
 33554687
370
    13
100
AcDbCircle
 10
12.509681
 20
-2.371678
 30
0.0
 40
0.0012003596583246
100
AcDbArc
 50
215.685335
 51
270.0
  0
LINE
  5
1DE
330
1F
100
AcDbEntity
  8
XR$1$TB_111_1
  6
AUSGEZOGEN
 62
     7
440
 33554687
370
    13
100
AcDbLine
 10
12.511733
 20
-2.372878
 30
0.0
 11
12.509681
 21
-2.372878
 31
0.0
  0
LINE
  5
1DF
330
1F
100
AcDbEntity
  8
XR$1$TB_111_1
  6
AUSGEZOGEN
 62
     7
440
 33554687
370
    13
100
AcDbLine
 10
12.510707
 20
-2.372378
 30
0.0
 11
12.505705
 21
-2.372378
 31
0.0
  0
LINE
  5
1E0
330
1F
100
AcDbEntity
  8
XR$1$TB_111_1
  6
AUSGEZOGEN
 62
     7
440
 33554687
370
    13
100
AcDbLine
 10
12.515708
 20
-2.372378
 30
0.0
 11
12.510707
 21
-2.372378
 31
0.0
  0
LWPOLYLINE
  5
1E1
330
1F
100
AcDbEntity
  8
XR$1$TB_111_1
  6
AUSGEZOGEN
 62
     7
440
 33554687
370
    13
100
AcDbPolyline
 90
        4
 70
     0
 43
0.0
 10
12.52244
 20
-2.368702
 10
12.52115
 20
-2.37024
 10
12.51952
 20
-2.371412
 10
12.518709
 20
-2.371794
  0
LINE
  5
1E2
330
1F
100
AcDbEntity
  8
XR$1$TB_111_1
  6
AUSGEZOGEN
 62
     7
440
 33554687
370
    13
100
AcDbLine
 10
12.524551
 20
-2.365418
 30
0.0
 11
12.526212
 21
-2.365418
 31
0.0
  0
LINE
  5
1E3
330
1F
100
AcDbEntity
  8
XR$1$TB_111_1
  6
AUSGEZOGEN
 62
     7
440
 33554687
370
    13
100
AcDbLine
 10
12.526212
 20
-2.363767
 30
0.0
 11
12.526212
 21
-2.365418
 31
0.0
  0
LWPOLYLINE
  5
1E4
330
1F
100
AcDbEntity
  8
XR$1$TB_111_1
  6
AUSGEZOGEN
 62
     7
440
 33554687
370
    13
100
AcDbPolyline
 90
        3
 70
     0
 43
0.0
 10
12.500657
 20
-2.367621
 10
12.49864
 20
-2.364483
 10
12.498056
 20
-2.363575
  0
LWPOLYLINE
  5
1E5
330
1F
100
AcDbEntity
  8
XR$1$TB_111_1
  6
AUSGEZOGEN
 62
     7
440
 33554687
370
    13
100
AcDbPolyline
 90
        3
 70
     0
 43
0.0
 10
12.520757
 20
-2.367621
 10
12.522774
 20
-2.364483
 10
12.523358
 20
-2.363575
  0
LWPOLYLINE
  5
1E6
330
1F
100
AcDbEntity
  8
XR$1$TB_111_1
  6
AUSGEZOGEN
 62
     7
440
 33554687
370
    13
100
AcDbPolyline
 90
        4
 70
     0
 43
0.0
 10
12.495678
 20
-2.363575
 10
12.495692
 20
-2.363598
 10
12.497338
 20
-2.366158
 10
12.498974
 20
-2.368702
  0
LWPOLYLINE
  5
1E7
330
1F
100
AcDbEntity
  8
XR$1$TB_111_1
  6
AUSGEZOGEN
 62
     7
440
 33554687
370
    13
100
AcDbPolyline
 90
        4
 70
     0
 43
0.0
 10
12.525736
 20
-2.363575
 10
12.525721
 20
-2.363598
 10
12.524076
 20
-2.366158
 10
12.52244
 20
-2.368702
  0
LWPOLYLINE
  5
1E8
330
1F
100
AcDbEntity
  8
XR$1$TB_111_1
  6
AUSGEZOGEN
 62
     7
440
 33554687
370
    13
100
AcDbPolyline
 90
        3
 70
     0
 43
0.0
 10
12.562722
 20
-2.371578
 10
12.561971
 20
-2.370388
 10
12.561965
 20
-2.370377
  0
LWPOLYLINE
  5
1E9
330
1F
100
AcDbEntity
  8
XR$1$TB_111_1
  6
AUSGEZOGEN
 62
     7
440
 33554687
370
    13
100
AcDbPolyline
 90
        3
 70
     0
 43
0.0
 10
12.561965
 20
-2.370377
 10
12.561795
 20
-2.37002
 10
12.561722
 20
-2.369706
  0
LWPOLYLINE
  5
1EA
330
1F
100
AcDbEntity
  8
XR$1$TB_111_1
  6
AUSGEZOGEN
 62
     7
440
 33554687
370
    13
100
AcDbPolyline
 90
        3
 70
     0
 43
0.0
 10
12.571725
 20
-2.369706
 10
12.571652
 20
-2.37002
 10
12.571482
 20
-2.370377
  0
LWPOLYLINE
  5
1EB
330
1F
100
AcDbEntity
  8
XR$1$TB_111_1
  6
AUSGEZOGEN
 62
     7
440
 33554687
370
    13
100
AcDbPolyline
 90
        3
 70
     0
 43
0.0
 10
12.571482
 20
-2.370377
 10
12.571476
 20
-2.370388
 10
12.570725
 20
-2.371578
  0
LINE
  5
1EC
330
1F
100
AcDbEntity
  8
XR$1$TB_111_1
  6
AUSGEZOGEN
 62
     7
440
 33554687
370
    13
100
AcDbLine
 10
12.561722
 20
-2.372378
 30
0.0
 11
12.561722
 21
-2.370377
 31
0.0
  0
LINE
  5
1ED
330
1F
100
AcDbEntity
  8
XR$1$TB_111_1
  6
AUSGEZOGEN
 62
     7
440
 33554687
370
    13
100
AcDbLine
 10
12.561722
 20
-2.369327
 30
0.0
 11
12.561722
 21
-2.370377
 31
0.0
  0
LINE
  5
1EE
330
1F
100
AcDbEntity
  8
XR$1$TB_111_1
  6
AUSGEZOGEN
 62
     7
440
 33554687
370
    13
100
AcDbLine
 10
12.558814
 20
-2.369626
 30
0.0
 11
12.558721
 21
-2.369573
 31
0.0
  0
LINE
  5
1EF
330
1F
100
AcDbEntity
  8
XR$1$TB_111_1
  6
AUSGEZOGEN
 62
     7
440
 33554687
370
    13
100
AcDbLine
 10
12.561722
 20
-2.372378
 30
0.0
 11
12.558721
 21
-2.371794
 31
0.0
  0
LINE
  5
1F0
330
1F
100
AcDbEntity
  8
XR$1$TB_111_1
  6
AUSGEZOGEN
 62
     7
440
 33554687
370
    13
100
AcDbLine
 10
12.558721
 20
-2.369573
 30
0.0
 11
12.556673
 21
-2.367621
 31
0.0
  0
LINE
  5
1F1
330
1F
100
AcDbEntity
  8
XR$1$TB_111_1
  6
AUSGEZOGEN
 62
     7
440
 33554687
370
    13
100
AcDbLine
 10
12.574633
 20
-2.369626
 30
0.0
 11
12.574726
 21
-2.369573
 31
0.0
  0
LINE
  5
1F2
330
1F
100
AcDbEntity
  8
XR$1$TB_111_1
  6
AUSGEZOGEN
 62
     7
440
 33554687
370
    13
100
AcDbLine
 10
12.571725
 20
-2.370377
 30
0.0
 11
12.571725
 21
-2.372378
 31
0.0
  0
LINE
  5
1F3
330
1F
100
AcDbEntity
  8
XR$1$TB_111_1
  6
AUSGEZOGEN
 62
     7
440
 33554687
370
    13
100
AcDbLine
 10
12.571725
 20
-2.371578
 30
0.0
 11
12.561722
 21
-2.371578
 31
0.0
  0
LINE
  5
1F4
330
1F
100
AcDbEntity
  8
XR$1$TB_111_1
  6
AUSGEZOGEN
 62
     7
440
 33554687
370
    13
100
AcDbLine
 10
12.571725
 20
-2.370377
 30
0.0
 11
12.571725
 21
-2.369327
 31
0.0
  0
LINE
  5
1F5
330
1F
100
AcDbEntity
  8
XR$1$TB_111_1
  6
AUSGEZOGEN
 62
     7
440
 33554687
370
    13
100
AcDbLine
 10
12.561722
 20
-2.370377
 30
0.0
 11
12.566724
 21
-2.370377
 31
0.0
  0
LINE
  5
1F6
330
1F
100
AcDbEntity
  8
XR$1$TB_111_1
  6
AUSGEZOGEN
 62
     7
440
 33554687
370
    13
100
AcDbLine
 10
12.566724
 20
-2.370377
 30
0.0
 11
12.571725
 21
-2.370377
 31
0.0
  0
ARC
  5
1F7
330
1F
100
AcDbEntity
  8
XR$1$TB_111_1
  6
AUSGEZOGEN
 62
     7
440
 33554687
370
    13
100
AcDbCircle
 10
12.566326
 20
-2.370077
 30
0.0
 40
0.0008002397722164
100
AcDbArc
 50
223.432537
 51
270.0
  0
ARC
  5
1F8
330
1F
100
AcDbEntity
  8
XR$1$TB_111_1
  6
AUSGEZOGEN
 62
     7
440
 33554687
370
    13
100
AcDbCircle
 10
12.567122
 20
-2.370077
 30
0.0
 40
0.0008002397722164
100
AcDbArc
 50
270.0
 51
316.567463
  0
LINE
  5
1F9
330
1F
100
AcDbEntity
  8
XR$1$TB_111_1
  6
AUSGEZOGEN
 62
     7
440
 33554687
370
    13
100
AcDbLine
 10
12.566326
 20
-2.370877
 30
0.0
 11
12.567122
 21
-2.370877
 31
0.0
  0
ARC
  5
1FA
330
1F
100
AcDbEntity
  8
XR$1$TB_111_1
  6
AUSGEZOGEN
 62
     7
440
 33554687
370
    13
100
AcDbCircle
 10
12.565164
 20
-2.371177
 30
0.0
 40
0.0008002397722164
100
AcDbArc
 50
43.432537
 51
90.0
  0
ARC
  5
1FB
330
1F
100
AcDbEntity
  8
XR$1$TB_111_1
  6
AUSGEZOGEN
 62
     7
440
 33554687
370
    13
100
AcDbCircle
 10
12.568284
 20
-2.371177
 30
0.0
 40
0.0008002397722164
100
AcDbArc
 50
90.0
 51
136.567463
  0
LINE
  5
1FC
330
1F
100
AcDbEntity
  8
XR$1$TB_111_1
  6
AUSGEZOGEN
 62
     7
440
 33554687
370
    13
100
AcDbLine
 10
12.571725
 20
-2.369327
 30
0.0
 11
12.561722
 21
-2.369327
 31
0.0
  0
LINE
  5
1FD
330
1F
100
AcDbEntity
  8
XR$1$TB_111_1
  6
AUSGEZOGEN
 62
     7
440
 33554687
370
    13
100
AcDbLine
 10
12.561722
 20
-2.370377
 30
0.0
 11
12.558814
 21
-2.369626
 31
0.0
  0
LINE
  5
1FE
330
1F
100
AcDbEntity
  8
XR$1$TB_111_1
  6
AUSGEZOGEN
 62
     7
440
 33554687
370
    13
100
AcDbLine
 10
12.574633
 20
-2.369626
 30
0.0
 11
12.571725
 21
-2.370377
 31
0.0
  0
LINE
  5
1FF
330
1F
100
AcDbEntity
  8
XR$1$TB_111_1
  6
AUSGEZOGEN
 62
     7
440
 33554687
370
    13
100
AcDbLine
 10
12.574726
 20
-2.369573
 30
0.0
 11
12.576774
 21
-2.367621
 31
0.0
  0
LINE
  5
200
330
1F
100
AcDbEntity
  8
XR$1$TB_111_1
  6
AUSGEZOGEN
 62
     7
440
 33554687
370
    13
100
AcDbLine
 10
12.551219
 20
-2.365418
 30
0.0
 11
12.551219
 21
-2.363767
 31
0.0
  0
LINE
  5
201
330
1F
100
AcDbEntity
  8
XR$1$TB_111_1
  6
AUSGEZOGEN
 62
     7
440
 33554687
370
    13
100
AcDbLine
 10
12.551219
 20
-2.365418
 30
0.0
 11
12.552879
 21
-2.365418
 31
0.0
  0
LWPOLYLINE
  5
202
330
1F
100
AcDbEntity
  8
XR$1$TB_111_1
  6
AUSGEZOGEN
 62
     7
440
 33554687
370
    13
100
AcDbPolyline
 90
        4
 70
     0
 43
0.0
 10
12.554991
 20
-2.368702
 10
12.556281
 20
-2.37024
 10
12.55791
 20
-2.371412
 10
12.558721
 20
-2.371794
  0
ARC
  5
203
330
1F
100
AcDbEntity
  8
XR$1$TB_111_1
  6
AUSGEZOGEN
 62
     7
440
 33554687
370
    13
100
AcDbCircle
 10
12.567749
 20
-2.371678
 30
0.0
 40
0.0012003596583246
100
AcDbArc
 50
270.0
 51
324.314665
  0
ARC
  5
204
330
1F
100
AcDbEntity
  8
XR$1$TB_111_1
  6
AUSGEZOGEN
 62
     7
440
 33554687
370
    13
100
AcDbCircle
 10
12.565698
 20
-2.371678
 30
0.0
 40
0.0012003596583246
100
AcDbArc
 50
215.685335
 51
270.0
  0
LINE
  5
205
330
1F
100
AcDbEntity
  8
XR$1$TB_111_1
  6
AUSGEZOGEN
 62
     7
440
 33554687
370
    13
100
AcDbLine
 10
12.567749
 20
-2.372878
 30
0.0
 11
12.565698
 21
-2.372878
 31
0.0
  0
LINE
  5
206
330
1F
100
AcDbEntity
  8
XR$1$TB_111_1
  6
AUSGEZOGEN
 62
     7
440
 33554687
370
    13
100
AcDbLine
 10
12.566724
 20
-2.372378
 30
0.0
 11
12.561722
 21
-2.372378
 31
0.0
  0
LINE
  5
207
330
1F
100
AcDbEntity
  8
XR$1$TB_111_1
  6
AUSGEZOGEN
 62
     7
440
 33554687
370
    13
100
AcDbLine
 10
12.571725
 20
-2.372378
 30
0.0
 11
12.566724
 21
-2.372378
 31
0.0
  0
LWPOLYLINE
  5
208
330
1F
100
AcDbEntity
  8
XR$1$TB_111_1
  6
AUSGEZOGEN
 62
     7
440
 33554687
370
    13
100
AcDbPolyline
 90
        4
 70
     0
 43
0.0
 10
12.578457
 20
-2.368702
 10
12.577166
 20
-2.37024
 10
12.575537
 20
-2.371412
 10
12.574726
 20
-2.371794
  0
LINE
  5
209
330
1F
100
AcDbEntity
  8
XR$1$TB_111_1
  6
AUSGEZOGEN
 62
     7
440
 33554687
370
    13
100
AcDbLine
 10
12.574726
 20
-2.371794
 30
0.0
 11
12.571725
 21
-2.372378
 31
0.0
  0
LWPOLYLINE
  5
20A
330
1F
100
AcDbEntity
  8
XR$1$TB_111_1
  6
AUSGEZOGEN
 62
     7
440
 33554687
370
    13
100
AcDbPolyline
 90
        3
 70
     0
 43
0.0
 10
12.556673
 20
-2.367621
 10
12.554657
 20
-2.364483
 10
12.554073
 20
-2.363575
  0
LWPOLYLINE
  5
20B
330
1F
100
AcDbEntity
  8
XR$1$TB_111_1
  6
AUSGEZOGEN
 62
     7
440
 33554687
370
    13
100
AcDbPolyline
 90
        3
 70
     0
 43
0.0
 10
12.576774
 20
-2.367621
 10
12.578791
 20
-2.364483
 10
12.579374
 20
-2.363575
  0
LWPOLYLINE
  5
20C
330
1F
100
AcDbEntity
  8
XR$1$TB_111_1
  6
AUSGEZOGEN
 62
     7
440
 33554687
370
    13
100
AcDbPolyline
 90
        4
 70
     0
 43
0.0
 10
12.551695
 20
-2.363575
 10
12.551709
 20
-2.363598
 10
12.553355
 20
-2.366158
 10
12.554991
 20
-2.368702
  0
LWPOLYLINE
  5
20D
330
1F
100
AcDbEntity
  8
XR$1$TB_111_1
  6
AUSGEZOGEN
 62
     7
440
 33554687
370
    13
100
AcDbPolyline
 90
        4
 70
     0
 43
0.0
 10
12.581753
 20
-2.363575
 10
12.581738
 20
-2.363598
 10
12.580093
 20
-2.366158
 10
12.578457
 20
-2.368702
  0
LINE
  5
20E
330
1F
100
AcDbEntity
  8
XR$1$TB_111_1
  6
AUSGEZOGEN
 62
     7
440
 33554687
370
    18
100
AcDbLine
 10
12.51971
 20
-2.359374
 30
0.0
 11
12.557721
 21
-2.359374
 31
0.0
  0
ARC
  5
20F
330
1F
100
AcDbEntity
  8
XR$1$TB_111_1
  6
AUSGEZOGEN
 62
     7
440
 33554687
370
    13
100
AcDbCircle
 10
12.526212
 20
-2.360874
 30
0.0
 40
0.0015004495729057
100
AcDbArc
 50
81.307769
 51
90.0
  0
ARC
  5
210
330
1F
100
AcDbEntity
  8
XR$1$TB_111_1
  6
AUSGEZOGEN
 62
     7
440
 33554687
370
    18
100
AcDbCircle
 10
12.530987
 20
-2.359374
 30
0.0
 40
0.0015004495729057
100
AcDbArc
 50
201.443925
 51
270.0
  0
ARC
  5
211
330
1F
100
AcDbEntity
  8
XR$1$TB_111_1
  6
AUSGEZOGEN
 62
     7
440
 33554687
370
    18
100
AcDbCircle
 10
12.530987
 20
-2.359374
 30
0.0
 40
0.0035010490034467
100
AcDbArc
 50
207.494728
 51
270.0
  0
ARC
  5
212
330
1F
100
AcDbEntity
  8
XR$1$TB_111_1
  6
AUSGEZOGEN
 62
     7
440
 33554687
370
    18
100
AcDbCircle
 10
12.546443
 20
-2.359374
 30
0.0
 40
0.0015004495729057
100
AcDbArc
 50
270.0
 51
338.556075
  0
ARC
  5
213
330
1F
100
AcDbEntity
  8
XR$1$TB_111_1
  6
AUSGEZOGEN
 62
     7
440
 33554687
370
    18
100
AcDbCircle
 10
12.546443
 20
-2.359374
 30
0.0
 40
0.0035010490034467
100
AcDbArc
 50
270.0
 51
332.505272
  0
LWPOLYLINE
  5
214
330
1F
100
AcDbEntity
  8
XR$1$TB_111_1
  6
AUSGEZOGEN
 62
     7
440
 33554687
370
    18
100
AcDbPolyline
 90
        3
 70
     0
 43
0.0
 10
12.579374
 20
-2.363575
 10
12.579924
 20
-2.36272
 10
12.580998
 20
-2.361049
  0
LWPOLYLINE
  5
215
330
1F
100
AcDbEntity
  8
XR$1$TB_111_1
  6
AUSGEZOGEN
 62
     7
440
 33554687
370
    18
100
AcDbPolyline
 90
        3
 70
     0
 43
0.0
 10
12.580998
 20
-2.361049
 10
12.582289
 20
-2.359511
 10
12.582479
 20
-2.359374
  0
LWPOLYLINE
  5
216
330
1F
100
AcDbEntity
  8
XR$1$TB_111_1
  6
AUSGEZOGEN
 62
     7
440
 33554687
370
    18
100
AcDbPolyline
 90
        3
 70
     0
 43
0.0
 10
12.554073
 20
-2.363575
 10
12.553524
 20
-2.36272
 10
12.551373
 20
-2.359374
  0
LWPOLYLINE
  5
217
330
1F
100
AcDbEntity
  8
XR$1$TB_111_1
  6
AUSGEZOGEN
 62
     7
440
 33554687
370
    18
100
AcDbPolyline
 90
        3
 70
     0
 43
0.0
 10
12.523358
 20
-2.363575
 10
12.523907
 20
-2.36272
 10
12.524982
 20
-2.361049
  0
LWPOLYLINE
  5
218
330
1F
100
AcDbEntity
  8
XR$1$TB_111_1
  6
AUSGEZOGEN
 62
     7
440
 33554687
370
    18
100
AcDbPolyline
 90
        3
 70
     0
 43
0.0
 10
12.524982
 20
-2.361049
 10
12.526272
 20
-2.359511
 10
12.526462
 20
-2.359374
  0
LWPOLYLINE
  5
219
330
1F
100
AcDbEntity
  8
XR$1$TB_111_1
  6
AUSGEZOGEN
 62
     7
440
 33554687
370
    18
100
AcDbPolyline
 90
        3
 70
     0
 43
0.0
 10
12.498056
 20
-2.363575
 10
12.497507
 20
-2.36272
 10
12.496432
 20
-2.361049
  0
LWPOLYLINE
  5
21A
330
1F
100
AcDbEntity
  8
XR$1$TB_111_1
  6
AUSGEZOGEN
 62
     7
440
 33554687
370
    18
100
AcDbPolyline
 90
        3
 70
     0
 43
0.0
 10
12.496432
 20
-2.361049
 10
12.495142
 20
-2.359511
 10
12.494952
 20
-2.359374
  0
LINE
  5
21B
330
1F
100
AcDbEntity
  8
XR$1$TB_111_1
  6
AUSGEZOGEN
 62
     7
440
 33554687
370
    18
100
AcDbLine
 10
12.515714
 20
-2.363775
 30
0.0
 11
12.515714
 21
-2.359457
 31
0.0
  0
LINE
  5
21C
330
1F
100
AcDbEntity
  8
XR$1$TB_111_1
  6
AUSGEZOGEN
 62
     7
440
 33554687
370
    18
100
AcDbLine
 10
12.505714
 20
-2.359457
 30
0.0
 11
12.505714
 21
-2.363775
 31
0.0
  0
LINE
  5
21D
330
1F
100
AcDbEntity
  8
XR$1$TB_111_1
  6
AUSGEZOGEN
 62
     7
440
 33554687
370
    18
100
AcDbLine
 10
12.481739
 20
-2.359373
 30
0.0
 11
12.526215
 21
-2.359373
 31
0.0
  0
LINE
  5
21E
330
1F
100
AcDbEntity
  8
XR$1$TB_111_1
  6
AUSGEZOGEN
 62
     7
440
 33554687
370
    18
100
AcDbLine
 10
12.520214
 20
-2.359373
 30
0.0
 11
12.520214
 21
-2.363775
 31
0.0
  0
LINE
  5
21F
330
1F
100
AcDbEntity
  8
XR$1$TB_111_1
  6
AUSGEZOGEN
 62
     7
440
 33554687
370
    18
100
AcDbLine
 10
12.561717
 20
-2.363775
 30
0.0
 11
12.561717
 21
-2.359457
 31
0.0
  0
LINE
  5
220
330
1F
100
AcDbEntity
  8
XR$1$TB_111_1
  6
AUSGEZOGEN
 62
     7
440
 33554687
370
    18
100
AcDbLine
 10
12.571717
 20
-2.359457
 30
0.0
 11
12.571717
 21
-2.363775
 31
0.0
  0
LINE
  5
221
330
1F
100
AcDbEntity
  8
XR$1$TB_111_1
  6
AUSGEZOGEN
 62
     7
440
 33554687
370
    18
100
AcDbLine
 10
12.557217
 20
-2.359373
 30
0.0
 11
12.557217
 21
-2.363775
 31
0.0
  0
LINE
  5
222
330
1F
100
AcDbEntity
  8
XR$1$TB_111_1
  6
AUSGEZOGEN
 62
     7
440
 33554687
370
    18
100
AcDbLine
 10
12.538203
 20
-2.305373
 30
0.0
 11
12.538203
 21
-2.355373
 31
0.0
  0
LINE
  5
223
330
1F
100
AcDbEntity
  8
XR$1$TB_111_1
  6
AUSGEZOGEN
 62
     7
440
 33554687
370
    18
100
AcDbLine
 10
12.542703
 20
-2.339373
 30
0.0
 11
12.542703
 21
-2.239373
 31
0.0
  0
LINE
  5
224
330
1F
100
AcDbEntity
  8
XR$1$TB_111_1
  6
AUSGEZOGEN
 62
     7
440
 33554687
370
    18
100
AcDbLine
 10
12.110802
 20
-2.339373
 30
0.0
 11
12.110802
 21
-2.239377
 31
0.0
  0
LINE
  5
225
330
1F
100
AcDbEntity
  8
XR$1$TB_111_1
  6
AUSGEZOGEN
 62
    52
440
 33554687
370
    13
100
AcDbLine
 10
12.046542
 20
-2.305373
 30
0.0
 11
12.022105
 21
-2.236175
 31
0.0
  0
LINE
  5
226
330
1F
100
AcDbEntity
  8
XR$1$TB_111_1
  6
AUSGEZOGEN
 62
    52
440
 33554687
370
    13
100
AcDbLine
 10
12.070802
 20
-2.236742
 30
0.0
 11
12.046542
 21
-2.305373
 31
0.0
  0
LINE
  5
227
330
1F
100
AcDbEntity
  8
XR$1$TB_111_1
  6
AUSGEZOGEN
 62
    52
440
 33554687
370
    13
100
AcDbLine
 10
12.096542
 20
-2.305373
 30
0.0
 11
12.074042
 21
-2.242373
 31
0.0
  0
LINE
  5
228
330
1F
100
AcDbEntity
  8
XR$1$TB_111_1
  6
AUSGEZOGEN
 62
    52
440
 33554687
370
    13
100
AcDbLine
 10
12.108302
 20
-2.276742
 30
0.0
 11
12.096542
 21
-2.305373
 31
0.0
  0
LINE
  5
229
330
1F
100
AcDbEntity
  8
XR$1$TB_111_1
  6
AUSGEZOGEN
 62
    52
440
 33554687
370
    13
100
AcDbLine
 10
12.106302
 20
-2.305373
 30
0.0
 11
12.022105
 21
-2.305373
 31
0.0
  0
LINE
  5
22A
330
1F
100
AcDbEntity
  8
XR$1$TB_111_1
  6
AUSGEZOGEN
 62
    52
440
 33554687
370
    13
100
AcDbLine
 10
12.519042
 20
-2.242375
 30
0.0
 11
12.496542
 21
-2.305373
 31
0.0
  0
LINE
  5
22B
330
1F
100
AcDbEntity
  8
XR$1$TB_111_1
  6
AUSGEZOGEN
 62
    52
440
 33554687
370
    13
100
AcDbLine
 10
12.538203
 20
-2.305373
 30
0.0
 11
12.110802
 21
-2.305373
 31
0.0
  0
LINE
  5
22C
330
1F
100
AcDbEntity
  8
XR$1$TB_111_1
  6
AUSGEZOGEN
 62
    52
440
 33554687
370
    13
100
AcDbLine
 10
12.637603
 20
-2.305373
 30
0.0
 11
12.542703
 21
-2.305373
 31
0.0
  0
LINE
  5
22D
330
1F
100
AcDbEntity
  8
XR$1$TB_111_1
  6
AUSGEZOGEN
 62
    52
440
 33554687
370
    13
100
AcDbLine
 10
12.546542
 20
-2.305373
 30
0.0
 11
12.542703
 21
-2.29447
 31
0.0
  0
LINE
  5
22E
330
1F
100
AcDbEntity
  8
XR$1$TB_111_1
  6
AUSGEZOGEN
 62
    52
440
 33554687
370
    13
100
AcDbLine
 10
12.540203
 20
-2.28737
 30
0.0
 11
12.52436
 21
-2.242376
 31
0.0
  0
LINE
  5
22F
330
1F
100
AcDbEntity
  8
XR$1$TB_111_1
  6
AUSGEZOGEN
 62
     7
440
 33554687
370
    18
100
AcDbLine
 10
12.640603
 20
-2.137373
 30
0.0
 11
12.640603
 21
-2.39163
 31
0.0
  0
LINE
  5
230
330
1F
100
AcDbEntity
  8
XR$1$TB_111_1
  6
AUSGEZOGEN
 62
     7
440
 33554687
370
    18
100
AcDbLine
 10
12.637603
 20
-2.137373
 30
0.0
 11
12.637603
 21
-2.39113
 31
0.0
  0
LINE
  5
231
330
1F
100
AcDbEntity
  8
XR$1$TB_111_1
  6
AUSGEZOGEN
 62
     7
440
 33554687
370
    18
100
AcDbLine
 10
12.809603
 20
-1.934373
 30
0.0
 11
12.597603
 21
-1.934373
 31
0.0
  0
LINE
  5
232
330
1F
100
AcDbEntity
  8
XR$1$TB_111_1
  6
AUSGEZOGEN
 62
    32
440
 33554687
370
    50
100
AcDbLine
 10
12.597603
 20
-1.934373
 30
0.0
 11
12.597603
 21
-2.233373
 31
0.0
  0
LINE
  5
233
330
1F
100
AcDbEntity
  8
XR$1$TB_111_1
  6
AUSGEZOGEN
 62
    32
440
 33554687
370
    50
100
AcDbLine
 10
12.597603
 20
-2.233373
 30
0.0
 11
12.022105
 21
-2.233373
 31
0.0
  0
LINE
  5
234
330
1F
100
AcDbEntity
  8
XR$1$TB_111_1
  6
AUSGEZOGEN
 62
    52
440
 33554687
370
    13
100
AcDbLine
 10
12.597603
 20
-2.233373
 30
0.0
 11
12.637603
 21
-2.224373
 31
0.0
  0
LINE
  5
235
330
1F
100
AcDbEntity
  8
XR$1$TB_111_1
  6
AUSGEZOGEN
 62
     7
440
 33554687
370
    18
100
AcDbLine
 10
12.070802
 20
-2.239373
 30
0.0
 11
12.070802
 21
-2.233377
 31
0.0
  0
LINE
  5
236
330
1F
100
AcDbEntity
  8
XR$1$TB_111_1
  6
AUSGEZOGEN
 62
     7
440
 33554687
370
    18
100
AcDbLine
 10
12.110802
 20
-2.239377
 30
0.0
 11
12.110802
 21
-2.233373
 31
0.0
  0
LINE
  5
237
330
1F
100
AcDbEntity
  8
XR$1$TB_111_1
  6
AUSGEZOGEN
 62
    52
440
 33554687
370
    13
100
AcDbLine
 10
12.121542
 20
-2.233373
 30
0.0
 11
12.110802
 21
-2.268742
 31
0.0
  0
LINE
  5
238
330
1F
100
AcDbEntity
  8
XR$1$TB_111_1
  6
AUSGEZOGEN
 62
     7
440
 33554687
370
    18
100
AcDbLine
 10
12.502703
 20
-2.239373
 30
0.0
 11
12.502703
 21
-2.233373
 31
0.0
  0
LINE
  5
239
330
1F
100
AcDbEntity
  8
XR$1$TB_111_1
  6
AUSGEZOGEN
 62
     7
440
 33554687
370
    18
100
AcDbLine
 10
12.542703
 20
-2.239373
 30
0.0
 11
12.542703
 21
-2.233377
 31
0.0
  0
LINE
  5
23A
330
1F
100
AcDbEntity
  8
XR$1$TB_111_1
  6
AUSGEZOGEN
 62
    52
440
 33554687
370
    13
100
AcDbLine
 10
12.296542
 20
-2.305373
 30
0.0
 11
12.271542
 21
-2.233373
 31
0.0
  0
LINE
  5
23B
330
1F
100
AcDbEntity
  8
XR$1$TB_111_1
  6
AUSGEZOGEN
 62
    52
440
 33554687
370
    13
100
AcDbLine
 10
12.271542
 20
-2.233373
 30
0.0
 11
12.246542
 21
-2.305373
 31
0.0
  0
LINE
  5
23C
330
1F
100
AcDbEntity
  8
XR$1$TB_111_1
  6
AUSGEZOGEN
 62
    52
440
 33554687
370
    13
100
AcDbLine
 10
12.246542
 20
-2.305373
 30
0.0
 11
12.221542
 21
-2.233373
 31
0.0
  0
LINE
  5
23D
330
1F
100
AcDbEntity
  8
XR$1$TB_111_1
  6
AUSGEZOGEN
 62
    52
440
 33554687
370
    13
100
AcDbLine
 10
12.221542
 20
-2.233373
 30
0.0
 11
12.196542
 21
-2.305373
 31
0.0
  0
LINE
  5
23E
330
1F
100
AcDbEntity
  8
XR$1$TB_111_1
  6
AUSGEZOGEN
 62
    52
440
 33554687
370
    13
100
AcDbLine
 10
12.196542
 20
-2.305373
 30
0.0
 11
12.171542
 21
-2.233373
 31
0.0
  0
LINE
  5
23F
330
1F
100
AcDbEntity
  8
XR$1$TB_111_1
  6
AUSGEZOGEN
 62
    52
440
 33554687
370
    13
100
AcDbLine
 10
12.171542
 20
-2.233373
 30
0.0
 11
12.146542
 21
-2.305373
 31
0.0
  0
LINE
  5
240
330
1F
100
AcDbEntity
  8
XR$1$TB_111_1
  6
AUSGEZOGEN
 62
    52
440
 33554687
370
    13
100
AcDbLine
 10
12.146542
 20
-2.305373
 30
0.0
 11
12.121542
 21
-2.233373
 31
0.0
  0
LINE
  5
241
330
1F
100
AcDbEntity
  8
XR$1$TB_111_1
  6
AUSGEZOGEN
 62
    52
440
 33554687
370
    13
100
AcDbLine
 10
12.346542
 20
-2.305373
 30
0.0
 11
12.321542
 21
-2.233373
 31
0.0
  0
LINE
  5
242
330
1F
100
AcDbEntity
  8
XR$1$TB_111_1
  6
AUSGEZOGEN
 62
    52
440
 33554687
370
    13
100
AcDbLine
 10
12.321542
 20
-2.233373
 30
0.0
 11
12.296542
 21
-2.305373
 31
0.0
  0
LINE
  5
243
330
1F
100
AcDbEntity
  8
XR$1$TB_111_1
  6
AUSGEZOGEN
 62
    52
440
 33554687
370
    13
100
AcDbLine
 10
12.396542
 20
-2.305373
 30
0.0
 11
12.371542
 21
-2.233373
 31
0.0
  0
LINE
  5
244
330
1F
100
AcDbEntity
  8
XR$1$TB_111_1
  6
AUSGEZOGEN
 62
    52
440
 33554687
370
    13
100
AcDbLine
 10
12.371542
 20
-2.233373
 30
0.0
 11
12.346542
 21
-2.305373
 31
0.0
  0
LINE
  5
245
330
1F
100
AcDbEntity
  8
XR$1$TB_111_1
  6
AUSGEZOGEN
 62
    52
440
 33554687
370
    13
100
AcDbLine
 10
12.421542
 20
-2.233373
 30
0.0
 11
12.396542
 21
-2.305373
 31
0.0
  0
LINE
  5
246
330
1F
100
AcDbEntity
  8
XR$1$TB_111_1
  6
AUSGEZOGEN
 62
    52
440
 33554687
370
    13
100
AcDbLine
 10
12.446542
 20
-2.305373
 30
0.0
 11
12.421542
 21
-2.233373
 31
0.0
  0
LINE
  5
247
330
1F
100
AcDbEntity
  8
XR$1$TB_111_1
  6
AUSGEZOGEN
 62
    52
440
 33554687
370
    13
100
AcDbLine
 10
12.471542
 20
-2.233373
 30
0.0
 11
12.446542
 21
-2.305373
 31
0.0
  0
LINE
  5
248
330
1F
100
AcDbEntity
  8
XR$1$TB_111_1
  6
AUSGEZOGEN
 62
    52
440
 33554687
370
    13
100
AcDbLine
 10
12.496542
 20
-2.305373
 30
0.0
 11
12.471542
 21
-2.233373
 31
0.0
  0
LINE
  5
249
330
1F
100
AcDbEntity
  8
XR$1$TB_111_1
  6
AUSGEZOGEN
 62
    52
440
 33554687
370
    13
100
AcDbLine
 10
12.571542
 20
-2.233373
 30
0.0
 11
12.546542
 21
-2.305373
 31
0.0
  0
LINE
  5
24A
330
1F
100
AcDbEntity
  8
XR$1$TB_111_1
  6
AUSGEZOGEN
 62
    52
440
 33554687
370
    13
100
AcDbLine
 10
12.596542
 20
-2.305373
 30
0.0
 11
12.571542
 21
-2.233373
 31
0.0
  0
LINE
  5
24B
330
1F
100
AcDbEntity
  8
XR$1$TB_111_1
  6
AUSGEZOGEN
 62
    52
440
 33554687
370
    13
100
AcDbLine
 10
12.637603
 20
-2.233373
 30
0.0
 11
12.597603
 21
-2.233373
 31
0.0
  0
LINE
  5
24C
330
1F
100
AcDbEntity
  8
XR$1$TB_111_1
  6
AUSGEZOGEN
 62
     1
440
 33554687
370
    70
100
AcDbLine
 10
11.880211
 20
-1.469036
 30
0.0
 11
11.880211
 21
-2.954021
 31
0.0
  0
MTEXT
  5
24D
330
1F
100
AcDbEntity
  8
XR$1$TB_111_1
  6
AUSGEZOGEN
 62
     7
440
 33554687
370
    18
100
AcDbMText
 10
12.133094
 20
-1.65158
 30
0.0
 40
0.01
 41
0.024254
 46
0.0
 71
     7
 72
     5
  1
\A1;{\fArial|i0|b0;\H0.017500;\W0.911111;\C7;®}\P
  7
ARIAL
 73
     1
 44
1.0
  0
MTEXT
  5
24E
330
1F
100
AcDbEntity
  8
XR$1$TB_111_1
  6
AUSGEZOGEN
 62
     7
440
 33554687
370
    18
100
AcDbMText
 10
11.998377
 20
-1.658935
 30
0.0
 40
0.0225
 41
0.244144
 46
0.0
 71
     7
 72
     5
  1
\W1.00;KeraTwin    K20 
  7
ARIAL
 73
     1
 44
1.0
  0
LINE
  5
24F
330
1F
100
AcDbEntity
  8
XR$1$TB_111_1
  6
STRICHPUNKT2_S5
 62
     7
440
 33554687
370
    18
100
AcDbLine
 10
12.809603
 20
-2.414633
 30
0.0
 11
12.809603
 21
-1.914373
 31
0.0
  0
MTEXT
  5
250
330
1F
100
AcDbEntity
  8
XR$1$TB_111_1
  6
AUSGEZOGEN
 62
     7
440
 33554687
370
    18
100
AcDbMText
 10
12.412229
 20
-2.814472
 30
0.0
 40
0.009
 41
0.418059
 46
0.0
 71
     7
 72
     5
  1
\W1.00;AGROB BUCHTAL GmbH   Architektenservice   D - 92521 Schwarzenfeld
  7
ARIAL
 73
     1
 44
1.0
  0
LINE
  5
251
330
1F
100
AcDbEntity
  8
XR$1$TB_111_1
  6
AUSGEZOGEN
 62
    52
440
 33554687
370
    13
100
AcDbLine
 10
12.618419
 20
-2.24237
 30
0.0
 11
12.596542
 21
-2.305373
 31
0.0
  0
LINE
  5
252
330
1F
100
AcDbEntity
  8
XR$1$TB_111_1
  6
AUSGEZOGEN
 62
     1
440
 33554687
370
    18
100
AcDbLine
 10
12.634603
 20
-2.28937
 30
0.0
 11
12.637603
 21
-2.28937
 31
0.0
  0
LINE
  5
253
330
1F
100
AcDbEntity
  8
XR$1$TB_111_1
  6
AUSGEZOGEN
 62
     1
440
 33554687
370
    18
100
AcDbLine
 10
12.634603
 20
-2.28937
 30
0.0
 11
12.634603
 21
-2.24237
 31
0.0
  0
LINE
  5
254
330
1F
100
AcDbEntity
  8
XR$1$TB_111_1
  6
AUSGEZOGEN
 62
    52
440
 33554687
370
    13
100
AcDbLine
 10
12.634603
 20
-2.275981
 30
0.0
 11
12.6243
 21
-2.24237
 31
0.0
  0
LINE
  5
255
330
1F
100
AcDbEntity
  8
XR$1$TB_111_1
  6
AUSGEZOGEN
 62
     7
440
 33554687
370
    18
100
AcDbLine
 10
12.809603
 20
-2.39513
 30
0.0
 11
12.636603
 21
-2.39513
 31
0.0
  0
MTEXT
  5
256
330
1F
100
AcDbEntity
  8
XR$1$TB_111_1
  6
AUSGEZOGEN
 62
     7
440
 33554687
370
    35
100
AcDbMText
 10
12.428819
 20
-2.409751
 30
0.0
 40
0.0125
 41
0.13281
 46
0.0
 71
     7
 72
     5
  1
\W0.93;Art.-Nr.: 625-XXX
  7
ARIAL
 73
     1
 44
1.0
  0
LINE
  5
257
330
1F
100
AcDbEntity
  8
XR$1$TB_111_1
  6
AUSGEZOGEN
 62
     4
440
 33554687
370
    18
100
AcDbLine
 10
12.572603
 20
-2.24237
 30
0.0
 11
12.572603
 21
-2.233373
 31
0.0
  0
LINE
  5
258
330
1F
100
AcDbEntity
  8
XR$1$TB_111_1
  6
AUSGEZOGEN
 62
     4
440
 33554687
370
    18
100
AcDbLine
 10
12.572603
 20
-2.24237
 30
0.0
 11
12.634603
 21
-2.24237
 31
0.0
  0
LINE
  5
259
330
1F
100
AcDbEntity
  8
XR$1$TB_111_1
  6
AUSGEZOGEN
 62
     4
440
 33554687
370
    18
100
AcDbLine
 10
12.572603
 20
-2.23937
 30
0.0
 11
12.637603
 21
-2.23937
 31
0.0
  0
LINE
  5
25A
330
1F
100
AcDbEntity
  8
XR$1$TB_111_1
  6
AUSGEZOGEN
 62
     3
440
 33554687
370
    25
100
AcDbLine
 10
12.682603
 20
-2.130373
 30
0.0
 11
12.597603
 21
-2.130373
 31
0.0
  0
LINE
  5
25B
330
1F
100
AcDbEntity
  8
XR$1$TB_111_1
  6
AUSGEZOGEN
 62
     3
440
 33554687
370
    25
100
AcDbLine
 10
12.657603
 20
-2.050373
 30
0.0
 11
12.657603
 21
-2.035373
 31
0.0
  0
LINE
  5
25C
330
1F
100
AcDbEntity
  8
XR$1$TB_111_1
  6
AUSGEZOGEN
 62
     3
440
 33554687
370
    25
100
AcDbLine
 10
12.737603
 20
-2.035373
 30
0.0
 11
12.737603
 21
-2.095373
 31
0.0
  0
LINE
  5
25D
330
1F
100
AcDbEntity
  8
XR$1$TB_111_1
  6
AUSGEZOGEN
 62
     3
440
 33554687
370
    25
100
AcDbLine
 10
12.682603
 20
-2.095373
 30
0.0
 11
12.737603
 21
-2.095373
 31
0.0
  0
LINE
  5
25E
330
1F
100
AcDbEntity
  8
XR$1$TB_111_1
  6
AUSGEZOGEN
 62
     3
440
 33554687
370
    25
100
AcDbLine
 10
12.657603
 20
-2.035373
 30
0.0
 11
12.737603
 21
-2.035373
 31
0.0
  0
LINE
  5
25F
330
1F
100
AcDbEntity
  8
XR$1$TB_111_1
  6
AUSGEZOGEN
 62
     3
440
 33554687
370
    25
100
AcDbLine
 10
12.682603
 20
-2.050373
 30
0.0
 11
12.597603
 21
-2.050373
 31
0.0
  0
LINE
  5
260
330
1F
100
AcDbEntity
  8
XR$1$TB_111_1
  6
AUSGEZOGEN
 62
     3
440
 33554687
370
    25
100
AcDbLine
 10
12.607603
 20
-2.050373
 30
0.0
 11
12.607603
 21
-2.130373
 31
0.0
  0
LINE
  5
261
330
1F
100
AcDbEntity
  8
XR$1$TB_111_1
  6
AUSGEZOGEN
 62
     3
440
 33554687
370
    25
100
AcDbLine
 10
12.682603
 20
-2.050373
 30
0.0
 11
12.682603
 21
-2.130373
 31
0.0
  0
LINE
  5
262
330
1F
100
AcDbEntity
  8
XR$1$TB_111_1
  6
AUSGEZOGEN
 62
     7
440
 33554687
370
    18
100
AcDbLine
 10
12.809603
 20
-2.035373
 30
0.0
 11
12.737603
 21
-2.035373
 31
0.0
  0
LINE
  5
263
330
1F
100
AcDbEntity
  8
XR$1$TB_111_1
  6
AUSGEZOGEN
 62
     7
440
 33554687
370
    18
100
AcDbLine
 10
12.809603
 20
-2.053373
 30
0.0
 11
12.737603
 21
-2.053373
 31
0.0
  0
LINE
  5
264
330
1F
100
AcDbEntity
  8
XR$1$TB_111_1
  6
AUSGEZOGEN
 62
     7
440
 33554687
370
    18
100
AcDbLine
 10
12.809603
 20
-2.057373
 30
0.0
 11
12.737603
 21
-2.057373
 31
0.0
  0
LINE
  5
265
330
1F
100
AcDbEntity
  8
XR$1$TB_111_1
  6
AUSGEZOGEN
 62
     7
440
 33554687
370
    18
100
AcDbLine
 10
12.809603
 20
-2.077373
 30
0.0
 11
12.737603
 21
-2.077373
 31
0.0
  0
LINE
  5
266
330
1F
100
AcDbEntity
  8
XR$1$TB_111_1
  6
AUSGEZOGEN
 62
     7
440
 33554687
370
    18
100
AcDbLine
 10
12.809603
 20
-2.073373
 30
0.0
 11
12.737603
 21
-2.073373
 31
0.0
  0
LINE
  5
267
330
1F
100
AcDbEntity
  8
XR$1$TB_111_1
  6
AUSGEZOGEN
 62
     7
440
 33554687
370
    18
100
AcDbLine
 10
12.809603
 20
-2.095373
 30
0.0
 11
12.737603
 21
-2.095373
 31
0.0
  0
LINE
  5
268
330
1F
100
AcDbEntity
  8
XR$1$TB_111_1
  6
AUSGEZOGEN
 62
     7
440
 33554687
370
    18
100
AcDbLine
 10
12.809603
 20
-2.130373
 30
0.0
 11
12.682603
 21
-2.130373
 31
0.0
  0
LINE
  5
26A
102
{ACAD_REACTORS
330
269
102
}
330
1F
100
AcDbEntity
  8
XR$1$TB_111_1
  6
AUSGEZOGEN
 62
     7
440
 33554687
370
    18
100
AcDbLine
 10
12.555791
 20
-2.403917
 30
0.0
 11
12.582825
 21
-2.360425
 31
0.0
  0
LINE
  5
26B
102
{ACAD_REACTORS
330
269
102
}
330
1F
100
AcDbEntity
  8
XR$1$TB_111_1
  6
AUSGEZOGEN
 62
     7
440
 33554687
370
    18
100
AcDbLine
 10
12.577282
 20
-2.369343
 30
0.0
 11
12.576886
 21
-2.36998
 31
0.0
  0
LINE
  5
26C
102
{ACAD_REACTORS
330
269
102
}
330
1F
100
AcDbEntity
  8
XR$1$TB_111_1
  6
AUSGEZOGEN
 62
     7
440
 33554687
370
    18
100
AcDbLine
 10
12.582825
 20
-2.360425
 30
0.0
 11
12.582825
 21
-2.360425
 31
0.0
  0
LINE
  5
26D
102
{ACAD_REACTORS
330
269
102
}
330
1F
100
AcDbEntity
  8
XR$1$TB_111_1
  6
AUSGEZOGEN
 62
     7
440
 33554687
370
    18
100
AcDbLine
 10
12.582825
 20
-2.360425
 30
0.0
 11
12.582825
 21
-2.360425
 31
0.0
  0
LINE
  5
26E
102
{ACAD_REACTORS
330
269
102
}
330
1F
100
AcDbEntity
  8
XR$1$TB_111_1
  6
AUSGEZOGEN
 62
     7
440
 33554687
370
    18
100
AcDbLine
 10
12.582825
 20
-2.360425
 30
0.0
 11
12.582825
 21
-2.360425
 31
0.0
  0
LINE
  5
26F
102
{ACAD_REACTORS
330
269
102
}
330
1F
100
AcDbEntity
  8
XR$1$TB_111_1
  6
AUSGEZOGEN
 62
     7
440
 33554687
370
    18
100
AcDbLine
 10
12.582825
 20
-2.360425
 30
0.0
 11
12.576008
 21
-2.368551
 31
0.0
  0
LINE
  5
270
102
{ACAD_REACTORS
330
269
102
}
330
1F
100
AcDbEntity
  8
XR$1$TB_111_1
  6
AUSGEZOGEN
 62
     7
440
 33554687
370
    18
100
AcDbLine
 10
12.576008
 20
-2.368551
 30
0.0
 11
12.578556
 21
-2.370134
 31
0.0
  0
LINE
  5
271
102
{ACAD_REACTORS
330
269
102
}
330
1F
100
AcDbEntity
  8
XR$1$TB_111_1
  6
AUSGEZOGEN
 62
     7
440
 33554687
370
    18
100
AcDbLine
 10
12.578556
 20
-2.370134
 30
0.0
 11
12.582825
 21
-2.360425
 31
0.0
  0
HATCH
  5
272
102
{ACAD_REACTORS
330
269
102
}
330
1F
100
AcDbEntity
  8
XR$1$TB_111_1
  6
AUSGEZOGEN
 62
     7
440
 33554687
370
    18
100
AcDbHatch
 10
0.0
 20
0.0
 30
0.0
210
0.0
220
0.0
230
1.0
  2
SOLID
 70
     1
 71
     0
 91
        1
 92
        3
 72
     0
 73
     1
 93
        3
 10
12.57855621337891
 20
-2.370134460449219
 10
12.58282543945313
 20
-2.360425048828125
 10
12.57600830078125
 20
-2.36855078125
 97
        0
 75
     0
 76
     1
 98
        0
  0
MTEXT
  5
273
330
1F
100
AcDbEntity
  8
XR$1$TB_111_1
  6
AUSGEZOGEN
 62
     7
440
 33554687
370
    35
100
AcDbMText
 10
12.007405
 20
-2.409749
 30
0.0
 40
0.0125
 41
0.094694
 46
0.0
 71
     7
 72
     5
  1
\W0.93;Art.-Nr.: 640
  7
ARIAL
 73
     1
 44
1.0
  0
MTEXT
  5
274
330
1F
100
AcDbEntity
  8
XR$1$TB_111_1
  6
AUSGEZOGEN
 62
     7
440
 33554687
370
    35
100
AcDbMText
 10
12.167405
 20
-2.409749
 30
0.0
 40
0.0125
 41
0.13281
 46
0.0
 71
     7
 72
     5
  1
\W0.93;Art.-Nr.: 625-XXX
  7
ARIAL
 73
     1
 44
1.0
  0
LINE
  5
276
102
{ACAD_REACTORS
330
275
102
}
330
1F
100
AcDbEntity
  8
XR$1$TB_111_1
  6
AUSGEZOGEN
 62
     7
440
 33554687
370
    18
100
AcDbLine
 10
12.167405
 20
-2.403916
 30
0.0
 11
12.151309
 21
-2.360718
 31
0.0
  0
LINE
  5
277
102
{ACAD_REACTORS
330
275
102
}
330
1F
100
AcDbEntity
  8
XR$1$TB_111_1
  6
AUSGEZOGEN
 62
     7
440
 33554687
370
    18
100
AcDbLine
 10
12.154976
 20
-2.370557
 30
0.0
 11
12.155238
 21
-2.37126
 31
0.0
  0
LINE
  5
278
102
{ACAD_REACTORS
330
275
102
}
330
1F
100
AcDbEntity
  8
XR$1$TB_111_1
  6
AUSGEZOGEN
 62
     7
440
 33554687
370
    18
100
AcDbLine
 10
12.151309
 20
-2.360718
 30
0.0
 11
12.151309
 21
-2.360718
 31
0.0
  0
LINE
  5
279
102
{ACAD_REACTORS
330
275
102
}
330
1F
100
AcDbEntity
  8
XR$1$TB_111_1
  6
AUSGEZOGEN
 62
     7
440
 33554687
370
    18
100
AcDbLine
 10
12.151309
 20
-2.360718
 30
0.0
 11
12.151309
 21
-2.360718
 31
0.0
  0
LINE
  5
27A
102
{ACAD_REACTORS
330
275
102
}
330
1F
100
AcDbEntity
  8
XR$1$TB_111_1
  6
AUSGEZOGEN
 62
     7
440
 33554687
370
    18
100
AcDbLine
 10
12.151309
 20
-2.360718
 30
0.0
 11
12.151309
 21
-2.360718
 31
0.0
  0
LINE
  5
27B
102
{ACAD_REACTORS
330
275
102
}
330
1F
100
AcDbEntity
  8
XR$1$TB_111_1
  6
AUSGEZOGEN
 62
     7
440
 33554687
370
    18
100
AcDbLine
 10
12.151309
 20
-2.360718
 30
0.0
 11
12.15357
 21
-2.371081
 31
0.0
  0
LINE
  5
27C
102
{ACAD_REACTORS
330
275
102
}
330
1F
100
AcDbEntity
  8
XR$1$TB_111_1
  6
AUSGEZOGEN
 62
     7
440
 33554687
370
    18
100
AcDbLine
 10
12.15357
 20
-2.371081
 30
0.0
 11
12.156381
 21
-2.370034
 31
0.0
  0
LINE
  5
27D
102
{ACAD_REACTORS
330
275
102
}
330
1F
100
AcDbEntity
  8
XR$1$TB_111_1
  6
AUSGEZOGEN
 62
     7
440
 33554687
370
    18
100
AcDbLine
 10
12.156381
 20
-2.370034
 30
0.0
 11
12.151309
 21
-2.360718
 31
0.0
  0
HATCH
  5
27E
102
{ACAD_REACTORS
330
275
102
}
330
1F
100
AcDbEntity
  8
XR$1$TB_111_1
  6
AUSGEZOGEN
 62
     7
440
 33554687
370
    18
100
AcDbHatch
 10
0.0
 20
0.0
 30
0.0
210
0.0
220
0.0
230
1.0
  2
SOLID
 70
     1
 71
     0
 91
        1
 92
        3
 72
     0
 73
     1
 93
        3
 10
12.15638122558594
 20
-2.370033752441406
 10
12.15130944824219
 20
-2.360718322753906
 10
12.15357006835938
 20
-2.371081176757813
 97
        0
 75
     0
 76
     1
 98
        0
  0
INSERT
  5
299
330
1F
100
AcDbEntity
  8
XR$1$TB_111_1
  6
AUSGEZOGEN
 62
     7
440
 33554687
370
    25
100
AcDbBlockReference
  2
COMPLEXOBJECT_0
 10
0.0
 20
0.0
 30
0.0
  0
LINE
  5
29B
102
{ACAD_REACTORS
330
29A
102
}
330
1F
100
AcDbEntity
  8
XR$1$TB_111_1
  6
AUSGEZOGEN
 62
     7
440
 33554687
370
    18
100
AcDbLine
 10
12.096266
 20
-2.403916
 30
0.0
 11
12.107294
 21
-2.384519
 31
0.0
  0
LINE
  5
29C
102
{ACAD_REACTORS
330
29A
102
}
330
1F
100
AcDbEntity
  8
XR$1$TB_111_1
  6
AUSGEZOGEN
 62
     7
440
 33554687
370
    18
100
AcDbLine
 10
12.102104
 20
-2.393647
 30
0.0
 11
12.101734
 21
-2.394299
 31
0.0
  0
LINE
  5
29D
102
{ACAD_REACTORS
330
29A
102
}
330
1F
100
AcDbEntity
  8
XR$1$TB_111_1
  6
AUSGEZOGEN
 62
     7
440
 33554687
370
    18
100
AcDbLine
 10
12.107294
 20
-2.384519
 30
0.0
 11
12.107294
 21
-2.384519
 31
0.0
  0
LINE
  5
29E
102
{ACAD_REACTORS
330
29A
102
}
330
1F
100
AcDbEntity
  8
XR$1$TB_111_1
  6
AUSGEZOGEN
 62
     7
440
 33554687
370
    18
100
AcDbLine
 10
12.107294
 20
-2.384519
 30
0.0
 11
12.107294
 21
-2.384519
 31
0.0
  0
LINE
  5
29F
102
{ACAD_REACTORS
330
29A
102
}
330
1F
100
AcDbEntity
  8
XR$1$TB_111_1
  6
AUSGEZOGEN
 62
     7
440
 33554687
370
    18
100
AcDbLine
 10
12.107294
 20
-2.384519
 30
0.0
 11
12.107294
 21
-2.384519
 31
0.0
  0
LINE
  5
2A0
102
{ACAD_REACTORS
330
29A
102
}
330
1F
100
AcDbEntity
  8
XR$1$TB_111_1
  6
AUSGEZOGEN
 62
     7
440
 33554687
370
    18
100
AcDbLine
 10
12.107294
 20
-2.384519
 30
0.0
 11
12.1008
 21
-2.392906
 31
0.0
  0
LINE
  5
2A1
102
{ACAD_REACTORS
330
29A
102
}
330
1F
100
AcDbEntity
  8
XR$1$TB_111_1
  6
AUSGEZOGEN
 62
     7
440
 33554687
370
    18
100
AcDbLine
 10
12.1008
 20
-2.392906
 30
0.0
 11
12.103408
 21
-2.394389
 31
0.0
  0
LINE
  5
2A2
102
{ACAD_REACTORS
330
29A
102
}
330
1F
100
AcDbEntity
  8
XR$1$TB_111_1
  6
AUSGEZOGEN
 62
     7
440
 33554687
370
    18
100
AcDbLine
 10
12.103408
 20
-2.394389
 30
0.0
 11
12.107294
 21
-2.384519
 31
0.0
  0
HATCH
  5
2A3
102
{ACAD_REACTORS
330
29A
102
}
330
1F
100
AcDbEntity
  8
XR$1$TB_111_1
  6
AUSGEZOGEN
 62
     7
440
 33554687
370
    18
100
AcDbHatch
 10
0.0
 20
0.0
 30
0.0
210
0.0
220
0.0
230
1.0
  2
SOLID
 70
     1
 71
     0
 91
        1
 92
        3
 72
     0
 73
     1
 93
        3
 10
12.10340832519531
 20
-2.394388671875
 10
12.10729382324219
 20
-2.384519409179688
 10
12.10080035400391
 20
-2.392905944824219
 97
        0
 75
     0
 76
     1
 98
        0
  0
MTEXT
  5
2A4
330
1F
100
AcDbEntity
  8
XR$1$TB_111_1
  6
AUSGEZOGEN
 62
     7
440
 33554687
370
    18
100
AcDbMText
 10
12.777187
 20
-2.850359
 30
0.0
 40
0.009
 41
0.096746
 46
0.0
 71
     7
 72
     5
  1
\W0.91;STAND: Mai 2019
  7
ARIAL
 73
     1
 44
1.0
  0
VIEWPORT
  5
72
330
6E
100
AcDbEntity
 67
     1
  8
0
100
AcDbViewport
 10
0.105008
 20
0.148499
 30
0.0
 40
0.210217
 41
0.297197
 68
     1
 69
     1
 12
0.105008
 22
0.148499
 13
0.0
 23
0.0
 14
0.5
 24
0.5
 15
0.5
 25
0.5
 16
0.0
 26
0.0
 36
1.0
 17
0.0
 27
0.0
 37
0.0
 42
50.0
 43
0.0
 44
0.0
 45
0.297197
 50
0.0
 51
0.0
 72
   100
 90
   557152
  1

281
     0
 71
     1
 74
     0
110
0.0
120
0.0
130
0.0
111
1.0
121
0.0
131
0.0
112
0.0
122
1.0
132
0.0
 79
     0
146
0.0
170
     0
 61
     5
348
2F
292
     1
282
     1
141
0.0
142
0.0
 63
   256
361
73
  0
VIEWPORT
  5
2A7
330
6E
100
AcDbEntity
 67
     1
  8
PLAN_111
  6
AUSGEZOGEN
 62
     7
370
    18
100
AcDbViewport
 10
0.105008
 20
0.148499
 30
0.0
 40
0.210217
 41
0.297197
 68
     2
 69
     2
 12
0.0
 22
0.0
 13
0.0
 23
0.0
 14
1.0
 24
1.0
 15
0.0
 25
0.0
 16
0.0
 26
0.0
 36
1.0
 17
12.405169
 27
-2.211529
 37
0.0
 42
50.0
 43
0.0
 44
0.0
 45
1.485985
 50
0.0
 51
0.0
 72
   100
331
10
331
76
331
78
 90
   557280
  1

281
     0
 71
     1
 74
     0
110
0.0
120
0.0
130
0.0
111
1.0
121
0.0
131
0.0
112
0.0
122
1.0
132
0.0
 79
     0
146
0.0
170
     0
 61
     5
348
2F
292
     1
282
     1
141
0.0
142
0.0
 63
   256
361
2A8
  0
ENDSEC
  0
SECTION
  2
OBJECTS
  0
DICTIONARY
  5
C
330
0
100
AcDbDictionary
281
     1
  3
ACAD_DETAILVIEWSTYLE
350
2E0
  3
ACAD_GROUP
350
D
  3
ACAD_LAYOUT
350
1A
  3
ACAD_MATERIAL
350
43
  3
ACAD_MLEADERSTYLE
350
6B
  3
ACAD_MLINESTYLE
350
17
  3
ACAD_PLOTSETTINGS
350
19
  3
ACAD_PLOTSTYLENAME
350
E
  3
ACAD_SCALELIST
350
47
  3
ACAD_SECTIONVIEWSTYLE
350
2E1
  3
ACAD_TABLESTYLE
350
69
  3
ACAD_VISUALSTYLE
350
2A
  3
ACDB_RECOMPOSE_DATA
350
2DD
  3
AcDbVariableDictionary
350
2A9
  0
SUN
  5
6D
330
29
100
AcDbSun
 90
        1
290
     0
 63
     7
421
 16777215
 40
1.0
291
     1
 91
  2455826
 92
 54000000
292
     0
 70
     2
 71
   256
280
     1
  0
DICTIONARY
  5
2A5
330
1F
100
AcDbDictionary
280
     1
281
     1
  3
ACAD_SORTENTS
360
2A6
  0
SUN
  5
73
330
72
100
AcDbSun
 90
        1
290
     0
 63
     7
421
 16777215
 40
1.0
291
     1
 91
  2455826
 92
 54000000
292
     0
 70
     2
 71
   256
280
     1
  0
SUN
  5
2A8
330
2A7
100
AcDbSun
 90
        1
290
     0
 63
     7
421
 16777215
 40
1.0
291
     1
 91
  2455826
 92
 54000000
292
     0
 70
     2
 71
   256
280
     1
  0
DICTIONARY
  5
2E0
102
{ACAD_REACTORS
330
C
102
}
330
C
100
AcDbDictionary
281
     1
  0
DICTIONARY
  5
D
102
{ACAD_REACTORS
330
C
102
}
330
C
100
AcDbDictionary
281
     1
  3
VERBUNDBLOCK_0
350
83
  3
VERBUNDBLOCK_1
350
88
  3
VERBUNDBLOCK_2
350
269
  3
VERBUNDBLOCK_3
350
275
  3
VERBUNDBLOCK_4
350
29A
  0
DICTIONARY
  5
1A
102
{ACAD_REACTORS
330
C
102
}
330
C
100
AcDbDictionary
281
     1
  3
K20 vertikales Systemprofil 12
350
6F
  3
Model
350
22
  0
DICTIONARY
  5
43
102
{ACAD_REACTORS
330
C
102
}
330
C
100
AcDbDictionary
281
     1
  3
ByBlock
350
45
  3
ByLayer
350
44
  3
Global
350
46
  0
DICTIONARY
  5
6B
102
{ACAD_REACTORS
330
C
102
}
330
C
100
AcDbDictionary
281
     1
  3
Standard
350
6C
  0
DICTIONARY
  5
17
102
{ACAD_REACTORS
330
C
102
}
330
C
100
AcDbDictionary
281
     1
  3
Standard
350
18
  0
DICTIONARY
  5
19
102
{ACAD_REACTORS
330
C
102
}
330
C
100
AcDbDictionary
281
     1
  0
ACDBDICTIONARYWDFLT
  5
E
102
{ACAD_REACTORS
330
C
102
}
330
C
100
AcDbDictionary
281
     1
  3
Normal
350
F
100
AcDbDictionaryWithDefault
340
F
  0
DICTIONARY
  5
47
102
{ACAD_REACTORS
330
C
102
}
330
C
100
AcDbDictionary
281
     1
  3
A0
350
48
  3
A1
350
49
  3
A2
350
4A
  3
A3
350
4B
  3
A4
350
4C
  3
A5
350
4D
  3
A6
350
4E
  3
A7
350
4F
  3
A8
350
50
  3
A9
350
51
  3
B0
350
52
  3
B1
350
53
  3
B2
350
54
  3
B3
350
55
  3
B4
350
56
  3
B5
350
57
  3
B6
350
58
  3
B7
350
59
  3
B8
350
5A
  3
B9
350
5B
  3
C0
350
5C
  3
C1
350
5D
  3
C2
350
5E
  3
C3
350
5F
  3
C4
350
60
  3
C5
350
61
  3
C6
350
62
  3
C7
350
63
  3
C8
350
64
  3
C9
350
65
  3
D0
350
66
  3
D1
350
67
  3
D2
350
68
  0
DICTIONARY
  5
2E1
102
{ACAD_REACTORS
330
C
102
}
330
C
100
AcDbDictionary
281
     1
  0
DICTIONARY
  5
69
102
{ACAD_REACTORS
330
C
102
}
330
C
100
AcDbDictionary
281
     1
  3
Standard
350
6A
  0
DICTIONARY
  5
2A
102
{ACAD_REACTORS
330
C
102
}
330
C
100
AcDbDictionary
281
     1
  3
2dWireframe
350
2F
  3
Basic
350
32
  3
Brighten
350
36
  3
ColorChange
350
3A
  3
Conceptual
350
34
  3
Dim
350
35
  3
EdgeColorOff
350
3D
  3
Facepattern
350
39
  3
Flat
350
2B
  3
FlatWithEdges
350
2C
  3
Gouraud
350
2D
  3
GouraudWithEdges
350
2E
  3
Hidden
350
31
  3
JitterOff
350
3B
  3
Linepattern
350
38
  3
OverhangOff
350
3C
  3
Realistic
350
33
  3
Shaded
350
42
  3
Shaded with edges
350
41
  3
Shades of Gray
350
3E
  3
Sketchy
350
3F
  3
Thicken
350
37
  3
Wireframe
350
30
  3
X-Ray
350
40
  0
XRECORD
  5
2DD
102
{ACAD_REACTORS
330
C
102
}
330
C
100
AcDbXrecord
280
     1
 90
        1
330
6A
  0
DICTIONARY
  5
2A9
102
{ACAD_REACTORS
330
C
102
}
330
C
100
AcDbDictionary
281
     1
  3
CANNOSCALE
350
2AA
  3
CMLEADERSTYLE
350
2DF
  3
CTABLESTYLE
350
2DE
  0
SORTENTSTABLE
  5
2A6
102
{ACAD_REACTORS
330
2A5
102
}
330
2A5
100
AcDbSortentsTable
330
1F
331
7F
  5
8E
331
80
  5
7F
331
81
  5
80
331
82
  5
81
331
84
  5
82
331
85
  5
84
331
86
  5
85
331
87
  5
86
331
89
  5
87
331
8A
  5
89
331
8B
  5
8A
331
8C
  5
8F
331
8D
  5
90
331
8E
  5
91
331
8F
  5
92
331
90
  5
93
331
91
  5
94
331
92
  5
95
331
93
  5
96
331
94
  5
97
331
95
  5
98
331
96
  5
99
331
97
  5
9A
331
98
  5
9B
331
99
  5
9C
331
9A
  5
9D
331
9B
  5
9E
331
9C
  5
9F
331
9D
  5
A0
331
9E
  5
A1
331
9F
  5
A2
331
A0
  5
A3
331
A1
  5
A4
331
A2
  5
A5
331
A3
  5
A6
331
A4
  5
A7
331
A5
  5
A8
331
A6
  5
A9
331
A7
  5
AA
331
A8
  5
AB
331
A9
  5
AC
331
AA
  5
AD
331
AB
  5
AE
331
AC
  5
AF
331
AD
  5
B0
331
AE
  5
B1
331
AF
  5
B2
331
B0
  5
B3
331
B1
  5
B4
331
B2
  5
B5
331
B3
  5
B6
331
B4
  5
B7
331
B5
  5
B8
331
B6
  5
B9
331
B7
  5
BA
331
B8
  5
BB
331
B9
  5
BC
331
BA
  5
BD
331
BB
  5
BE
331
BC
  5
BF
331
BD
  5
C0
331
BE
  5
C1
331
BF
  5
C2
331
C0
  5
C3
331
C1
  5
C4
331
C2
  5
C5
331
C3
  5
C6
331
C4
  5
C7
331
C5
  5
C8
331
C6
  5
C9
331
C7
  5
CA
331
C8
  5
CB
331
C9
  5
CC
331
CA
  5
CD
331
CB
  5
CE
331
CC
  5
CF
331
CD
  5
D0
331
CE
  5
D1
331
CF
  5
D2
331
D0
  5
D3
331
D1
  5
D4
331
D2
  5
D5
331
D3
  5
D6
331
D4
  5
D7
331
D5
  5
D8
331
D6
  5
D9
331
D7
  5
DA
331
D8
  5
DB
331
D9
  5
DC
331
DA
  5
DD
331
DB
  5
DE
331
DC
  5
DF
331
DD
  5
E0
331
DE
  5
E1
331
DF
  5
E2
331
E0
  5
E3
331
E1
  5
E4
331
E2
  5
E5
331
E3
  5
E6
331
E4
  5
E7
331
E5
  5
E8
331
E6
  5
E9
331
E7
  5
EA
331
E8
  5
EB
331
E9
  5
EC
331
EA
  5
ED
331
EB
  5
EE
331
EC
  5
EF
331
ED
  5
F0
331
EE
  5
F1
331
EF
  5
F2
331
F0
  5
F3
331
F1
  5
F4
331
F2
  5
F5
331
F3
  5
F6
331
F4
  5
F7
331
F5
  5
F8
331
F6
  5
F9
331
F7
  5
FA
331
F8
  5
FB
331
F9
  5
FC
331
FA
  5
FD
331
FB
  5
FE
331
FC
  5
FF
331
FD
  5
100
331
FE
  5
101
331
FF
  5
102
331
100
  5
103
331
101
  5
104
331
102
  5
105
331
103
  5
106
331
104
  5
107
331
105
  5
108
331
106
  5
109
331
107
  5
10A
331
108
  5
10B
331
109
  5
10C
331
10A
  5
10D
331
10B
  5
10E
331
10C
  5
10F
331
10D
  5
110
331
10E
  5
111
331
10F
  5
112
331
110
  5
113
331
111
  5
114
331
112
  5
115
331
113
  5
116
331
114
  5
117
331
115
  5
118
331
116
  5
119
331
117
  5
11A
331
118
  5
11B
331
119
  5
11C
331
11A
  5
11D
331
11B
  5
11E
331
11C
  5
11F
331
11D
  5
120
331
11E
  5
121
331
11F
  5
122
331
120
  5
123
331
121
  5
124
331
122
  5
125
331
123
  5
126
331
124
  5
127
331
125
  5
128
331
126
  5
129
331
127
  5
12A
331
128
  5
12B
331
129
  5
12C
331
12A
  5
12D
331
12B
  5
12E
331
12C
  5
12F
331
12D
  5
130
331
12E
  5
131
331
12F
  5
132
331
130
  5
133
331
131
  5
134
331
132
  5
135
331
133
  5
136
331
134
  5
137
331
135
  5
138
331
136
  5
139
331
137
  5
13A
331
138
  5
13B
331
139
  5
13C
331
13A
  5
13D
331
13B
  5
13E
331
13C
  5
13F
331
13D
  5
140
331
13E
  5
141
331
13F
  5
142
331
140
  5
143
331
141
  5
144
331
142
  5
145
331
143
  5
146
331
144
  5
147
331
145
  5
148
331
146
  5
149
331
147
  5
14A
331
148
  5
14B
331
149
  5
14C
331
14A
  5
14D
331
14B
  5
14E
331
14C
  5
14F
331
14D
  5
150
331
14E
  5
151
331
14F
  5
152
331
150
  5
153
331
151
  5
154
331
152
  5
155
331
153
  5
156
331
154
  5
157
331
155
  5
158
331
156
  5
159
331
157
  5
15A
331
158
  5
15B
331
159
  5
15C
331
15A
  5
15D
331
15B
  5
15E
331
15C
  5
15F
331
15D
  5
160
331
15E
  5
161
331
15F
  5
162
331
160
  5
163
331
161
  5
164
331
162
  5
165
331
163
  5
166
331
164
  5
167
331
165
  5
168
331
166
  5
169
331
167
  5
16A
331
168
  5
16B
331
169
  5
16C
331
16A
  5
16D
331
16B
  5
16E
331
16C
  5
16F
331
16D
  5
170
331
16E
  5
171
331
16F
  5
172
331
170
  5
173
331
171
  5
174
331
172
  5
175
331
173
  5
176
331
174
  5
177
331
175
  5
178
331
176
  5
179
331
177
  5
17A
331
178
  5
17B
331
179
  5
17C
331
17A
  5
17D
331
17B
  5
17E
331
17C
  5
17F
331
17D
  5
180
331
17E
  5
181
331
17F
  5
182
331
180
  5
183
331
181
  5
184
331
182
  5
185
331
183
  5
186
331
184
  5
187
331
185
  5
188
331
186
  5
189
331
187
  5
18A
331
188
  5
18B
331
189
  5
18C
331
18A
  5
18D
331
18B
  5
18E
331
18C
  5
18F
331
18D
  5
190
331
18E
  5
191
331
18F
  5
192
331
190
  5
193
331
191
  5
194
331
192
  5
195
331
193
  5
196
331
194
  5
197
331
195
  5
198
331
196
  5
199
331
197
  5
19A
331
198
  5
19B
331
199
  5
19C
331
19A
  5
19D
331
19B
  5
19E
331
19C
  5
19F
331
19D
  5
1A0
331
19E
  5
1A1
331
19F
  5
1A2
331
1A0
  5
1A3
331
1A1
  5
1A4
331
1A2
  5
1A5
331
1A3
  5
1A6
331
1A4
  5
1A7
331
1A5
  5
1A8
331
1A6
  5
1A9
331
1A7
  5
1AA
331
1A8
  5
1AB
331
1A9
  5
1AC
331
1AA
  5
1AD
331
1AB
  5
1AE
331
1AC
  5
1AF
331
1AD
  5
1B0
331
1AE
  5
1B1
331
1AF
  5
1B2
331
1B0
  5
1B3
331
1B1
  5
1B4
331
1B2
  5
1B5
331
1B3
  5
1B6
331
1B4
  5
1B7
331
1B5
  5
1B8
331
1B6
  5
1B9
331
1B7
  5
1BA
331
1B8
  5
1BB
331
1B9
  5
1BC
331
1BA
  5
1BD
331
1BB
  5
1BE
331
1BC
  5
1BF
331
1BD
  5
1C0
331
1BE
  5
1C1
331
1BF
  5
1C2
331
1C0
  5
1C3
331
1C1
  5
1C4
331
1C2
  5
1C5
331
1C3
  5
1C6
331
1C4
  5
1C7
331
1C5
  5
1C8
331
1C6
  5
1C9
331
1C7
  5
1CA
331
1C8
  5
1CB
331
1C9
  5
1CC
331
1CA
  5
1CD
331
1CB
  5
1CE
331
1CC
  5
1CF
331
1CD
  5
1D0
331
1CE
  5
1D1
331
1CF
  5
1D2
331
1D0
  5
1D3
331
1D1
  5
1D4
331
1D2
  5
1D5
331
1D3
  5
1D6
331
1D4
  5
1D7
331
1D5
  5
1D8
331
1D6
  5
1D9
331
1D7
  5
1DA
331
1D8
  5
1DB
331
1D9
  5
1DC
331
1DA
  5
1DD
331
1DB
  5
1DE
331
1DC
  5
1DF
331
1DD
  5
1E0
331
1DE
  5
1E1
331
1DF
  5
1E2
331
1E0
  5
1E3
331
1E1
  5
1E4
331
1E2
  5
1E5
331
1E3
  5
1E6
331
1E4
  5
1E7
331
1E5
  5
1E8
331
1E6
  5
1E9
331
1E7
  5
1EA
331
1E8
  5
1EB
331
1E9
  5
1EC
331
1EA
  5
1ED
331
1EB
  5
1EE
331
1EC
  5
1EF
331
1ED
  5
1F0
331
1EE
  5
1F1
331
1EF
  5
1F2
331
1F0
  5
1F3
331
1F1
  5
1F4
331
1F2
  5
1F5
331
1F3
  5
1F6
331
1F4
  5
1F7
331
1F5
  5
1F8
331
1F6
  5
1F9
331
1F7
  5
1FA
331
1F8
  5
1FB
331
1F9
  5
1FC
331
1FA
  5
1FD
331
1FB
  5
1FE
331
1FC
  5
1FF
331
1FD
  5
200
331
1FE
  5
201
331
1FF
  5
202
331
200
  5
203
331
201
  5
204
331
202
  5
205
331
203
  5
206
331
204
  5
207
331
205
  5
208
331
206
  5
209
331
207
  5
20A
331
208
  5
20B
331
209
  5
20C
331
20A
  5
20D
331
20B
  5
20E
331
20C
  5
20F
331
20D
  5
210
331
20E
  5
211
331
20F
  5
212
331
210
  5
213
331
211
  5
214
331
212
  5
215
331
213
  5
216
331
214
  5
217
331
215
  5
218
331
216
  5
219
331
217
  5
21A
331
218
  5
21B
331
219
  5
21C
331
21A
  5
21D
331
21B
  5
21E
331
21C
  5
21F
331
21D
  5
220
331
21E
  5
221
331
21F
  5
222
331
220
  5
223
331
221
  5
224
331
222
  5
225
331
223
  5
226
331
224
  5
227
331
225
  5
228
331
226
  5
229
331
227
  5
22A
331
228
  5
22B
331
229
  5
22C
331
22A
  5
22D
331
22B
  5
22E
331
22C
  5
22F
331
22D
  5
230
331
22E
  5
231
331
22F
  5
232
331
230
  5
233
331
231
  5
234
331
232
  5
235
331
233
  5
236
331
234
  5
237
331
235
  5
238
331
236
  5
239
331
237
  5
23A
331
238
  5
23B
331
239
  5
23C
331
23A
  5
23D
331
23B
  5
23E
331
23C
  5
23F
331
23D
  5
240
331
23E
  5
241
331
23F
  5
242
331
240
  5
243
331
241
  5
244
331
242
  5
245
331
243
  5
246
331
244
  5
247
331
245
  5
248
331
246
  5
249
331
247
  5
24A
331
248
  5
24B
331
249
  5
24C
331
24A
  5
24D
331
24B
  5
24E
331
24C
  5
24F
331
24D
  5
250
331
24E
  5
251
331
24F
  5
252
331
250
  5
253
331
251
  5
254
331
252
  5
255
331
253
  5
256
331
254
  5
257
331
255
  5
258
331
256
  5
259
331
257
  5
25A
331
258
  5
25B
331
259
  5
25C
331
25A
  5
25D
331
25B
  5
25E
331
25C
  5
25F
331
25D
  5
260
331
25E
  5
261
331
25F
  5
262
331
260
  5
263
331
261
  5
264
331
262
  5
265
331
263
  5
266
331
264
  5
267
331
265
  5
268
331
266
  5
26A
331
267
  5
26B
331
268
  5
26C
331
26A
  5
26D
331
26B
  5
26E
331
26C
  5
26F
331
26D
  5
270
331
26E
  5
271
331
26F
  5
272
331
270
  5
273
331
271
  5
274
331
272
  5
8B
331
273
  5
276
331
274
  5
277
331
276
  5
278
331
277
  5
279
331
278
  5
27A
331
279
  5
27B
331
27A
  5
27C
331
27B
  5
27D
331
27C
  5
27E
331
27D
  5
299
331
27E
  5
8C
331
299
  5
29B
331
29B
  5
29C
331
29C
  5
29D
331
29D
  5
29E
331
29E
  5
29F
331
29F
  5
2A0
331
2A0
  5
2A1
331
2A1
  5
2A2
331
2A2
  5
2A3
331
2A3
  5
8D
  0
GROUP
  5
83
102
{ACAD_REACTORS
330
D
102
}
330
D
100
AcDbGroup
300

 70
     0
 71
     1
340
84
340
85
  0
GROUP
  5
88
102
{ACAD_REACTORS
330
D
102
}
330
D
100
AcDbGroup
300

 70
     0
 71
     1
340
89
340
8A
  0
GROUP
  5
269
102
{ACAD_REACTORS
330
D
102
}
330
D
100
AcDbGroup
300

 70
     0
 71
     1
340
26A
340
26B
340
26C
340
26D
340
26E
340
26F
340
270
340
271
340
272
  0
GROUP
  5
275
102
{ACAD_REACTORS
330
D
102
}
330
D
100
AcDbGroup
300

 70
     0
 71
     1
340
276
340
277
340
278
340
279
340
27A
340
27B
340
27C
340
27D
340
27E
  0
GROUP
  5
29A
102
{ACAD_REACTORS
330
D
102
}
330
D
100
AcDbGroup
300

 70
     0
 71
     1
340
29B
340
29C
340
29D
340
29E
340
29F
340
2A0
340
2A1
340
2A2
340
2A3
  0
LAYOUT
  5
6F
102
{ACAD_REACTORS
330
1A
102
}
330
1A
100
AcDbPlotSettings
  1

  2
none_device
  4
none_user_media
  6

 40
0.0
 41
0.0
 42
0.0
 43
0.0
 44
297.0
 45
209.9
 46
0.0
 47
0.0
 48
0.0
 49
0.0
140
0.0
141
0.0
142
1000.0
143
1.0
 70
   688
 72
     1
 73
     1
 74
     5
  7

 75
    33
 76
     0
 77
     2
 78
   300
147
1000.0
148
0.0
149
0.0
100
AcDbLayout
  1
K20 vertikales Systemprofil 12
 70
     0
 71
     1
 10
-0.0001
 20
-0.0001
 11
0.210117
 21
0.297097
 12
0.0
 22
0.0
 32
0.0
 14
-0.0001
 24
-0.0001
 34
0.0
 15
0.210117
 25
0.297097
 35
0.0
146
0.0
 13
0.0
 23
0.0
 33
0.0
 16
1.0
 26
0.0
 36
0.0
 17
0.0
 27
1.0
 37
0.0
 76
     0
330
6E
331
72
  0
LAYOUT
  5
22
102
{ACAD_REACTORS
330
1A
102
}
330
1A
100
AcDbPlotSettings
  1

  2
none_device
  4
Letter_(8.50_x_11.00_Inches)
  6

 40
6.35
 41
6.35
 42
6.350005
 43
6.350005
 44
215.9
 45
279.4
 46
0.0
 47
0.0
 48
0.0
 49
0.0
140
0.0
141
0.0
142
1.0
143
1.0
 70
  1712
 72
     0
 73
     0
 74
     0
  7

 75
     0
 76
     0
 77
     2
 78
   300
147
1.0
148
0.0
149
0.0
100
AcDbLayout
  1
Model
 70
     1
 71
     0
 10
11.880127
 20
-2.954021
 11
12.930211
 21
-1.469036
 12
0.0
 22
0.0
 32
0.0
 14
11.880127
 24
-2.954021
 34
11.880127
 15
12.930211
 25
-1.469036
 35
12.930211
146
0.0
 13
0.0
 23
0.0
 33
0.0
 16
1.0
 26
0.0
 36
0.0
 17
0.0
 27
1.0
 37
0.0
 76
     0
330
1F
331
29
  0
MATERIAL
  5
45
102
{ACAD_REACTORS
330
43
102
}
330
43
100
AcDbMaterial
  1
ByBlock
 72
     1
 94
      127
  0
MATERIAL
  5
44
102
{ACAD_REACTORS
330
43
102
}
330
43
100
AcDbMaterial
  1
ByLayer
 72
     1
 94
      127
  0
MATERIAL
  5
46
102
{ACAD_REACTORS
330
43
102
}
330
43
100
AcDbMaterial
  1
Global
 72
     1
 94
      127
  0
MLEADERSTYLE
  5
6C
102
{ACAD_REACTORS
330
6B
102
}
330
6B
100
AcDbMLeaderStyle
179
     2
170
     2
171
     1
172
     0
 90
        2
 40
0.0
 41
0.0
173
     1
 91
-1056964608
340
14
 92
       -2
290
     1
 42
0.09
291
     1
 43
0.36
  3
Standard
341
0
 44
0.18
300

342
11
174
     1
178
     6
175
     1
176
     0
 93
-1056964608
 45
0.18
292
     0
297
     0
 46
0.18
343
0
 94
-1056964608
 47
1.0
 49
1.0
140
1.0
293
     1
141
0.0
294
     1
177
     0
142
1.0
295
     0
296
     0
143
0.125
271
     0
272
     9
273
     9
  0
MLINESTYLE
  5
18
102
{ACAD_REACTORS
330
17
102
}
330
17
100
AcDbMlineStyle
  2
Standard
 70
     0
  3

 62
   256
 51
90.0
 52
90.0
 71
     2
 49
0.5
 62
   256
  6
BYLAYER
 49
-0.5
 62
   256
  6
BYLAYER
  0
ACDBPLACEHOLDER
  5
F
102
{ACAD_REACTORS
330
E
102
}
330
E
  0
SCALE
  5
48
102
{ACAD_REACTORS
330
47
102
}
330
47
100
AcDbScale
 70
     0
300
1:1
140
1.0
141
1.0
290
     1
  0
SCALE
  5
49
102
{ACAD_REACTORS
330
47
102
}
330
47
100
AcDbScale
 70
     0
300
1:2
140
1.0
141
2.0
290
     0
  0
SCALE
  5
4A
102
{ACAD_REACTORS
330
47
102
}
330
47
100
AcDbScale
 70
     0
300
1:4
140
1.0
141
4.0
290
     0
  0
SCALE
  5
4B
102
{ACAD_REACTORS
330
47
102
}
330
47
100
AcDbScale
 70
     0
300
1:5
140
1.0
141
5.0
290
     0
  0
SCALE
  5
4C
102
{ACAD_REACTORS
330
47
102
}
330
47
100
AcDbScale
 70
     0
300
1:8
140
1.0
141
8.0
290
     0
  0
SCALE
  5
4D
102
{ACAD_REACTORS
330
47
102
}
330
47
100
AcDbScale
 70
     0
300
1:10
140
1.0
141
10.0
290
     0
  0
SCALE
  5
4E
102
{ACAD_REACTORS
330
47
102
}
330
47
100
AcDbScale
 70
     0
300
1:16
140
1.0
141
16.0
290
     0
  0
SCALE
  5
4F
102
{ACAD_REACTORS
330
47
102
}
330
47
100
AcDbScale
 70
     0
300
1:20
140
1.0
141
20.0
290
     0
  0
SCALE
  5
50
102
{ACAD_REACTORS
330
47
102
}
330
47
100
AcDbScale
 70
     0
300
1:30
140
1.0
141
30.0
290
     0
  0
SCALE
  5
51
102
{ACAD_REACTORS
330
47
102
}
330
47
100
AcDbScale
 70
     0
300
1:40
140
1.0
141
40.0
290
     0
  0
SCALE
  5
52
102
{ACAD_REACTORS
330
47
102
}
330
47
100
AcDbScale
 70
     0
300
1:50
140
1.0
141
50.0
290
     0
  0
SCALE
  5
53
102
{ACAD_REACTORS
330
47
102
}
330
47
100
AcDbScale
 70
     0
300
1:100
140
1.0
141
100.0
290
     0
  0
SCALE
  5
54
102
{ACAD_REACTORS
330
47
102
}
330
47
100
AcDbScale
 70
     0
300
2:1
140
2.0
141
1.0
290
     0
  0
SCALE
  5
55
102
{ACAD_REACTORS
330
47
102
}
330
47
100
AcDbScale
 70
     0
300
4:1
140
4.0
141
1.0
290
     0
  0
SCALE
  5
56
102
{ACAD_REACTORS
330
47
102
}
330
47
100
AcDbScale
 70
     0
300
8:1
140
8.0
141
1.0
290
     0
  0
SCALE
  5
57
102
{ACAD_REACTORS
330
47
102
}
330
47
100
AcDbScale
 70
     0
300
10:1
140
10.0
141
1.0
290
     0
  0
SCALE
  5
58
102
{ACAD_REACTORS
330
47
102
}
330
47
100
AcDbScale
 70
     0
300
100:1
140
100.0
141
1.0
290
     0
  0
SCALE
  5
59
102
{ACAD_REACTORS
330
47
102
}
330
47
100
AcDbScale
 70
     0
300
1/128" = 1'-0"
140
0.007812
141
12.0
290
     0
  0
SCALE
  5
5A
102
{ACAD_REACTORS
330
47
102
}
330
47
100
AcDbScale
 70
     0
300
1/64" = 1'-0"
140
0.015625
141
12.0
290
     0
  0
SCALE
  5
5B
102
{ACAD_REACTORS
330
47
102
}
330
47
100
AcDbScale
 70
     0
300
1/32" = 1'-0"
140
0.03125
141
12.0
290
     0
  0
SCALE
  5
5C
102
{ACAD_REACTORS
330
47
102
}
330
47
100
AcDbScale
 70
     0
300
1/16" = 1'-0"
140
0.0625
141
12.0
290
     0
  0
SCALE
  5
5D
102
{ACAD_REACTORS
330
47
102
}
330
47
100
AcDbScale
 70
     0
300
3/32" = 1'-0"
140
0.09375
141
12.0
290
     0
  0
SCALE
  5
5E
102
{ACAD_REACTORS
330
47
102
}
330
47
100
AcDbScale
 70
     0
300
1/8" = 1'-0"
140
0.125
141
12.0
290
     0
  0
SCALE
  5
5F
102
{ACAD_REACTORS
330
47
102
}
330
47
100
AcDbScale
 70
     0
300
3/16" = 1'-0"
140
0.1875
141
12.0
290
     0
  0
SCALE
  5
60
102
{ACAD_REACTORS
330
47
102
}
330
47
100
AcDbScale
 70
     0
300
1/4" = 1'-0"
140
0.25
141
12.0
290
     0
  0
SCALE
  5
61
102
{ACAD_REACTORS
330
47
102
}
330
47
100
AcDbScale
 70
     0
300
3/8" = 1'-0"
140
0.375
141
12.0
290
     0
  0
SCALE
  5
62
102
{ACAD_REACTORS
330
47
102
}
330
47
100
AcDbScale
 70
     0
300
1/2" = 1'-0"
140
0.5
141
12.0
290
     0
  0
SCALE
  5
63
102
{ACAD_REACTORS
330
47
102
}
330
47
100
AcDbScale
 70
     0
300
3/4" = 1'-0"
140
0.75
141
12.0
290
     0
  0
SCALE
  5
64
102
{ACAD_REACTORS
330
47
102
}
330
47
100
AcDbScale
 70
     0
300
1" = 1'-0"
140
1.0
141
12.0
290
     0
  0
SCALE
  5
65
102
{ACAD_REACTORS
330
47
102
}
330
47
100
AcDbScale
 70
     0
300
1-1/2" = 1'-0"
140
1.5
141
12.0
290
     0
  0
SCALE
  5
66
102
{ACAD_REACTORS
330
47
102
}
330
47
100
AcDbScale
 70
     0
300
3" = 1'-0"
140
3.0
141
12.0
290
     0
  0
SCALE
  5
67
102
{ACAD_REACTORS
330
47
102
}
330
47
100
AcDbScale
 70
     0
300
6" = 1'-0"
140
6.0
141
12.0
290
     0
  0
SCALE
  5
68
102
{ACAD_REACTORS
330
47
102
}
330
47
100
AcDbScale
 70
     0
300
1'-0" = 1'-0"
140
12.0
141
12.0
290
     0
  0
TABLESTYLE
  5
6A
102
{ACAD_REACTORS
330
69
102
}
102
{ACAD_XDICTIONARY
360
2DB
102
}
330
69
100
AcDbTableStyle
  3
Standard
 70
     0
 71
     0
 40
0.06
 41
0.06
280
     0
281
     0
  7
Standard
140
0.18
170
     2
 62
     0
 63
   257
283
     0
 90
        4
 91
        0
  1

274
    -2
284
     1
 64
     0
275
    -2
285
     1
 65
     0
276
    -2
286
     1
 66
     0
277
    -2
287
     1
 67
     0
278
    -2
288
     1
 68
     0
279
    -2
289
     1
 69
     0
  7
Standard
140
0.25
170
     5
 62
     0
 63
   257
283
     0
 90
        4
 91
        0
  1

274
    -2
284
     1
 64
     0
275
    -2
285
     1
 65
     0
276
    -2
286
     1
 66
     0
277
    -2
287
     1
 67
     0
278
    -2
288
     1
 68
     0
279
    -2
289
     1
 69
     0
  7
Standard
140
0.18
170
     5
 62
     0
 63
   257
283
     0
 90
        4
 91
        0
  1

274
    -2
284
     1
 64
     0
275
    -2
285
     1
 65
     0
276
    -2
286
     1
 66
     0
277
    -2
287
     1
 67
     0
278
    -2
288
     1
 68
     0
279
    -2
289
     1
 69
     0
  0
VISUALSTYLE
  5
2F
102
{ACAD_REACTORS
330
2A
102
}
102
{ACAD_XDICTIONARY
360
2B3
102
}
330
2A
100
AcDbVisualStyle
  2
2dWireframe
 70
     4
177
     2
291
     0
 71
     0
176
     1
 72
     2
176
     1
 73
     0
176
     1
 90
        0
176
     1
 40
0.6
176
     1
 41
30.0
176
     1
 62
     5
 63
     7
421
 16777215
176
     1
 74
     1
176
     1
 91
        4
176
     1
 64
     7
176
     1
 65
   257
176
     1
 75
     1
176
     1
175
     1
176
     1
 42
1.0
176
     1
 92
        0
176
     1
 66
   257
176
     1
 43
1.0
176
     1
 76
     1
176
     1
 77
     6
176
     1
 78
     2
176
     1
 67
     7
176
     1
 79
     5
176
     1
170
     0
176
     1
171
     0
176
     1
290
     0
176
     1
 93
        1
176
     1
 44
0.0
176
     1
173
     0
176
     1
  0
VISUALSTYLE
  5
32
102
{ACAD_REACTORS
330
2A
102
}
102
{ACAD_XDICTIONARY
360
2B9
102
}
330
2A
100
AcDbVisualStyle
  2
Basic
 70
     7
177
     2
291
     1
 71
     1
176
     1
 72
     0
176
     1
 73
     1
176
     1
 90
        0
176
     1
 40
0.6
176
     1
 41
30.0
176
     1
 62
     5
 63
     7
421
 16777215
176
     1
 74
     0
176
     1
 91
        4
176
     1
 64
     7
176
     1
 65
   257
176
     1
 75
     1
176
     1
175
     1
176
     1
 42
1.0
176
     1
 92
        8
176
     1
 66
     7
176
     1
 43
1.0
176
     1
 76
     1
176
     1
 77
     6
176
     1
 78
     2
176
     1
 67
     7
176
     1
 79
     5
176
     1
170
     0
176
     1
171
     0
176
     1
290
     0
176
     1
 93
        1
176
     1
 44
0.0
176
     1
173
     0
176
     1
  0
VISUALSTYLE
  5
36
102
{ACAD_REACTORS
330
2A
102
}
102
{ACAD_XDICTIONARY
360
2C1
102
}
330
2A
100
AcDbVisualStyle
  2
Brighten
 70
    12
177
     2
291
     1
 71
     2
176
     1
 72
     2
176
     1
 73
     0
176
     1
 90
        0
176
     1
 40
0.6
176
     1
 41
30.0
176
     1
 62
     5
 63
     7
421
 16777215
176
     1
 74
     1
176
     1
 91
        4
176
     1
 64
     7
176
     1
 65
   257
176
     1
 75
     1
176
     1
175
     1
176
     1
 42
1.0
176
     1
 92
        8
176
     1
 66
     7
176
     1
 43
1.0
176
     1
 76
     1
176
     1
 77
     6
176
     1
 78
     2
176
     1
 67
     7
176
     1
 79
     5
176
     1
170
     0
176
     1
171
     0
176
     1
290
     0
176
     1
 93
        1
176
     1
 44
50.0
176
     1
173
     0
176
     1
  0
VISUALSTYLE
  5
3A
102
{ACAD_REACTORS
330
2A
102
}
102
{ACAD_XDICTIONARY
360
2C9
102
}
330
2A
100
AcDbVisualStyle
  2
ColorChange
 70
    16
177
     2
291
     1
 71
     2
176
     1
 72
     2
176
     1
 73
     3
176
     1
 90
        0
176
     1
 40
0.6
176
     1
 41
30.0
176
     1
 62
     5
 63
     8
421
  8421504
176
     1
 74
     1
176
     1
 91
        4
176
     1
 64
     7
176
     1
 65
   257
176
     1
 75
     1
176
     1
175
     1
176
     1
 42
1.0
176
     1
 92
        8
176
     1
 66
     8
424
  8421504
176
     1
 43
1.0
176
     1
 76
     1
176
     1
 77
     6
176
     1
 78
     2
176
     1
 67
     7
176
     1
 79
     5
176
     1
170
     0
176
     1
171
     0
176
     1
290
     0
176
     1
 93
        1
176
     1
 44
0.0
176
     1
173
     0
176
     1
  0
VISUALSTYLE
  5
34
102
{ACAD_REACTORS
330
2A
102
}
102
{ACAD_XDICTIONARY
360
2BD
102
}
330
2A
100
AcDbVisualStyle
  2
Conceptual
 70
     9
177
     2
291
     0
 71
     3
176
     1
 72
     2
176
     1
 73
     0
176
     1
 90
        0
176
     1
 40
0.6
176
     1
 41
30.0
176
     1
 62
     5
 63
     7
421
 16777215
176
     1
 74
     2
176
     1
 91
        2
176
     1
 64
     7
176
     1
 65
   257
176
     1
 75
     1
176
     1
175
     1
176
     1
 42
179.0
176
     1
 92
        8
176
     1
 66
     7
176
     1
 43
1.0
176
     1
 76
     1
176
     1
 77
     6
176
     1
 78
     2
176
     1
 67
     7
176
     1
 79
     3
176
     1
170
     0
176
     1
171
     0
176
     1
290
     0
176
     1
 93
        1
176
     1
 44
0.0
176
     1
173
     0
176
     1
  0
VISUALSTYLE
  5
35
102
{ACAD_REACTORS
330
2A
102
}
102
{ACAD_XDICTIONARY
360
2BF
102
}
330
2A
100
AcDbVisualStyle
  2
Dim
 70
    11
177
     2
291
     1
 71
     2
176
     1
 72
     2
176
     1
 73
     0
176
     1
 90
        0
176
     1
 40
0.6
176
     1
 41
30.0
176
     1
 62
     5
 63
     7
421
 16777215
176
     1
 74
     1
176
     1
 91
        4
176
     1
 64
     7
176
     1
 65
   257
176
     1
 75
     1
176
     1
175
     1
176
     1
 42
1.0
176
     1
 92
        8
176
     1
 66
     7
176
     1
 43
1.0
176
     1
 76
     1
176
     1
 77
     6
176
     1
 78
     2
176
     1
 67
     7
176
     1
 79
     5
176
     1
170
     0
176
     1
171
     0
176
     1
290
     0
176
     1
 93
        1
176
     1
 44
-50.0
176
     1
173
     0
176
     1
  0
VISUALSTYLE
  5
3D
102
{ACAD_REACTORS
330
2A
102
}
102
{ACAD_XDICTIONARY
360
2CF
102
}
330
2A
100
AcDbVisualStyle
  2
EdgeColorOff
 70
    22
177
     2
291
     1
 71
     2
176
     0
 72
     2
176
     0
 73
     0
176
     0
 90
        0
176
     0
 40
0.6
176
     0
 41
30.0
176
     0
 62
     5
 63
     7
421
 16777215
176
     0
 74
     1
176
     0
 91
        4
176
     0
 64
     7
176
     0
 65
   257
176
     0
 75
     1
176
     0
175
     1
176
     0
 42
1.0
176
     0
 92
        8
176
     2
 66
     7
176
     0
 43
1.0
176
     0
 76
     1
176
     0
 77
     6
176
     0
 78
     2
176
     0
 67
     7
176
     0
 79
     5
176
     0
170
     0
176
     0
171
     0
176
     0
290
     0
176
     0
 93
        1
176
     0
 44
0.0
176
     0
173
     0
176
     0
  0
VISUALSTYLE
  5
39
102
{ACAD_REACTORS
330
2A
102
}
102
{ACAD_XDICTIONARY
360
2C7
102
}
330
2A
100
AcDbVisualStyle
  2
Facepattern
 70
    15
177
     2
291
     1
 71
     2
176
     1
 72
     2
176
     1
 73
     0
176
     1
 90
        0
176
     1
 40
0.6
176
     1
 41
30.0
176
     1
 62
     5
 63
     7
421
 16777215
176
     1
 74
     1
176
     1
 91
        4
176
     1
 64
     7
176
     1
 65
   257
176
     1
 75
     1
176
     1
175
     1
176
     1
 42
1.0
176
     1
 92
        8
176
     1
 66
     7
176
     1
 43
1.0
176
     1
 76
     1
176
     1
 77
     6
176
     1
 78
     2
176
     1
 67
     7
176
     1
 79
     5
176
     1
170
     0
176
     1
171
     0
176
     1
290
     0
176
     1
 93
        1
176
     1
 44
0.0
176
     1
173
     0
176
     1
  0
VISUALSTYLE
  5
2B
102
{ACAD_REACTORS
330
2A
102
}
102
{ACAD_XDICTIONARY
360
2AB
102
}
330
2A
100
AcDbVisualStyle
  2
Flat
 70
     0
177
     2
291
     1
 71
     2
176
     1
 72
     1
176
     1
 73
     1
176
     1
 90
        2
176
     1
 40
0.6
176
     1
 41
30.0
176
     1
 62
     5
 63
     7
421
 16777215
176
     1
 74
     0
176
     1
 91
        0
176
     1
 64
     7
176
     1
 65
   257
176
     1
 75
     1
176
     1
175
     1
176
     1
 42
1.0
176
     1
 92
        8
176
     1
 66
     7
176
     1
 43
1.0
176
     1
 76
     1
176
     1
 77
     6
176
     1
 78
     2
176
     1
 67
     7
176
     1
 79
     5
176
     1
170
     0
176
     1
171
     0
176
     1
290
     0
176
     1
 93
       13
176
     1
 44
0.0
176
     1
173
     0
176
     1
  0
VISUALSTYLE
  5
2C
102
{ACAD_REACTORS
330
2A
102
}
102
{ACAD_XDICTIONARY
360
2AD
102
}
330
2A
100
AcDbVisualStyle
  2
FlatWithEdges
 70
     1
177
     2
291
     1
 71
     2
176
     1
 72
     1
176
     1
 73
     1
176
     1
 90
        2
176
     1
 40
0.6
176
     1
 41
30.0
176
     1
 62
     5
 63
     7
421
 16777215
176
     1
 74
     1
176
     1
 91
        0
176
     1
 64
     7
176
     1
 65
   257
176
     1
 75
     1
176
     1
175
     1
176
     1
 42
1.0
176
     1
 92
        0
176
     1
 66
   257
176
     1
 43
1.0
176
     1
 76
     1
176
     1
 77
     6
176
     1
 78
     2
176
     1
 67
     7
176
     1
 79
     5
176
     1
170
     0
176
     1
171
     0
176
     1
290
     0
176
     1
 93
       13
176
     1
 44
0.0
176
     1
173
     0
176
     1
  0
VISUALSTYLE
  5
2D
102
{ACAD_REACTORS
330
2A
102
}
102
{ACAD_XDICTIONARY
360
2AF
102
}
330
2A
100
AcDbVisualStyle
  2
Gouraud
 70
     2
177
     2
291
     1
 71
     2
176
     1
 72
     2
176
     1
 73
     1
176
     1
 90
        2
176
     1
 40
0.6
176
     1
 41
30.0
176
     1
 62
     5
 63
     7
421
 16777215
176
     1
 74
     0
176
     1
 91
        0
176
     1
 64
     7
176
     1
 65
   257
176
     1
 75
     1
176
     1
175
     1
176
     1
 42
1.0
176
     1
 92
        0
176
     1
 66
     7
176
     1
 43
1.0
176
     1
 76
     1
176
     1
 77
     6
176
     1
 78
     2
176
     1
 67
     7
176
     1
 79
     5
176
     1
170
     0
176
     1
171
     0
176
     1
290
     0
176
     1
 93
       13
176
     1
 44
0.0
176
     1
173
     0
176
     1
  0
VISUALSTYLE
  5
2E
102
{ACAD_REACTORS
330
2A
102
}
102
{ACAD_XDICTIONARY
360
2B1
102
}
330
2A
100
AcDbVisualStyle
  2
GouraudWithEdges
 70
     3
177
     2
291
     1
 71
     2
176
     1
 72
     2
176
     1
 73
     1
176
     1
 90
        2
176
     1
 40
0.6
176
     1
 41
30.0
176
     1
 62
     5
 63
     7
421
 16777215
176
     1
 74
     1
176
     1
 91
        0
176
     1
 64
     7
176
     1
 65
   257
176
     1
 75
     1
176
     1
175
     1
176
     1
 42
1.0
176
     1
 92
        0
176
     1
 66
   257
176
     1
 43
1.0
176
     1
 76
     1
176
     1
 77
     6
176
     1
 78
     2
176
     1
 67
     7
176
     1
 79
     5
176
     1
170
     0
176
     1
171
     0
176
     1
290
     0
176
     1
 93
       13
176
     1
 44
0.0
176
     1
173
     0
176
     1
  0
VISUALSTYLE
  5
31
102
{ACAD_REACTORS
330
2A
102
}
102
{ACAD_XDICTIONARY
360
2B7
102
}
330
2A
100
AcDbVisualStyle
  2
Hidden
 70
     6
177
     2
291
     0
 71
     1
176
     1
 72
     2
176
     1
 73
     2
176
     1
 90
        0
176
     1
 40
0.6
176
     1
 41
30.0
176
     1
 62
     5
 63
     7
421
 16777215
176
     1
 74
     2
176
     1
 91
        2
176
     1
 64
     7
176
     1
 65
   257
176
     1
 75
     2
176
     1
175
     1
176
     1
 42
40.0
176
     1
 92
        0
176
     1
 66
   257
176
     1
 43
1.0
176
     1
 76
     1
176
     1
 77
     6
176
     1
 78
     2
176
     1
 67
     7
176
     1
 79
     3
176
     1
170
     0
176
     1
171
     0
176
     1
290
     0
176
     1
 93
        1
176
     1
 44
0.0
176
     1
173
     0
176
     1
  0
VISUALSTYLE
  5
3B
102
{ACAD_REACTORS
330
2A
102
}
102
{ACAD_XDICTIONARY
360
2CB
102
}
330
2A
100
AcDbVisualStyle
  2
JitterOff
 70
    20
177
     2
291
     1
 71
     2
176
     0
 72
     2
176
     0
 73
     0
176
     0
 90
        0
176
     0
 40
0.6
176
     0
 41
30.0
176
     0
 62
     5
 63
     7
421
 16777215
176
     0
 74
     1
176
     0
 91
        4
176
     0
 64
     7
176
     0
 65
   257
176
     0
 75
     1
176
     0
175
     1
176
     0
 42
1.0
176
     0
 92
       10
176
     2
 66
     7
176
     0
 43
1.0
176
     0
 76
     1
176
     0
 77
     6
176
     0
 78
     2
176
     0
 67
     7
176
     0
 79
     5
176
     0
170
     0
176
     0
171
     0
176
     0
290
     0
176
     0
 93
        1
176
     0
 44
0.0
176
     0
173
     0
176
     0
  0
VISUALSTYLE
  5
38
102
{ACAD_REACTORS
330
2A
102
}
102
{ACAD_XDICTIONARY
360
2C5
102
}
330
2A
100
AcDbVisualStyle
  2
Linepattern
 70
    14
177
     2
291
     1
 71
     2
176
     1
 72
     2
176
     1
 73
     0
176
     1
 90
        0
176
     1
 40
0.6
176
     1
 41
30.0
176
     1
 62
     5
 63
     7
421
 16777215
176
     1
 74
     1
176
     1
 91
        4
176
     1
 64
     7
176
     1
 65
   257
176
     1
 75
     7
176
     1
175
     7
176
     1
 42
1.0
176
     1
 92
        8
176
     1
 66
     7
176
     1
 43
1.0
176
     1
 76
     1
176
     1
 77
     6
176
     1
 78
     2
176
     1
 67
     7
176
     1
 79
     5
176
     1
170
     0
176
     1
171
     0
176
     1
290
     0
176
     1
 93
        1
176
     1
 44
0.0
176
     1
173
     0
176
     1
  0
VISUALSTYLE
  5
3C
102
{ACAD_REACTORS
330
2A
102
}
102
{ACAD_XDICTIONARY
360
2CD
102
}
330
2A
100
AcDbVisualStyle
  2
OverhangOff
 70
    21
177
     2
291
     1
 71
     2
176
     0
 72
     2
176
     0
 73
     0
176
     0
 90
        0
176
     0
 40
0.6
176
     0
 41
30.0
176
     0
 62
     5
 63
     7
421
 16777215
176
     0
 74
     1
176
     0
 91
        4
176
     0
 64
     7
176
     0
 65
   257
176
     0
 75
     1
176
     0
175
     1
176
     0
 42
1.0
176
     0
 92
        9
176
     2
 66
     7
176
     0
 43
1.0
176
     0
 76
     1
176
     0
 77
     6
176
     0
 78
     2
176
     0
 67
     7
176
     0
 79
     5
176
     0
170
     0
176
     0
171
     0
176
     0
290
     0
176
     0
 93
        1
176
     0
 44
0.0
176
     0
173
     0
176
     0
  0
VISUALSTYLE
  5
33
102
{ACAD_REACTORS
330
2A
102
}
102
{ACAD_XDICTIONARY
360
2BB
102
}
330
2A
100
AcDbVisualStyle
  2
Realistic
 70
     8
177
     2
291
     0
 71
     2
176
     1
 72
     3
176
     1
 73
     0
176
     1
 90
        2
176
     1
 40
0.6
176
     1
 41
30.0
176
     1
 62
     5
 63
     7
421
 16777215
176
     1
 74
     0
176
     1
 91
        0
176
     1
 64
     7
176
     1
 65
   257
176
     1
 75
     1
176
     1
175
     1
176
     1
 42
1.0
176
     1
 92
        8
176
     1
 66
   257
176
     1
 43
1.0
176
     1
 76
     1
176
     1
 77
     6
176
     1
 78
     2
176
     1
 67
     7
176
     1
 79
     3
176
     1
170
     0
176
     1
171
     0
176
     1
290
     0
176
     1
 93
       13
176
     1
 44
0.0
176
     1
173
     0
176
     1
  0
VISUALSTYLE
  5
42
102
{ACAD_REACTORS
330
2A
102
}
102
{ACAD_XDICTIONARY
360
2D9
102
}
330
2A
100
AcDbVisualStyle
  2
Shaded
 70
    27
177
     2
291
     0
 71
     2
176
     1
 72
     2
176
     1
 73
     1
176
     1
 90
        2
176
     1
 40
0.6
176
     1
 41
30.0
176
     1
 62
     5
 63
     7
421
 16777215
176
     1
 74
     0
176
     1
 91
        4
176
     1
 64
     7
176
     1
 65
   257
176
     1
 75
     1
176
     1
175
     1
176
     1
 42
1.0
176
     1
 92
        8
176
     1
 66
   257
176
     1
 43
1.0
176
     1
 76
     1
176
     1
 77
     6
176
     1
 78
     2
176
     1
 67
     8
425
  7895160
176
     1
 79
     3
176
     1
170
     0
176
     1
171
     0
176
     1
290
     0
176
     1
 93
        5
176
     1
 44
0.0
176
     1
173
     0
176
     1
  0
VISUALSTYLE
  5
41
102
{ACAD_REACTORS
330
2A
102
}
102
{ACAD_XDICTIONARY
360
2D7
102
}
330
2A
100
AcDbVisualStyle
  2
Shaded with edges
 70
    26
177
     2
291
     0
 71
     2
176
     1
 72
     2
176
     1
 73
     1
176
     1
 90
        2
176
     1
 40
0.6
176
     1
 41
30.0
176
     1
 62
     5
 63
     7
421
 16777215
176
     1
 74
     1
176
     1
 91
       10
176
     1
 64
     7
176
     1
 65
   257
176
     1
 75
     2
176
     1
175
     1
176
     1
 42
1.0
176
     1
 92
        8
176
     1
 66
   257
176
     1
 43
1.0
176
     1
 76
     1
176
     1
 77
     6
176
     1
 78
     2
176
     1
 67
     7
176
     1
 79
     3
176
     1
170
     0
176
     1
171
     0
176
     1
290
     0
176
     1
 93
        5
176
     1
 44
0.0
176
     1
173
     0
176
     1
  0
VISUALSTYLE
  5
3E
102
{ACAD_REACTORS
330
2A
102
}
102
{ACAD_XDICTIONARY
360
2D1
102
}
330
2A
100
AcDbVisualStyle
  2
Shades of Gray
 70
    23
177
     2
291
     0
 71
     2
176
     1
 72
     2
176
     1
 73
     3
176
     1
 90
        0
176
     1
 40
0.6
176
     1
 41
30.0
176
     1
 62
     5
 63
     7
421
 16777215
176
     1
 74
     2
176
     1
 91
        2
176
     1
 64
     7
176
     1
 65
     7
176
     1
 75
     1
176
     1
175
     1
176
     1
 42
40.0
176
     1
 92
        8
176
     1
 66
     7
176
     1
 43
1.0
176
     1
 76
     1
176
     1
 77
     6
176
     1
 78
     2
176
     1
 67
     7
176
     1
 79
     3
176
     1
170
     0
176
     1
171
     0
176
     1
290
     0
176
     1
 93
        1
176
     1
 44
0.0
176
     1
173
     0
176
     1
  0
VISUALSTYLE
  5
3F
102
{ACAD_REACTORS
330
2A
102
}
102
{ACAD_XDICTIONARY
360
2D3
102
}
330
2A
100
AcDbVisualStyle
  2
Sketchy
 70
    24
177
     2
291
     0
 71
     1
176
     1
 72
     2
176
     1
 73
     2
176
     1
 90
        0
176
     1
 40
0.6
176
     1
 41
30.0
176
     1
 62
     5
 63
     7
421
 16777215
176
     1
 74
     2
176
     1
 91
        2
176
     1
 64
     7
176
     1
 65
     7
176
     1
 75
     1
176
     1
175
     1
176
     1
 42
40.0
176
     1
 92
       11
176
     1
 66
     7
176
     1
 43
1.0
176
     1
 76
     1
176
     1
 77
     6
176
     1
 78
     2
176
     1
 67
     7
176
     1
 79
     6
176
     1
170
     0
176
     1
171
     0
176
     1
290
     0
176
     1
 93
        1
176
     1
 44
0.0
176
     1
173
     0
176
     1
  0
VISUALSTYLE
  5
37
102
{ACAD_REACTORS
330
2A
102
}
102
{ACAD_XDICTIONARY
360
2C3
102
}
330
2A
100
AcDbVisualStyle
  2
Thicken
 70
    13
177
     2
291
     1
 71
     2
176
     1
 72
     2
176
     1
 73
     0
176
     1
 90
        0
176
     1
 40
0.6
176
     1
 41
30.0
176
     1
 62
     5
 63
     7
421
 16777215
176
     1
 74
     1
176
     1
 91
        4
176
     1
 64
     7
176
     1
 65
   257
176
     1
 75
     1
176
     1
175
     1
176
     1
 42
1.0
176
     1
 92
       12
176
     1
 66
     7
176
     1
 43
1.0
176
     1
 76
     1
176
     1
 77
     6
176
     1
 78
     2
176
     1
 67
     7
176
     1
 79
     5
176
     1
170
     0
176
     1
171
     0
176
     1
290
     0
176
     1
 93
        1
176
     1
 44
0.0
176
     1
173
     0
176
     1
  0
VISUALSTYLE
  5
30
102
{ACAD_REACTORS
330
2A
102
}
102
{ACAD_XDICTIONARY
360
2B5
102
}
330
2A
100
AcDbVisualStyle
  2
Wireframe
 70
     5
177
     2
291
     0
 71
     0
176
     1
 72
     2
176
     1
 73
     0
176
     1
 90
        0
176
     1
 40
0.6
176
     1
 41
30.0
176
     1
 62
     5
 63
     7
421
 16777215
176
     1
 74
     1
176
     1
 91
        4
176
     1
 64
     7
176
     1
 65
   257
176
     1
 75
     1
176
     1
175
     1
176
     1
 42
1.0
176
     1
 92
        0
176
     1
 66
   257
176
     1
 43
1.0
176
     1
 76
     1
176
     1
 77
     6
176
     1
 78
     2
176
     1
 67
     7
176
     1
 79
     3
176
     1
170
     0
176
     1
171
     0
176
     1
290
     0
176
     1
 93
        1
176
     1
 44
0.0
176
     1
173
     0
176
     1
  0
VISUALSTYLE
  5
40
102
{ACAD_REACTORS
330
2A
102
}
102
{ACAD_XDICTIONARY
360
2D5
102
}
330
2A
100
AcDbVisualStyle
  2
X-Ray
 70
    25
177
     2
291
     0
 71
     2
176
     1
 72
     2
176
     1
 73
     1
176
     1
 90
        1
176
     1
 40
0.5
176
     1
 41
30.0
176
     1
 62
     5
 63
     7
421
 16777215
176
     1
 74
     1
176
     1
 91
        0
176
     1
 64
     7
176
     1
 65
   257
176
     1
 75
     1
176
     1
175
     1
176
     1
 42
1.0
176
     1
 92
        8
176
     1
 66
     7
176
     1
 43
1.0
176
     1
 76
     1
176
     1
 77
     6
176
     1
 78
     2
176
     1
 67
     7
176
     1
 79
     3
176
     1
170
     0
176
     1
171
     0
176
     1
290
     0
176
     1
 93
       13
176
     1
 44
0.0
176
     1
173
     0
176
     1
  0
DICTIONARYVAR
  5
2AA
102
{ACAD_REACTORS
330
2A9
102
}
330
2A9
100
DictionaryVariables
280
     0
  1
1:1
  0
DICTIONARYVAR
  5
2DF
102
{ACAD_REACTORS
330
2A9
102
}
330
2A9
100
DictionaryVariables
280
     0
  1
Standard
  0
DICTIONARYVAR
  5
2DE
102
{ACAD_REACTORS
330
2A9
102
}
330
2A9
100
DictionaryVariables
280
     0
  1
Standard
  0
DICTIONARY
  5
2DB
330
6A
100
AcDbDictionary
280
     1
281
     1
  3
ACAD_ROUNDTRIP_2008_TABLESTYLE_CELLSTYLEMAP
360
2DC
  0
DICTIONARY
  5
2B3
330
2F
100
AcDbDictionary
280
     1
281
     1
  3
ACAD_XREC_ROUNDTRIP
360
2B4
  0
DICTIONARY
  5
2B9
330
32
100
AcDbDictionary
280
     1
281
     1
  3
ACAD_XREC_ROUNDTRIP
360
2BA
  0
DICTIONARY
  5
2C1
330
36
100
AcDbDictionary
280
     1
281
     1
  3
ACAD_XREC_ROUNDTRIP
360
2C2
  0
DICTIONARY
  5
2C9
330
3A
100
AcDbDictionary
280
     1
281
     1
  3
ACAD_XREC_ROUNDTRIP
360
2CA
  0
DICTIONARY
  5
2BD
330
34
100
AcDbDictionary
280
     1
281
     1
  3
ACAD_XREC_ROUNDTRIP
360
2BE
  0
DICTIONARY
  5
2BF
330
35
100
AcDbDictionary
280
     1
281
     1
  3
ACAD_XREC_ROUNDTRIP
360
2C0
  0
DICTIONARY
  5
2CF
330
3D
100
AcDbDictionary
280
     1
281
     1
  3
ACAD_XREC_ROUNDTRIP
360
2D0
  0
DICTIONARY
  5
2C7
330
39
100
AcDbDictionary
280
     1
281
     1
  3
ACAD_XREC_ROUNDTRIP
360
2C8
  0
DICTIONARY
  5
2AB
330
2B
100
AcDbDictionary
280
     1
281
     1
  3
ACAD_XREC_ROUNDTRIP
360
2AC
  0
DICTIONARY
  5
2AD
330
2C
100
AcDbDictionary
280
     1
281
     1
  3
ACAD_XREC_ROUNDTRIP
360
2AE
  0
DICTIONARY
  5
2AF
330
2D
100
AcDbDictionary
280
     1
281
     1
  3
ACAD_XREC_ROUNDTRIP
360
2B0
  0
DICTIONARY
  5
2B1
330
2E
100
AcDbDictionary
280
     1
281
     1
  3
ACAD_XREC_ROUNDTRIP
360
2B2
  0
DICTIONARY
  5
2B7
330
31
100
AcDbDictionary
280
     1
281
     1
  3
ACAD_XREC_ROUNDTRIP
360
2B8
  0
DICTIONARY
  5
2CB
330
3B
100
AcDbDictionary
280
     1
281
     1
  3
ACAD_XREC_ROUNDTRIP
360
2CC
  0
DICTIONARY
  5
2C5
330
38
100
AcDbDictionary
280
     1
281
     1
  3
ACAD_XREC_ROUNDTRIP
360
2C6
  0
DICTIONARY
  5
2CD
330
3C
100
AcDbDictionary
280
     1
281
     1
  3
ACAD_XREC_ROUNDTRIP
360
2CE
  0
DICTIONARY
  5
2BB
330
33
100
AcDbDictionary
280
     1
281
     1
  3
ACAD_XREC_ROUNDTRIP
360
2BC
  0
DICTIONARY
  5
2D9
330
42
100
AcDbDictionary
280
     1
281
     1
  3
ACAD_XREC_ROUNDTRIP
360
2DA
  0
DICTIONARY
  5
2D7
330
41
100
AcDbDictionary
280
     1
281
     1
  3
ACAD_XREC_ROUNDTRIP
360
2D8
  0
DICTIONARY
  5
2D1
330
3E
100
AcDbDictionary
280
     1
281
     1
  3
ACAD_XREC_ROUNDTRIP
360
2D2
  0
DICTIONARY
  5
2D3
330
3F
100
AcDbDictionary
280
     1
281
     1
  3
ACAD_XREC_ROUNDTRIP
360
2D4
  0
DICTIONARY
  5
2C3
330
37
100
AcDbDictionary
280
     1
281
     1
  3
ACAD_XREC_ROUNDTRIP
360
2C4
  0
DICTIONARY
  5
2B5
330
30
100
AcDbDictionary
280
     1
281
     1
  3
ACAD_XREC_ROUNDTRIP
360
2B6
  0
DICTIONARY
  5
2D5
330
40
100
AcDbDictionary
280
     1
281
     1
  3
ACAD_XREC_ROUNDTRIP
360
2D6
  0
CELLSTYLEMAP
  5
2DC
102
{ACAD_REACTORS
330
2DB
102
}
330
2DB
100
AcDbCellStyleMap
 90
        3
300
CELLSTYLE
  1
TABLEFORMAT_BEGIN
 90
        5
170
     1
 91
        0
 92
    32768
 62
   257
 93
        1
300
CONTENTFORMAT
  1
CONTENTFORMAT_BEGIN
 90
        0
 91
        0
 92
        4
 93
        0
300

 40
0.0
140
1.0
 94
        5
 62
     0
340
11
144
0.25
309
CONTENTFORMAT_END
171
     1
301
MARGIN
  1
CELLMARGIN_BEGIN
 40
0.06
 40
0.06
 40
0.06
 40
0.06
 40
0.06
 40
0.06
309
CELLMARGIN_END
 94
        6
 95
        1
302
GRIDFORMAT
  1
GRIDFORMAT_BEGIN
 90
        0
 91
        1
 62
     0
 92
       -2
340
14
 93
        0
 40
0.045
309
GRIDFORMAT_END
 95
        2
302
GRIDFORMAT
  1
GRIDFORMAT_BEGIN
 90
        0
 91
        1
 62
     0
 92
       -2
340
14
 93
        0
 40
0.045
309
GRIDFORMAT_END
 95
        4
302
GRIDFORMAT
  1
GRIDFORMAT_BEGIN
 90
        0
 91
        1
 62
     0
 92
       -2
340
14
 93
        0
 40
0.045
309
GRIDFORMAT_END
 95
        8
302
GRIDFORMAT
  1
GRIDFORMAT_BEGIN
 90
        0
 91
        1
 62
     0
 92
       -2
340
14
 93
        0
 40
0.045
309
GRIDFORMAT_END
 95
       16
302
GRIDFORMAT
  1
GRIDFORMAT_BEGIN
 90
        0
 91
        1
 62
     0
 92
       -2
340
14
 93
        0
 40
0.045
309
GRIDFORMAT_END
 95
       32
302
GRIDFORMAT
  1
GRIDFORMAT_BEGIN
 90
        0
 91
        1
 62
     0
 92
       -2
340
14
 93
        0
 40
0.045
309
GRIDFORMAT_END
309
TABLEFORMAT_END
  1
CELLSTYLE_BEGIN
 90
        1
 91
        1
300
_TITLE
309
CELLSTYLE_END
300
CELLSTYLE
  1
TABLEFORMAT_BEGIN
 90
        5
170
     1
 91
        0
 92
        0
 62
   257
 93
        1
300
CONTENTFORMAT
  1
CONTENTFORMAT_BEGIN
 90
        0
 91
        0
 92
        4
 93
        0
300

 40
0.0
140
1.0
 94
        5
 62
     0
340
11
144
0.18
309
CONTENTFORMAT_END
171
     1
301
MARGIN
  1
CELLMARGIN_BEGIN
 40
0.06
 40
0.06
 40
0.06
 40
0.06
 40
0.06
 40
0.06
309
CELLMARGIN_END
 94
        6
 95
        1
302
GRIDFORMAT
  1
GRIDFORMAT_BEGIN
 90
        0
 91
        1
 62
     0
 92
       -2
340
14
 93
        0
 40
0.045
309
GRIDFORMAT_END
 95
        2
302
GRIDFORMAT
  1
GRIDFORMAT_BEGIN
 90
        0
 91
        1
 62
     0
 92
       -2
340
14
 93
        0
 40
0.045
309
GRIDFORMAT_END
 95
        4
302
GRIDFORMAT
  1
GRIDFORMAT_BEGIN
 90
        0
 91
        1
 62
     0
 92
       -2
340
14
 93
        0
 40
0.045
309
GRIDFORMAT_END
 95
        8
302
GRIDFORMAT
  1
GRIDFORMAT_BEGIN
 90
        0
 91
        1
 62
     0
 92
       -2
340
14
 93
        0
 40
0.045
309
GRIDFORMAT_END
 95
       16
302
GRIDFORMAT
  1
GRIDFORMAT_BEGIN
 90
        0
 91
        1
 62
     0
 92
       -2
340
14
 93
        0
 40
0.045
309
GRIDFORMAT_END
 95
       32
302
GRIDFORMAT
  1
GRIDFORMAT_BEGIN
 90
        0
 91
        1
 62
     0
 92
       -2
340
14
 93
        0
 40
0.045
309
GRIDFORMAT_END
309
TABLEFORMAT_END
  1
CELLSTYLE_BEGIN
 90
        2
 91
        1
300
_HEADER
309
CELLSTYLE_END
300
CELLSTYLE
  1
TABLEFORMAT_BEGIN
 90
        5
170
     1
 91
        0
 92
        0
 62
   257
 93
        1
300
CONTENTFORMAT
  1
CONTENTFORMAT_BEGIN
 90
        0
 91
        0
 92
        4
 93
        0
300

 40
0.0
140
1.0
 94
        2
 62
     0
340
11
144
0.18
309
CONTENTFORMAT_END
171
     1
301
MARGIN
  1
CELLMARGIN_BEGIN
 40
0.06
 40
0.06
 40
0.06
 40
0.06
 40
0.06
 40
0.06
309
CELLMARGIN_END
 94
        6
 95
        1
302
GRIDFORMAT
  1
GRIDFORMAT_BEGIN
 90
        0
 91
        1
 62
     0
 92
       -2
340
14
 93
        0
 40
0.045
309
GRIDFORMAT_END
 95
        2
302
GRIDFORMAT
  1
GRIDFORMAT_BEGIN
 90
        0
 91
        1
 62
     0
 92
       -2
340
14
 93
        0
 40
0.045
309
GRIDFORMAT_END
 95
        4
302
GRIDFORMAT
  1
GRIDFORMAT_BEGIN
 90
        0
 91
        1
 62
     0
 92
       -2
340
14
 93
        0
 40
0.045
309
GRIDFORMAT_END
 95
        8
302
GRIDFORMAT
  1
GRIDFORMAT_BEGIN
 90
        0
 91
        1
 62
     0
 92
       -2
340
14
 93
        0
 40
0.045
309
GRIDFORMAT_END
 95
       16
302
GRIDFORMAT
  1
GRIDFORMAT_BEGIN
 90
        0
 91
        1
 62
     0
 92
       -2
340
14
 93
        0
 40
0.045
309
GRIDFORMAT_END
 95
       32
302
GRIDFORMAT
  1
GRIDFORMAT_BEGIN
 90
        0
 91
        1
 62
     0
 92
       -2
340
14
 93
        0
 40
0.045
309
GRIDFORMAT_END
309
TABLEFORMAT_END
  1
CELLSTYLE_BEGIN
 90
        3
 91
        2
300
_DATA
309
CELLSTYLE_END
  0
XRECORD
  5
2B4
102
{ACAD_REACTORS
330
2B3
102
}
330
2B3
100
AcDbXrecord
280
     1
102
RTVSPost2010Prop28
280
     1
102
RTVSPost2010PropOp28
 70
     1
102
RTVSPost2010Prop29
280
     1
102
RTVSPost2010PropOp29
 70
     1
102
RTVSPost2010Prop30
280
     0
102
RTVSPost2010PropOp30
 70
     1
102
RTVSPost2010Prop31
280
     0
102
RTVSPost2010PropOp31
 70
     1
102
RTVSPost2010Prop32
280
     0
102
RTVSPost2010PropOp32
 70
     1
102
RTVSPost2010Prop33
280
     0
102
RTVSPost2010PropOp33
 70
     1
102
RTVSPost2010Prop34
280
     0
102
RTVSPost2010PropOp34
 70
     1
102
RTVSPost2010Prop35
280
     0
102
RTVSPost2010PropOp35
 70
     1
102
RTVSPost2010Prop36
280
     0
102
RTVSPost2010PropOp36
 70
     1
102
RTVSPost2010Prop37
 90
       50
102
RTVSPost2010PropOp37
 70
     1
102
RTVSPost2010Prop38
140
0.0
102
RTVSPost2010PropOp38
 70
     1
102
RTVSPost2010Prop39
140
1.0
102
RTVSPost2010PropOp39
 70
     1
102
RTVSPost2010Prop40
 90
        0
102
RTVSPost2010PropOp40
 70
     1
102
RTVSPost2010Prop41ColorIndex
 90
       18
102
RTVSPost2010Prop41ColorRGB
 90
        0
102
RTVSPost2010PropOp41
 70
     1
102
RTVSPost2010Prop42
 90
       50
102
RTVSPost2010PropOp42
 70
     1
102
RTVSPost2010Prop43
 90
        3
102
RTVSPost2010PropOp43
 70
     1
102
RTVSPost2010Prop44ColorIndex
 90
        5
102
RTVSPost2010Prop44ColorRGB
 90
      255
102
RTVSPost2010PropOp44
 70
     1
102
RTVSPost2010Prop45
280
     0
102
RTVSPost2010PropOp45
 70
     1
102
RTVSPost2010Prop46
 90
       50
102
RTVSPost2010PropOp46
 70
     1
102
RTVSPost2010Prop47
 90
       50
102
RTVSPost2010PropOp47
 70
     1
102
RTVSPost2010Prop48
 90
       50
102
RTVSPost2010PropOp48
 70
     1
102
RTVSPost2010Prop49
280
     0
102
RTVSPost2010PropOp49
 70
     1
102
RTVSPost2010Prop50
 90
       50
102
RTVSPost2010PropOp50
 70
     1
102
RTVSPost2010Prop51ColorIndex
 90
      256
102
RTVSPost2010Prop51ColorRGB
 90
-16777216
102
RTVSPost2010PropOp51
 70
     0
102
RTVSPost2010Prop52
140
1.0
102
RTVSPost2010PropOp52
 70
     0
102
RTVSPost2010Prop53
 90
        2
102
RTVSPost2010PropOp53
 70
     1
102
RTVSPost2010Prop54
  1
strokes_ogs.tif
102
RTVSPost2010PropOp54
 70
     1
102
RTVSPost2010Prop55
280
     0
102
RTVSPost2010PropOp55
 70
     1
102
RTVSPost2010Prop56
140
1.0
102
RTVSPost2010PropOp56
 70
     1
102
RTVSPost2010Prop57
140
1.0
102
RTVSPost2010PropOp57
 70
     1
  0
XRECORD
  5
2BA
102
{ACAD_REACTORS
330
2B9
102
}
330
2B9
100
AcDbXrecord
280
     1
102
RTVSPost2010Prop28
280
     0
102
RTVSPost2010PropOp28
 70
     1
102
RTVSPost2010Prop29
280
     1
102
RTVSPost2010PropOp29
 70
     1
102
RTVSPost2010Prop30
280
     1
102
RTVSPost2010PropOp30
 70
     1
102
RTVSPost2010Prop31
280
     0
102
RTVSPost2010PropOp31
 70
     1
102
RTVSPost2010Prop32
280
     0
102
RTVSPost2010PropOp32
 70
     1
102
RTVSPost2010Prop33
280
     0
102
RTVSPost2010PropOp33
 70
     1
102
RTVSPost2010Prop34
280
     0
102
RTVSPost2010PropOp34
 70
     1
102
RTVSPost2010Prop35
280
     0
102
RTVSPost2010PropOp35
 70
     1
102
RTVSPost2010Prop36
280
     0
102
RTVSPost2010PropOp36
 70
     1
102
RTVSPost2010Prop37
 90
       50
102
RTVSPost2010PropOp37
 70
     1
102
RTVSPost2010Prop38
140
0.0
102
RTVSPost2010PropOp38
 70
     1
102
RTVSPost2010Prop39
140
1.0
102
RTVSPost2010PropOp39
 70
     1
102
RTVSPost2010Prop40
 90
        0
102
RTVSPost2010PropOp40
 70
     1
102
RTVSPost2010Prop41ColorIndex
 90
       18
102
RTVSPost2010Prop41ColorRGB
 90
        0
102
RTVSPost2010PropOp41
 70
     1
102
RTVSPost2010Prop42
 90
       50
102
RTVSPost2010PropOp42
 70
     1
102
RTVSPost2010Prop43
 90
        3
102
RTVSPost2010PropOp43
 70
     1
102
RTVSPost2010Prop44ColorIndex
 90
        5
102
RTVSPost2010Prop44ColorRGB
 90
      255
102
RTVSPost2010PropOp44
 70
     1
102
RTVSPost2010Prop45
280
     0
102
RTVSPost2010PropOp45
 70
     1
102
RTVSPost2010Prop46
 90
       50
102
RTVSPost2010PropOp46
 70
     1
102
RTVSPost2010Prop47
 90
       50
102
RTVSPost2010PropOp47
 70
     1
102
RTVSPost2010Prop48
 90
       50
102
RTVSPost2010PropOp48
 70
     1
102
RTVSPost2010Prop49
280
     0
102
RTVSPost2010PropOp49
 70
     1
102
RTVSPost2010Prop50
 90
       50
102
RTVSPost2010PropOp50
 70
     1
102
RTVSPost2010Prop51ColorIndex
 90
      256
102
RTVSPost2010Prop51ColorRGB
 90
-16777216
102
RTVSPost2010PropOp51
 70
     0
102
RTVSPost2010Prop52
140
1.0
102
RTVSPost2010PropOp52
 70
     0
102
RTVSPost2010Prop53
 90
        2
102
RTVSPost2010PropOp53
 70
     1
102
RTVSPost2010Prop54
  1
strokes_ogs.tif
102
RTVSPost2010PropOp54
 70
     1
102
RTVSPost2010Prop55
280
     0
102
RTVSPost2010PropOp55
 70
     1
102
RTVSPost2010Prop56
140
1.0
102
RTVSPost2010PropOp56
 70
     1
102
RTVSPost2010Prop57
140
1.0
102
RTVSPost2010PropOp57
 70
     1
  0
XRECORD
  5
2C2
102
{ACAD_REACTORS
330
2C1
102
}
330
2C1
100
AcDbXrecord
280
     1
102
RTVSPost2010Prop28
280
     0
102
RTVSPost2010PropOp28
 70
     1
102
RTVSPost2010Prop29
280
     1
102
RTVSPost2010PropOp29
 70
     1
102
RTVSPost2010Prop30
280
     1
102
RTVSPost2010PropOp30
 70
     1
102
RTVSPost2010Prop31
280
     0
102
RTVSPost2010PropOp31
 70
     1
102
RTVSPost2010Prop32
280
     0
102
RTVSPost2010PropOp32
 70
     1
102
RTVSPost2010Prop33
280
     0
102
RTVSPost2010PropOp33
 70
     1
102
RTVSPost2010Prop34
280
     0
102
RTVSPost2010PropOp34
 70
     1
102
RTVSPost2010Prop35
280
     0
102
RTVSPost2010PropOp35
 70
     1
102
RTVSPost2010Prop36
280
     0
102
RTVSPost2010PropOp36
 70
     1
102
RTVSPost2010Prop37
 90
       50
102
RTVSPost2010PropOp37
 70
     1
102
RTVSPost2010Prop38
140
0.0
102
RTVSPost2010PropOp38
 70
     1
102
RTVSPost2010Prop39
140
1.0
102
RTVSPost2010PropOp39
 70
     1
102
RTVSPost2010Prop40
 90
        0
102
RTVSPost2010PropOp40
 70
     1
102
RTVSPost2010Prop41ColorIndex
 90
       18
102
RTVSPost2010Prop41ColorRGB
 90
        0
102
RTVSPost2010PropOp41
 70
     1
102
RTVSPost2010Prop42
 90
       50
102
RTVSPost2010PropOp42
 70
     1
102
RTVSPost2010Prop43
 90
        3
102
RTVSPost2010PropOp43
 70
     1
102
RTVSPost2010Prop44ColorIndex
 90
        5
102
RTVSPost2010Prop44ColorRGB
 90
      255
102
RTVSPost2010PropOp44
 70
     1
102
RTVSPost2010Prop45
280
     0
102
RTVSPost2010PropOp45
 70
     1
102
RTVSPost2010Prop46
 90
       50
102
RTVSPost2010PropOp46
 70
     1
102
RTVSPost2010Prop47
 90
       50
102
RTVSPost2010PropOp47
 70
     1
102
RTVSPost2010Prop48
 90
       50
102
RTVSPost2010PropOp48
 70
     1
102
RTVSPost2010Prop49
280
     0
102
RTVSPost2010PropOp49
 70
     1
102
RTVSPost2010Prop50
 90
       50
102
RTVSPost2010PropOp50
 70
     1
102
RTVSPost2010Prop51ColorIndex
 90
      256
102
RTVSPost2010Prop51ColorRGB
 90
-16777216
102
RTVSPost2010PropOp51
 70
     0
102
RTVSPost2010Prop52
140
1.0
102
RTVSPost2010PropOp52
 70
     0
102
RTVSPost2010Prop53
 90
        2
102
RTVSPost2010PropOp53
 70
     1
102
RTVSPost2010Prop54
  1
strokes_ogs.tif
102
RTVSPost2010PropOp54
 70
     1
102
RTVSPost2010Prop55
280
     0
102
RTVSPost2010PropOp55
 70
     1
102
RTVSPost2010Prop56
140
1.0
102
RTVSPost2010PropOp56
 70
     1
102
RTVSPost2010Prop57
140
1.0
102
RTVSPost2010PropOp57
 70
     1
  0
XRECORD
  5
2CA
102
{ACAD_REACTORS
330
2C9
102
}
330
2C9
100
AcDbXrecord
280
     1
102
RTVSPost2010Prop28
280
     0
102
RTVSPost2010PropOp28
 70
     1
102
RTVSPost2010Prop29
280
     1
102
RTVSPost2010PropOp29
 70
     1
102
RTVSPost2010Prop30
280
     1
102
RTVSPost2010PropOp30
 70
     1
102
RTVSPost2010Prop31
280
     0
102
RTVSPost2010PropOp31
 70
     1
102
RTVSPost2010Prop32
280
     0
102
RTVSPost2010PropOp32
 70
     1
102
RTVSPost2010Prop33
280
     0
102
RTVSPost2010PropOp33
 70
     1
102
RTVSPost2010Prop34
280
     0
102
RTVSPost2010PropOp34
 70
     1
102
RTVSPost2010Prop35
280
     0
102
RTVSPost2010PropOp35
 70
     1
102
RTVSPost2010Prop36
280
     0
102
RTVSPost2010PropOp36
 70
     1
102
RTVSPost2010Prop37
 90
       50
102
RTVSPost2010PropOp37
 70
     1
102
RTVSPost2010Prop38
140
0.0
102
RTVSPost2010PropOp38
 70
     1
102
RTVSPost2010Prop39
140
1.0
102
RTVSPost2010PropOp39
 70
     1
102
RTVSPost2010Prop40
 90
        0
102
RTVSPost2010PropOp40
 70
     1
102
RTVSPost2010Prop41ColorIndex
 90
       18
102
RTVSPost2010Prop41ColorRGB
 90
        0
102
RTVSPost2010PropOp41
 70
     1
102
RTVSPost2010Prop42
 90
       50
102
RTVSPost2010PropOp42
 70
     1
102
RTVSPost2010Prop43
 90
        3
102
RTVSPost2010PropOp43
 70
     1
102
RTVSPost2010Prop44ColorIndex
 90
        5
102
RTVSPost2010Prop44ColorRGB
 90
      255
102
RTVSPost2010PropOp44
 70
     1
102
RTVSPost2010Prop45
280
     0
102
RTVSPost2010PropOp45
 70
     1
102
RTVSPost2010Prop46
 90
       50
102
RTVSPost2010PropOp46
 70
     1
102
RTVSPost2010Prop47
 90
       50
102
RTVSPost2010PropOp47
 70
     1
102
RTVSPost2010Prop48
 90
       50
102
RTVSPost2010PropOp48
 70
     1
102
RTVSPost2010Prop49
280
     0
102
RTVSPost2010PropOp49
 70
     1
102
RTVSPost2010Prop50
 90
       50
102
RTVSPost2010PropOp50
 70
     1
102
RTVSPost2010Prop51ColorIndex
 90
      256
102
RTVSPost2010Prop51ColorRGB
 90
-16777216
102
RTVSPost2010PropOp51
 70
     0
102
RTVSPost2010Prop52
140
1.0
102
RTVSPost2010PropOp52
 70
     0
102
RTVSPost2010Prop53
 90
        2
102
RTVSPost2010PropOp53
 70
     1
102
RTVSPost2010Prop54
  1
strokes_ogs.tif
102
RTVSPost2010PropOp54
 70
     1
102
RTVSPost2010Prop55
280
     0
102
RTVSPost2010PropOp55
 70
     1
102
RTVSPost2010Prop56
140
1.0
102
RTVSPost2010PropOp56
 70
     1
102
RTVSPost2010Prop57
140
1.0
102
RTVSPost2010PropOp57
 70
     1
  0
XRECORD
  5
2BE
102
{ACAD_REACTORS
330
2BD
102
}
330
2BD
100
AcDbXrecord
280
     1
102
RTVSPost2010Prop28
280
     0
102
RTVSPost2010PropOp28
 70
     1
102
RTVSPost2010Prop29
280
     1
102
RTVSPost2010PropOp29
 70
     1
102
RTVSPost2010Prop30
280
     1
102
RTVSPost2010PropOp30
 70
     1
102
RTVSPost2010Prop31
280
     0
102
RTVSPost2010PropOp31
 70
     1
102
RTVSPost2010Prop32
280
     0
102
RTVSPost2010PropOp32
 70
     1
102
RTVSPost2010Prop33
280
     0
102
RTVSPost2010PropOp33
 70
     1
102
RTVSPost2010Prop34
280
     0
102
RTVSPost2010PropOp34
 70
     1
102
RTVSPost2010Prop35
280
     0
102
RTVSPost2010PropOp35
 70
     1
102
RTVSPost2010Prop36
280
     0
102
RTVSPost2010PropOp36
 70
     1
102
RTVSPost2010Prop37
 90
       50
102
RTVSPost2010PropOp37
 70
     1
102
RTVSPost2010Prop38
140
0.0
102
RTVSPost2010PropOp38
 70
     1
102
RTVSPost2010Prop39
140
1.0
102
RTVSPost2010PropOp39
 70
     1
102
RTVSPost2010Prop40
 90
        0
102
RTVSPost2010PropOp40
 70
     1
102
RTVSPost2010Prop41ColorIndex
 90
       18
102
RTVSPost2010Prop41ColorRGB
 90
        0
102
RTVSPost2010PropOp41
 70
     1
102
RTVSPost2010Prop42
 90
       50
102
RTVSPost2010PropOp42
 70
     1
102
RTVSPost2010Prop43
 90
        3
102
RTVSPost2010PropOp43
 70
     1
102
RTVSPost2010Prop44ColorIndex
 90
        5
102
RTVSPost2010Prop44ColorRGB
 90
      255
102
RTVSPost2010PropOp44
 70
     1
102
RTVSPost2010Prop45
280
     0
102
RTVSPost2010PropOp45
 70
     1
102
RTVSPost2010Prop46
 90
       50
102
RTVSPost2010PropOp46
 70
     1
102
RTVSPost2010Prop47
 90
       50
102
RTVSPost2010PropOp47
 70
     1
102
RTVSPost2010Prop48
 90
       50
102
RTVSPost2010PropOp48
 70
     1
102
RTVSPost2010Prop49
280
     0
102
RTVSPost2010PropOp49
 70
     1
102
RTVSPost2010Prop50
 90
       50
102
RTVSPost2010PropOp50
 70
     1
102
RTVSPost2010Prop51ColorIndex
 90
      256
102
RTVSPost2010Prop51ColorRGB
 90
-16777216
102
RTVSPost2010PropOp51
 70
     0
102
RTVSPost2010Prop52
140
1.0
102
RTVSPost2010PropOp52
 70
     0
102
RTVSPost2010Prop53
 90
        2
102
RTVSPost2010PropOp53
 70
     1
102
RTVSPost2010Prop54
  1
strokes_ogs.tif
102
RTVSPost2010PropOp54
 70
     1
102
RTVSPost2010Prop55
280
     0
102
RTVSPost2010PropOp55
 70
     1
102
RTVSPost2010Prop56
140
1.0
102
RTVSPost2010PropOp56
 70
     1
102
RTVSPost2010Prop57
140
1.0
102
RTVSPost2010PropOp57
 70
     1
  0
XRECORD
  5
2C0
102
{ACAD_REACTORS
330
2BF
102
}
330
2BF
100
AcDbXrecord
280
     1
102
RTVSPost2010Prop28
280
     0
102
RTVSPost2010PropOp28
 70
     1
102
RTVSPost2010Prop29
280
     1
102
RTVSPost2010PropOp29
 70
     1
102
RTVSPost2010Prop30
280
     1
102
RTVSPost2010PropOp30
 70
     1
102
RTVSPost2010Prop31
280
     0
102
RTVSPost2010PropOp31
 70
     1
102
RTVSPost2010Prop32
280
     0
102
RTVSPost2010PropOp32
 70
     1
102
RTVSPost2010Prop33
280
     0
102
RTVSPost2010PropOp33
 70
     1
102
RTVSPost2010Prop34
280
     0
102
RTVSPost2010PropOp34
 70
     1
102
RTVSPost2010Prop35
280
     0
102
RTVSPost2010PropOp35
 70
     1
102
RTVSPost2010Prop36
280
     0
102
RTVSPost2010PropOp36
 70
     1
102
RTVSPost2010Prop37
 90
       50
102
RTVSPost2010PropOp37
 70
     1
102
RTVSPost2010Prop38
140
0.0
102
RTVSPost2010PropOp38
 70
     1
102
RTVSPost2010Prop39
140
1.0
102
RTVSPost2010PropOp39
 70
     1
102
RTVSPost2010Prop40
 90
        0
102
RTVSPost2010PropOp40
 70
     1
102
RTVSPost2010Prop41ColorIndex
 90
       18
102
RTVSPost2010Prop41ColorRGB
 90
        0
102
RTVSPost2010PropOp41
 70
     1
102
RTVSPost2010Prop42
 90
       50
102
RTVSPost2010PropOp42
 70
     1
102
RTVSPost2010Prop43
 90
        3
102
RTVSPost2010PropOp43
 70
     1
102
RTVSPost2010Prop44ColorIndex
 90
        5
102
RTVSPost2010Prop44ColorRGB
 90
      255
102
RTVSPost2010PropOp44
 70
     1
102
RTVSPost2010Prop45
280
     0
102
RTVSPost2010PropOp45
 70
     1
102
RTVSPost2010Prop46
 90
       50
102
RTVSPost2010PropOp46
 70
     1
102
RTVSPost2010Prop47
 90
       50
102
RTVSPost2010PropOp47
 70
     1
102
RTVSPost2010Prop48
 90
       50
102
RTVSPost2010PropOp48
 70
     1
102
RTVSPost2010Prop49
280
     0
102
RTVSPost2010PropOp49
 70
     1
102
RTVSPost2010Prop50
 90
       50
102
RTVSPost2010PropOp50
 70
     1
102
RTVSPost2010Prop51ColorIndex
 90
      256
102
RTVSPost2010Prop51ColorRGB
 90
-16777216
102
RTVSPost2010PropOp51
 70
     0
102
RTVSPost2010Prop52
140
1.0
102
RTVSPost2010PropOp52
 70
     0
102
RTVSPost2010Prop53
 90
        2
102
RTVSPost2010PropOp53
 70
     1
102
RTVSPost2010Prop54
  1
strokes_ogs.tif
102
RTVSPost2010PropOp54
 70
     1
102
RTVSPost2010Prop55
280
     0
102
RTVSPost2010PropOp55
 70
     1
102
RTVSPost2010Prop56
140
1.0
102
RTVSPost2010PropOp56
 70
     1
102
RTVSPost2010Prop57
140
1.0
102
RTVSPost2010PropOp57
 70
     1
  0
XRECORD
  5
2D0
102
{ACAD_REACTORS
330
2CF
102
}
330
2CF
100
AcDbXrecord
280
     1
102
RTVSPost2010Prop28
280
     0
102
RTVSPost2010PropOp28
 70
     0
102
RTVSPost2010Prop29
280
     1
102
RTVSPost2010PropOp29
 70
     0
102
RTVSPost2010Prop30
280
     1
102
RTVSPost2010PropOp30
 70
     0
102
RTVSPost2010Prop31
280
     0
102
RTVSPost2010PropOp31
 70
     0
102
RTVSPost2010Prop32
280
     0
102
RTVSPost2010PropOp32
 70
     0
102
RTVSPost2010Prop33
280
     0
102
RTVSPost2010PropOp33
 70
     0
102
RTVSPost2010Prop34
280
     0
102
RTVSPost2010PropOp34
 70
     0
102
RTVSPost2010Prop35
280
     0
102
RTVSPost2010PropOp35
 70
     0
102
RTVSPost2010Prop36
280
     0
102
RTVSPost2010PropOp36
 70
     0
102
RTVSPost2010Prop37
 90
       50
102
RTVSPost2010PropOp37
 70
     0
102
RTVSPost2010Prop38
140
0.0
102
RTVSPost2010PropOp38
 70
     0
102
RTVSPost2010Prop39
140
1.0
102
RTVSPost2010PropOp39
 70
     0
102
RTVSPost2010Prop40
 90
        0
102
RTVSPost2010PropOp40
 70
     0
102
RTVSPost2010Prop41ColorIndex
 90
       18
102
RTVSPost2010Prop41ColorRGB
 90
        0
102
RTVSPost2010PropOp41
 70
     0
102
RTVSPost2010Prop42
 90
       50
102
RTVSPost2010PropOp42
 70
     0
102
RTVSPost2010Prop43
 90
        3
102
RTVSPost2010PropOp43
 70
     0
102
RTVSPost2010Prop44ColorIndex
 90
        5
102
RTVSPost2010Prop44ColorRGB
 90
      255
102
RTVSPost2010PropOp44
 70
     0
102
RTVSPost2010Prop45
280
     0
102
RTVSPost2010PropOp45
 70
     0
102
RTVSPost2010Prop46
 90
       50
102
RTVSPost2010PropOp46
 70
     0
102
RTVSPost2010Prop47
 90
       50
102
RTVSPost2010PropOp47
 70
     0
102
RTVSPost2010Prop48
 90
       50
102
RTVSPost2010PropOp48
 70
     0
102
RTVSPost2010Prop49
280
     0
102
RTVSPost2010PropOp49
 70
     0
102
RTVSPost2010Prop50
 90
       50
102
RTVSPost2010PropOp50
 70
     0
102
RTVSPost2010Prop51ColorIndex
 90
      256
102
RTVSPost2010Prop51ColorRGB
 90
-16777216
102
RTVSPost2010PropOp51
 70
     0
102
RTVSPost2010Prop52
140
1.0
102
RTVSPost2010PropOp52
 70
     0
102
RTVSPost2010Prop53
 90
        2
102
RTVSPost2010PropOp53
 70
     0
102
RTVSPost2010Prop54
  1
strokes_ogs.tif
102
RTVSPost2010PropOp54
 70
     0
102
RTVSPost2010Prop55
280
     0
102
RTVSPost2010PropOp55
 70
     0
102
RTVSPost2010Prop56
140
1.0
102
RTVSPost2010PropOp56
 70
     0
102
RTVSPost2010Prop57
140
1.0
102
RTVSPost2010PropOp57
 70
     0
  0
XRECORD
  5
2C8
102
{ACAD_REACTORS
330
2C7
102
}
330
2C7
100
AcDbXrecord
280
     1
102
RTVSPost2010Prop28
280
     0
102
RTVSPost2010PropOp28
 70
     1
102
RTVSPost2010Prop29
280
     1
102
RTVSPost2010PropOp29
 70
     1
102
RTVSPost2010Prop30
280
     1
102
RTVSPost2010PropOp30
 70
     1
102
RTVSPost2010Prop31
280
     0
102
RTVSPost2010PropOp31
 70
     1
102
RTVSPost2010Prop32
280
     0
102
RTVSPost2010PropOp32
 70
     1
102
RTVSPost2010Prop33
280
     0
102
RTVSPost2010PropOp33
 70
     1
102
RTVSPost2010Prop34
280
     0
102
RTVSPost2010PropOp34
 70
     1
102
RTVSPost2010Prop35
280
     0
102
RTVSPost2010PropOp35
 70
     1
102
RTVSPost2010Prop36
280
     0
102
RTVSPost2010PropOp36
 70
     1
102
RTVSPost2010Prop37
 90
       50
102
RTVSPost2010PropOp37
 70
     1
102
RTVSPost2010Prop38
140
0.0
102
RTVSPost2010PropOp38
 70
     1
102
RTVSPost2010Prop39
140
1.0
102
RTVSPost2010PropOp39
 70
     1
102
RTVSPost2010Prop40
 90
        0
102
RTVSPost2010PropOp40
 70
     1
102
RTVSPost2010Prop41ColorIndex
 90
       18
102
RTVSPost2010Prop41ColorRGB
 90
        0
102
RTVSPost2010PropOp41
 70
     1
102
RTVSPost2010Prop42
 90
       50
102
RTVSPost2010PropOp42
 70
     1
102
RTVSPost2010Prop43
 90
        3
102
RTVSPost2010PropOp43
 70
     1
102
RTVSPost2010Prop44ColorIndex
 90
        5
102
RTVSPost2010Prop44ColorRGB
 90
      255
102
RTVSPost2010PropOp44
 70
     1
102
RTVSPost2010Prop45
280
     0
102
RTVSPost2010PropOp45
 70
     1
102
RTVSPost2010Prop46
 90
       50
102
RTVSPost2010PropOp46
 70
     1
102
RTVSPost2010Prop47
 90
       50
102
RTVSPost2010PropOp47
 70
     1
102
RTVSPost2010Prop48
 90
       50
102
RTVSPost2010PropOp48
 70
     1
102
RTVSPost2010Prop49
280
     0
102
RTVSPost2010PropOp49
 70
     1
102
RTVSPost2010Prop50
 90
       50
102
RTVSPost2010PropOp50
 70
     1
102
RTVSPost2010Prop51ColorIndex
 90
      256
102
RTVSPost2010Prop51ColorRGB
 90
-16777216
102
RTVSPost2010PropOp51
 70
     0
102
RTVSPost2010Prop52
140
1.0
102
RTVSPost2010PropOp52
 70
     0
102
RTVSPost2010Prop53
 90
        2
102
RTVSPost2010PropOp53
 70
     1
102
RTVSPost2010Prop54
  1
strokes_ogs.tif
102
RTVSPost2010PropOp54
 70
     1
102
RTVSPost2010Prop55
280
     0
102
RTVSPost2010PropOp55
 70
     1
102
RTVSPost2010Prop56
140
1.0
102
RTVSPost2010PropOp56
 70
     1
102
RTVSPost2010Prop57
140
1.0
102
RTVSPost2010PropOp57
 70
     1
  0
XRECORD
  5
2AC
102
{ACAD_REACTORS
330
2AB
102
}
330
2AB
100
AcDbXrecord
280
     1
102
RTVSPost2010Prop28
280
     0
102
RTVSPost2010PropOp28
 70
     1
102
RTVSPost2010Prop29
280
     1
102
RTVSPost2010PropOp29
 70
     1
102
RTVSPost2010Prop30
280
     1
102
RTVSPost2010PropOp30
 70
     1
102
RTVSPost2010Prop31
280
     0
102
RTVSPost2010PropOp31
 70
     1
102
RTVSPost2010Prop32
280
     0
102
RTVSPost2010PropOp32
 70
     1
102
RTVSPost2010Prop33
280
     0
102
RTVSPost2010PropOp33
 70
     1
102
RTVSPost2010Prop34
280
     0
102
RTVSPost2010PropOp34
 70
     1
102
RTVSPost2010Prop35
280
     0
102
RTVSPost2010PropOp35
 70
     1
102
RTVSPost2010Prop36
280
     0
102
RTVSPost2010PropOp36
 70
     1
102
RTVSPost2010Prop37
 90
       50
102
RTVSPost2010PropOp37
 70
     1
102
RTVSPost2010Prop38
140
0.0
102
RTVSPost2010PropOp38
 70
     1
102
RTVSPost2010Prop39
140
1.0
102
RTVSPost2010PropOp39
 70
     1
102
RTVSPost2010Prop40
 90
        0
102
RTVSPost2010PropOp40
 70
     1
102
RTVSPost2010Prop41ColorIndex
 90
       18
102
RTVSPost2010Prop41ColorRGB
 90
        0
102
RTVSPost2010PropOp41
 70
     1
102
RTVSPost2010Prop42
 90
       50
102
RTVSPost2010PropOp42
 70
     1
102
RTVSPost2010Prop43
 90
        3
102
RTVSPost2010PropOp43
 70
     1
102
RTVSPost2010Prop44ColorIndex
 90
        5
102
RTVSPost2010Prop44ColorRGB
 90
      255
102
RTVSPost2010PropOp44
 70
     1
102
RTVSPost2010Prop45
280
     0
102
RTVSPost2010PropOp45
 70
     1
102
RTVSPost2010Prop46
 90
       50
102
RTVSPost2010PropOp46
 70
     1
102
RTVSPost2010Prop47
 90
       50
102
RTVSPost2010PropOp47
 70
     1
102
RTVSPost2010Prop48
 90
       50
102
RTVSPost2010PropOp48
 70
     1
102
RTVSPost2010Prop49
280
     0
102
RTVSPost2010PropOp49
 70
     1
102
RTVSPost2010Prop50
 90
       50
102
RTVSPost2010PropOp50
 70
     1
102
RTVSPost2010Prop51ColorIndex
 90
      256
102
RTVSPost2010Prop51ColorRGB
 90
-16777216
102
RTVSPost2010PropOp51
 70
     0
102
RTVSPost2010Prop52
140
1.0
102
RTVSPost2010PropOp52
 70
     0
102
RTVSPost2010Prop53
 90
        2
102
RTVSPost2010PropOp53
 70
     1
102
RTVSPost2010Prop54
  1
strokes_ogs.tif
102
RTVSPost2010PropOp54
 70
     1
102
RTVSPost2010Prop55
280
     0
102
RTVSPost2010PropOp55
 70
     1
102
RTVSPost2010Prop56
140
1.0
102
RTVSPost2010PropOp56
 70
     1
102
RTVSPost2010Prop57
140
1.0
102
RTVSPost2010PropOp57
 70
     1
  0
XRECORD
  5
2AE
102
{ACAD_REACTORS
330
2AD
102
}
330
2AD
100
AcDbXrecord
280
     1
102
RTVSPost2010Prop28
280
     0
102
RTVSPost2010PropOp28
 70
     1
102
RTVSPost2010Prop29
280
     1
102
RTVSPost2010PropOp29
 70
     1
102
RTVSPost2010Prop30
280
     1
102
RTVSPost2010PropOp30
 70
     1
102
RTVSPost2010Prop31
280
     0
102
RTVSPost2010PropOp31
 70
     1
102
RTVSPost2010Prop32
280
     0
102
RTVSPost2010PropOp32
 70
     1
102
RTVSPost2010Prop33
280
     0
102
RTVSPost2010PropOp33
 70
     1
102
RTVSPost2010Prop34
280
     0
102
RTVSPost2010PropOp34
 70
     1
102
RTVSPost2010Prop35
280
     0
102
RTVSPost2010PropOp35
 70
     1
102
RTVSPost2010Prop36
280
     0
102
RTVSPost2010PropOp36
 70
     1
102
RTVSPost2010Prop37
 90
       50
102
RTVSPost2010PropOp37
 70
     1
102
RTVSPost2010Prop38
140
0.0
102
RTVSPost2010PropOp38
 70
     1
102
RTVSPost2010Prop39
140
1.0
102
RTVSPost2010PropOp39
 70
     1
102
RTVSPost2010Prop40
 90
        0
102
RTVSPost2010PropOp40
 70
     1
102
RTVSPost2010Prop41ColorIndex
 90
       18
102
RTVSPost2010Prop41ColorRGB
 90
        0
102
RTVSPost2010PropOp41
 70
     1
102
RTVSPost2010Prop42
 90
       50
102
RTVSPost2010PropOp42
 70
     1
102
RTVSPost2010Prop43
 90
        3
102
RTVSPost2010PropOp43
 70
     1
102
RTVSPost2010Prop44ColorIndex
 90
        5
102
RTVSPost2010Prop44ColorRGB
 90
      255
102
RTVSPost2010PropOp44
 70
     1
102
RTVSPost2010Prop45
280
     0
102
RTVSPost2010PropOp45
 70
     1
102
RTVSPost2010Prop46
 90
       50
102
RTVSPost2010PropOp46
 70
     1
102
RTVSPost2010Prop47
 90
       50
102
RTVSPost2010PropOp47
 70
     1
102
RTVSPost2010Prop48
 90
       50
102
RTVSPost2010PropOp48
 70
     1
102
RTVSPost2010Prop49
280
     0
102
RTVSPost2010PropOp49
 70
     1
102
RTVSPost2010Prop50
 90
       50
102
RTVSPost2010PropOp50
 70
     1
102
RTVSPost2010Prop51ColorIndex
 90
      256
102
RTVSPost2010Prop51ColorRGB
 90
-16777216
102
RTVSPost2010PropOp51
 70
     0
102
RTVSPost2010Prop52
140
1.0
102
RTVSPost2010PropOp52
 70
     0
102
RTVSPost2010Prop53
 90
        2
102
RTVSPost2010PropOp53
 70
     1
102
RTVSPost2010Prop54
  1
strokes_ogs.tif
102
RTVSPost2010PropOp54
 70
     1
102
RTVSPost2010Prop55
280
     0
102
RTVSPost2010PropOp55
 70
     1
102
RTVSPost2010Prop56
140
1.0
102
RTVSPost2010PropOp56
 70
     1
102
RTVSPost2010Prop57
140
1.0
102
RTVSPost2010PropOp57
 70
     1
  0
XRECORD
  5
2B0
102
{ACAD_REACTORS
330
2AF
102
}
330
2AF
100
AcDbXrecord
280
     1
102
RTVSPost2010Prop28
280
     0
102
RTVSPost2010PropOp28
 70
     1
102
RTVSPost2010Prop29
280
     1
102
RTVSPost2010PropOp29
 70
     1
102
RTVSPost2010Prop30
280
     1
102
RTVSPost2010PropOp30
 70
     1
102
RTVSPost2010Prop31
280
     0
102
RTVSPost2010PropOp31
 70
     1
102
RTVSPost2010Prop32
280
     0
102
RTVSPost2010PropOp32
 70
     1
102
RTVSPost2010Prop33
280
     0
102
RTVSPost2010PropOp33
 70
     1
102
RTVSPost2010Prop34
280
     0
102
RTVSPost2010PropOp34
 70
     1
102
RTVSPost2010Prop35
280
     0
102
RTVSPost2010PropOp35
 70
     1
102
RTVSPost2010Prop36
280
     0
102
RTVSPost2010PropOp36
 70
     1
102
RTVSPost2010Prop37
 90
       50
102
RTVSPost2010PropOp37
 70
     1
102
RTVSPost2010Prop38
140
0.0
102
RTVSPost2010PropOp38
 70
     1
102
RTVSPost2010Prop39
140
1.0
102
RTVSPost2010PropOp39
 70
     1
102
RTVSPost2010Prop40
 90
        0
102
RTVSPost2010PropOp40
 70
     1
102
RTVSPost2010Prop41ColorIndex
 90
       18
102
RTVSPost2010Prop41ColorRGB
 90
        0
102
RTVSPost2010PropOp41
 70
     1
102
RTVSPost2010Prop42
 90
       50
102
RTVSPost2010PropOp42
 70
     1
102
RTVSPost2010Prop43
 90
        3
102
RTVSPost2010PropOp43
 70
     1
102
RTVSPost2010Prop44ColorIndex
 90
        5
102
RTVSPost2010Prop44ColorRGB
 90
      255
102
RTVSPost2010PropOp44
 70
     1
102
RTVSPost2010Prop45
280
     0
102
RTVSPost2010PropOp45
 70
     1
102
RTVSPost2010Prop46
 90
       50
102
RTVSPost2010PropOp46
 70
     1
102
RTVSPost2010Prop47
 90
       50
102
RTVSPost2010PropOp47
 70
     1
102
RTVSPost2010Prop48
 90
       50
102
RTVSPost2010PropOp48
 70
     1
102
RTVSPost2010Prop49
280
     0
102
RTVSPost2010PropOp49
 70
     1
102
RTVSPost2010Prop50
 90
       50
102
RTVSPost2010PropOp50
 70
     1
102
RTVSPost2010Prop51ColorIndex
 90
      256
102
RTVSPost2010Prop51ColorRGB
 90
-16777216
102
RTVSPost2010PropOp51
 70
     0
102
RTVSPost2010Prop52
140
1.0
102
RTVSPost2010PropOp52
 70
     0
102
RTVSPost2010Prop53
 90
        2
102
RTVSPost2010PropOp53
 70
     1
102
RTVSPost2010Prop54
  1
strokes_ogs.tif
102
RTVSPost2010PropOp54
 70
     1
102
RTVSPost2010Prop55
280
     0
102
RTVSPost2010PropOp55
 70
     1
102
RTVSPost2010Prop56
140
1.0
102
RTVSPost2010PropOp56
 70
     1
102
RTVSPost2010Prop57
140
1.0
102
RTVSPost2010PropOp57
 70
     1
  0
XRECORD
  5
2B2
102
{ACAD_REACTORS
330
2B1
102
}
330
2B1
100
AcDbXrecord
280
     1
102
RTVSPost2010Prop28
280
     0
102
RTVSPost2010PropOp28
 70
     1
102
RTVSPost2010Prop29
280
     1
102
RTVSPost2010PropOp29
 70
     1
102
RTVSPost2010Prop30
280
     1
102
RTVSPost2010PropOp30
 70
     1
102
RTVSPost2010Prop31
280
     0
102
RTVSPost2010PropOp31
 70
     1
102
RTVSPost2010Prop32
280
     0
102
RTVSPost2010PropOp32
 70
     1
102
RTVSPost2010Prop33
280
     0
102
RTVSPost2010PropOp33
 70
     1
102
RTVSPost2010Prop34
280
     0
102
RTVSPost2010PropOp34
 70
     1
102
RTVSPost2010Prop35
280
     0
102
RTVSPost2010PropOp35
 70
     1
102
RTVSPost2010Prop36
280
     0
102
RTVSPost2010PropOp36
 70
     1
102
RTVSPost2010Prop37
 90
       50
102
RTVSPost2010PropOp37
 70
     1
102
RTVSPost2010Prop38
140
0.0
102
RTVSPost2010PropOp38
 70
     1
102
RTVSPost2010Prop39
140
1.0
102
RTVSPost2010PropOp39
 70
     1
102
RTVSPost2010Prop40
 90
        0
102
RTVSPost2010PropOp40
 70
     1
102
RTVSPost2010Prop41ColorIndex
 90
       18
102
RTVSPost2010Prop41ColorRGB
 90
        0
102
RTVSPost2010PropOp41
 70
     1
102
RTVSPost2010Prop42
 90
       50
102
RTVSPost2010PropOp42
 70
     1
102
RTVSPost2010Prop43
 90
        3
102
RTVSPost2010PropOp43
 70
     1
102
RTVSPost2010Prop44ColorIndex
 90
        5
102
RTVSPost2010Prop44ColorRGB
 90
      255
102
RTVSPost2010PropOp44
 70
     1
102
RTVSPost2010Prop45
280
     0
102
RTVSPost2010PropOp45
 70
     1
102
RTVSPost2010Prop46
 90
       50
102
RTVSPost2010PropOp46
 70
     1
102
RTVSPost2010Prop47
 90
       50
102
RTVSPost2010PropOp47
 70
     1
102
RTVSPost2010Prop48
 90
       50
102
RTVSPost2010PropOp48
 70
     1
102
RTVSPost2010Prop49
280
     0
102
RTVSPost2010PropOp49
 70
     1
102
RTVSPost2010Prop50
 90
       50
102
RTVSPost2010PropOp50
 70
     1
102
RTVSPost2010Prop51ColorIndex
 90
      256
102
RTVSPost2010Prop51ColorRGB
 90
-16777216
102
RTVSPost2010PropOp51
 70
     0
102
RTVSPost2010Prop52
140
1.0
102
RTVSPost2010PropOp52
 70
     0
102
RTVSPost2010Prop53
 90
        2
102
RTVSPost2010PropOp53
 70
     1
102
RTVSPost2010Prop54
  1
strokes_ogs.tif
102
RTVSPost2010PropOp54
 70
     1
102
RTVSPost2010Prop55
280
     0
102
RTVSPost2010PropOp55
 70
     1
102
RTVSPost2010Prop56
140
1.0
102
RTVSPost2010PropOp56
 70
     1
102
RTVSPost2010Prop57
140
1.0
102
RTVSPost2010PropOp57
 70
     1
  0
XRECORD
  5
2B8
102
{ACAD_REACTORS
330
2B7
102
}
330
2B7
100
AcDbXrecord
280
     1
102
RTVSPost2010Prop28
280
     0
102
RTVSPost2010PropOp28
 70
     1
102
RTVSPost2010Prop29
280
     1
102
RTVSPost2010PropOp29
 70
     1
102
RTVSPost2010Prop30
280
     1
102
RTVSPost2010PropOp30
 70
     1
102
RTVSPost2010Prop31
280
     0
102
RTVSPost2010PropOp31
 70
     1
102
RTVSPost2010Prop32
280
     0
102
RTVSPost2010PropOp32
 70
     1
102
RTVSPost2010Prop33
280
     0
102
RTVSPost2010PropOp33
 70
     1
102
RTVSPost2010Prop34
280
     0
102
RTVSPost2010PropOp34
 70
     1
102
RTVSPost2010Prop35
280
     0
102
RTVSPost2010PropOp35
 70
     1
102
RTVSPost2010Prop36
280
     0
102
RTVSPost2010PropOp36
 70
     1
102
RTVSPost2010Prop37
 90
       50
102
RTVSPost2010PropOp37
 70
     1
102
RTVSPost2010Prop38
140
0.0
102
RTVSPost2010PropOp38
 70
     1
102
RTVSPost2010Prop39
140
1.0
102
RTVSPost2010PropOp39
 70
     1
102
RTVSPost2010Prop40
 90
        0
102
RTVSPost2010PropOp40
 70
     1
102
RTVSPost2010Prop41ColorIndex
 90
       18
102
RTVSPost2010Prop41ColorRGB
 90
        0
102
RTVSPost2010PropOp41
 70
     1
102
RTVSPost2010Prop42
 90
       50
102
RTVSPost2010PropOp42
 70
     1
102
RTVSPost2010Prop43
 90
        3
102
RTVSPost2010PropOp43
 70
     1
102
RTVSPost2010Prop44ColorIndex
 90
        5
102
RTVSPost2010Prop44ColorRGB
 90
      255
102
RTVSPost2010PropOp44
 70
     1
102
RTVSPost2010Prop45
280
     0
102
RTVSPost2010PropOp45
 70
     1
102
RTVSPost2010Prop46
 90
       50
102
RTVSPost2010PropOp46
 70
     1
102
RTVSPost2010Prop47
 90
       50
102
RTVSPost2010PropOp47
 70
     1
102
RTVSPost2010Prop48
 90
       50
102
RTVSPost2010PropOp48
 70
     1
102
RTVSPost2010Prop49
280
     0
102
RTVSPost2010PropOp49
 70
     1
102
RTVSPost2010Prop50
 90
       50
102
RTVSPost2010PropOp50
 70
     1
102
RTVSPost2010Prop51ColorIndex
 90
      256
102
RTVSPost2010Prop51ColorRGB
 90
-16777216
102
RTVSPost2010PropOp51
 70
     0
102
RTVSPost2010Prop52
140
1.0
102
RTVSPost2010PropOp52
 70
     0
102
RTVSPost2010Prop53
 90
        2
102
RTVSPost2010PropOp53
 70
     1
102
RTVSPost2010Prop54
  1
strokes_ogs.tif
102
RTVSPost2010PropOp54
 70
     1
102
RTVSPost2010Prop55
280
     0
102
RTVSPost2010PropOp55
 70
     1
102
RTVSPost2010Prop56
140
1.0
102
RTVSPost2010PropOp56
 70
     1
102
RTVSPost2010Prop57
140
1.0
102
RTVSPost2010PropOp57
 70
     1
  0
XRECORD
  5
2CC
102
{ACAD_REACTORS
330
2CB
102
}
330
2CB
100
AcDbXrecord
280
     1
102
RTVSPost2010Prop28
280
     0
102
RTVSPost2010PropOp28
 70
     0
102
RTVSPost2010Prop29
280
     1
102
RTVSPost2010PropOp29
 70
     0
102
RTVSPost2010Prop30
280
     1
102
RTVSPost2010PropOp30
 70
     0
102
RTVSPost2010Prop31
280
     0
102
RTVSPost2010PropOp31
 70
     0
102
RTVSPost2010Prop32
280
     0
102
RTVSPost2010PropOp32
 70
     0
102
RTVSPost2010Prop33
280
     0
102
RTVSPost2010PropOp33
 70
     0
102
RTVSPost2010Prop34
280
     0
102
RTVSPost2010PropOp34
 70
     0
102
RTVSPost2010Prop35
280
     0
102
RTVSPost2010PropOp35
 70
     0
102
RTVSPost2010Prop36
280
     0
102
RTVSPost2010PropOp36
 70
     0
102
RTVSPost2010Prop37
 90
       50
102
RTVSPost2010PropOp37
 70
     0
102
RTVSPost2010Prop38
140
0.0
102
RTVSPost2010PropOp38
 70
     0
102
RTVSPost2010Prop39
140
1.0
102
RTVSPost2010PropOp39
 70
     0
102
RTVSPost2010Prop40
 90
        0
102
RTVSPost2010PropOp40
 70
     0
102
RTVSPost2010Prop41ColorIndex
 90
       18
102
RTVSPost2010Prop41ColorRGB
 90
        0
102
RTVSPost2010PropOp41
 70
     0
102
RTVSPost2010Prop42
 90
       50
102
RTVSPost2010PropOp42
 70
     0
102
RTVSPost2010Prop43
 90
        3
102
RTVSPost2010PropOp43
 70
     0
102
RTVSPost2010Prop44ColorIndex
 90
        5
102
RTVSPost2010Prop44ColorRGB
 90
      255
102
RTVSPost2010PropOp44
 70
     0
102
RTVSPost2010Prop45
280
     0
102
RTVSPost2010PropOp45
 70
     0
102
RTVSPost2010Prop46
 90
       50
102
RTVSPost2010PropOp46
 70
     0
102
RTVSPost2010Prop47
 90
       50
102
RTVSPost2010PropOp47
 70
     0
102
RTVSPost2010Prop48
 90
       50
102
RTVSPost2010PropOp48
 70
     0
102
RTVSPost2010Prop49
280
     0
102
RTVSPost2010PropOp49
 70
     0
102
RTVSPost2010Prop50
 90
       50
102
RTVSPost2010PropOp50
 70
     0
102
RTVSPost2010Prop51ColorIndex
 90
      256
102
RTVSPost2010Prop51ColorRGB
 90
-16777216
102
RTVSPost2010PropOp51
 70
     0
102
RTVSPost2010Prop52
140
1.0
102
RTVSPost2010PropOp52
 70
     0
102
RTVSPost2010Prop53
 90
        2
102
RTVSPost2010PropOp53
 70
     0
102
RTVSPost2010Prop54
  1
strokes_ogs.tif
102
RTVSPost2010PropOp54
 70
     0
102
RTVSPost2010Prop55
280
     0
102
RTVSPost2010PropOp55
 70
     0
102
RTVSPost2010Prop56
140
1.0
102
RTVSPost2010PropOp56
 70
     0
102
RTVSPost2010Prop57
140
1.0
102
RTVSPost2010PropOp57
 70
     0
  0
XRECORD
  5
2C6
102
{ACAD_REACTORS
330
2C5
102
}
330
2C5
100
AcDbXrecord
280
     1
102
RTVSPost2010Prop28
280
     0
102
RTVSPost2010PropOp28
 70
     1
102
RTVSPost2010Prop29
280
     1
102
RTVSPost2010PropOp29
 70
     1
102
RTVSPost2010Prop30
280
     1
102
RTVSPost2010PropOp30
 70
     1
102
RTVSPost2010Prop31
280
     0
102
RTVSPost2010PropOp31
 70
     1
102
RTVSPost2010Prop32
280
     0
102
RTVSPost2010PropOp32
 70
     1
102
RTVSPost2010Prop33
280
     0
102
RTVSPost2010PropOp33
 70
     1
102
RTVSPost2010Prop34
280
     0
102
RTVSPost2010PropOp34
 70
     1
102
RTVSPost2010Prop35
280
     0
102
RTVSPost2010PropOp35
 70
     1
102
RTVSPost2010Prop36
280
     0
102
RTVSPost2010PropOp36
 70
     1
102
RTVSPost2010Prop37
 90
       50
102
RTVSPost2010PropOp37
 70
     1
102
RTVSPost2010Prop38
140
0.0
102
RTVSPost2010PropOp38
 70
     1
102
RTVSPost2010Prop39
140
1.0
102
RTVSPost2010PropOp39
 70
     1
102
RTVSPost2010Prop40
 90
        0
102
RTVSPost2010PropOp40
 70
     1
102
RTVSPost2010Prop41ColorIndex
 90
       18
102
RTVSPost2010Prop41ColorRGB
 90
        0
102
RTVSPost2010PropOp41
 70
     1
102
RTVSPost2010Prop42
 90
       50
102
RTVSPost2010PropOp42
 70
     1
102
RTVSPost2010Prop43
 90
        3
102
RTVSPost2010PropOp43
 70
     1
102
RTVSPost2010Prop44ColorIndex
 90
        5
102
RTVSPost2010Prop44ColorRGB
 90
      255
102
RTVSPost2010PropOp44
 70
     1
102
RTVSPost2010Prop45
280
     0
102
RTVSPost2010PropOp45
 70
     1
102
RTVSPost2010Prop46
 90
       50
102
RTVSPost2010PropOp46
 70
     1
102
RTVSPost2010Prop47
 90
       50
102
RTVSPost2010PropOp47
 70
     1
102
RTVSPost2010Prop48
 90
       50
102
RTVSPost2010PropOp48
 70
     1
102
RTVSPost2010Prop49
280
     0
102
RTVSPost2010PropOp49
 70
     1
102
RTVSPost2010Prop50
 90
       50
102
RTVSPost2010PropOp50
 70
     1
102
RTVSPost2010Prop51ColorIndex
 90
      256
102
RTVSPost2010Prop51ColorRGB
 90
-16777216
102
RTVSPost2010PropOp51
 70
     0
102
RTVSPost2010Prop52
140
1.0
102
RTVSPost2010PropOp52
 70
     0
102
RTVSPost2010Prop53
 90
        2
102
RTVSPost2010PropOp53
 70
     1
102
RTVSPost2010Prop54
  1
strokes_ogs.tif
102
RTVSPost2010PropOp54
 70
     1
102
RTVSPost2010Prop55
280
     0
102
RTVSPost2010PropOp55
 70
     1
102
RTVSPost2010Prop56
140
1.0
102
RTVSPost2010PropOp56
 70
     1
102
RTVSPost2010Prop57
140
1.0
102
RTVSPost2010PropOp57
 70
     1
  0
XRECORD
  5
2CE
102
{ACAD_REACTORS
330
2CD
102
}
330
2CD
100
AcDbXrecord
280
     1
102
RTVSPost2010Prop28
280
     0
102
RTVSPost2010PropOp28
 70
     0
102
RTVSPost2010Prop29
280
     1
102
RTVSPost2010PropOp29
 70
     0
102
RTVSPost2010Prop30
280
     1
102
RTVSPost2010PropOp30
 70
     0
102
RTVSPost2010Prop31
280
     0
102
RTVSPost2010PropOp31
 70
     0
102
RTVSPost2010Prop32
280
     0
102
RTVSPost2010PropOp32
 70
     0
102
RTVSPost2010Prop33
280
     0
102
RTVSPost2010PropOp33
 70
     0
102
RTVSPost2010Prop34
280
     0
102
RTVSPost2010PropOp34
 70
     0
102
RTVSPost2010Prop35
280
     0
102
RTVSPost2010PropOp35
 70
     0
102
RTVSPost2010Prop36
280
     0
102
RTVSPost2010PropOp36
 70
     0
102
RTVSPost2010Prop37
 90
       50
102
RTVSPost2010PropOp37
 70
     0
102
RTVSPost2010Prop38
140
0.0
102
RTVSPost2010PropOp38
 70
     0
102
RTVSPost2010Prop39
140
1.0
102
RTVSPost2010PropOp39
 70
     0
102
RTVSPost2010Prop40
 90
        0
102
RTVSPost2010PropOp40
 70
     0
102
RTVSPost2010Prop41ColorIndex
 90
       18
102
RTVSPost2010Prop41ColorRGB
 90
        0
102
RTVSPost2010PropOp41
 70
     0
102
RTVSPost2010Prop42
 90
       50
102
RTVSPost2010PropOp42
 70
     0
102
RTVSPost2010Prop43
 90
        3
102
RTVSPost2010PropOp43
 70
     0
102
RTVSPost2010Prop44ColorIndex
 90
        5
102
RTVSPost2010Prop44ColorRGB
 90
      255
102
RTVSPost2010PropOp44
 70
     0
102
RTVSPost2010Prop45
280
     0
102
RTVSPost2010PropOp45
 70
     0
102
RTVSPost2010Prop46
 90
       50
102
RTVSPost2010PropOp46
 70
     0
102
RTVSPost2010Prop47
 90
       50
102
RTVSPost2010PropOp47
 70
     0
102
RTVSPost2010Prop48
 90
       50
102
RTVSPost2010PropOp48
 70
     0
102
RTVSPost2010Prop49
280
     0
102
RTVSPost2010PropOp49
 70
     0
102
RTVSPost2010Prop50
 90
       50
102
RTVSPost2010PropOp50
 70
     0
102
RTVSPost2010Prop51ColorIndex
 90
      256
102
RTVSPost2010Prop51ColorRGB
 90
-16777216
102
RTVSPost2010PropOp51
 70
     0
102
RTVSPost2010Prop52
140
1.0
102
RTVSPost2010PropOp52
 70
     0
102
RTVSPost2010Prop53
 90
        2
102
RTVSPost2010PropOp53
 70
     0
102
RTVSPost2010Prop54
  1
strokes_ogs.tif
102
RTVSPost2010PropOp54
 70
     0
102
RTVSPost2010Prop55
280
     0
102
RTVSPost2010PropOp55
 70
     0
102
RTVSPost2010Prop56
140
1.0
102
RTVSPost2010PropOp56
 70
     0
102
RTVSPost2010Prop57
140
1.0
102
RTVSPost2010PropOp57
 70
     0
  0
XRECORD
  5
2BC
102
{ACAD_REACTORS
330
2BB
102
}
330
2BB
100
AcDbXrecord
280
     1
102
RTVSPost2010Prop28
280
     0
102
RTVSPost2010PropOp28
 70
     1
102
RTVSPost2010Prop29
280
     1
102
RTVSPost2010PropOp29
 70
     1
102
RTVSPost2010Prop30
280
     1
102
RTVSPost2010PropOp30
 70
     1
102
RTVSPost2010Prop31
280
     0
102
RTVSPost2010PropOp31
 70
     1
102
RTVSPost2010Prop32
280
     0
102
RTVSPost2010PropOp32
 70
     1
102
RTVSPost2010Prop33
280
     0
102
RTVSPost2010PropOp33
 70
     1
102
RTVSPost2010Prop34
280
     0
102
RTVSPost2010PropOp34
 70
     1
102
RTVSPost2010Prop35
280
     0
102
RTVSPost2010PropOp35
 70
     1
102
RTVSPost2010Prop36
280
     0
102
RTVSPost2010PropOp36
 70
     1
102
RTVSPost2010Prop37
 90
       50
102
RTVSPost2010PropOp37
 70
     1
102
RTVSPost2010Prop38
140
0.0
102
RTVSPost2010PropOp38
 70
     1
102
RTVSPost2010Prop39
140
1.0
102
RTVSPost2010PropOp39
 70
     1
102
RTVSPost2010Prop40
 90
        0
102
RTVSPost2010PropOp40
 70
     1
102
RTVSPost2010Prop41ColorIndex
 90
       18
102
RTVSPost2010Prop41ColorRGB
 90
        0
102
RTVSPost2010PropOp41
 70
     1
102
RTVSPost2010Prop42
 90
       50
102
RTVSPost2010PropOp42
 70
     1
102
RTVSPost2010Prop43
 90
        3
102
RTVSPost2010PropOp43
 70
     1
102
RTVSPost2010Prop44ColorIndex
 90
        5
102
RTVSPost2010Prop44ColorRGB
 90
      255
102
RTVSPost2010PropOp44
 70
     1
102
RTVSPost2010Prop45
280
     0
102
RTVSPost2010PropOp45
 70
     1
102
RTVSPost2010Prop46
 90
       50
102
RTVSPost2010PropOp46
 70
     1
102
RTVSPost2010Prop47
 90
       50
102
RTVSPost2010PropOp47
 70
     1
102
RTVSPost2010Prop48
 90
       50
102
RTVSPost2010PropOp48
 70
     1
102
RTVSPost2010Prop49
280
     0
102
RTVSPost2010PropOp49
 70
     1
102
RTVSPost2010Prop50
 90
       50
102
RTVSPost2010PropOp50
 70
     1
102
RTVSPost2010Prop51ColorIndex
 90
      256
102
RTVSPost2010Prop51ColorRGB
 90
-16777216
102
RTVSPost2010PropOp51
 70
     0
102
RTVSPost2010Prop52
140
1.0
102
RTVSPost2010PropOp52
 70
     0
102
RTVSPost2010Prop53
 90
        2
102
RTVSPost2010PropOp53
 70
     1
102
RTVSPost2010Prop54
  1
strokes_ogs.tif
102
RTVSPost2010PropOp54
 70
     1
102
RTVSPost2010Prop55
280
     0
102
RTVSPost2010PropOp55
 70
     1
102
RTVSPost2010Prop56
140
1.0
102
RTVSPost2010PropOp56
 70
     1
102
RTVSPost2010Prop57
140
1.0
102
RTVSPost2010PropOp57
 70
     1
  0
XRECORD
  5
2DA
102
{ACAD_REACTORS
330
2D9
102
}
330
2D9
100
AcDbXrecord
280
     1
102
RTVSPost2010Prop28
280
     0
102
RTVSPost2010PropOp28
 70
     1
102
RTVSPost2010Prop29
280
     1
102
RTVSPost2010PropOp29
 70
     1
102
RTVSPost2010Prop30
280
     1
102
RTVSPost2010PropOp30
 70
     1
102
RTVSPost2010Prop31
280
     0
102
RTVSPost2010PropOp31
 70
     1
102
RTVSPost2010Prop32
280
     0
102
RTVSPost2010PropOp32
 70
     1
102
RTVSPost2010Prop33
280
     0
102
RTVSPost2010PropOp33
 70
     1
102
RTVSPost2010Prop34
280
     0
102
RTVSPost2010PropOp34
 70
     1
102
RTVSPost2010Prop35
280
     0
102
RTVSPost2010PropOp35
 70
     1
102
RTVSPost2010Prop36
280
     0
102
RTVSPost2010PropOp36
 70
     1
102
RTVSPost2010Prop37
 90
       50
102
RTVSPost2010PropOp37
 70
     1
102
RTVSPost2010Prop38
140
0.0
102
RTVSPost2010PropOp38
 70
     1
102
RTVSPost2010Prop39
140
1.0
102
RTVSPost2010PropOp39
 70
     1
102
RTVSPost2010Prop40
 90
        0
102
RTVSPost2010PropOp40
 70
     1
102
RTVSPost2010Prop41ColorIndex
 90
       18
102
RTVSPost2010Prop41ColorRGB
 90
        0
102
RTVSPost2010PropOp41
 70
     1
102
RTVSPost2010Prop42
 90
       50
102
RTVSPost2010PropOp42
 70
     1
102
RTVSPost2010Prop43
 90
        3
102
RTVSPost2010PropOp43
 70
     1
102
RTVSPost2010Prop44ColorIndex
 90
        5
102
RTVSPost2010Prop44ColorRGB
 90
      255
102
RTVSPost2010PropOp44
 70
     1
102
RTVSPost2010Prop45
280
     0
102
RTVSPost2010PropOp45
 70
     1
102
RTVSPost2010Prop46
 90
       50
102
RTVSPost2010PropOp46
 70
     1
102
RTVSPost2010Prop47
 90
       50
102
RTVSPost2010PropOp47
 70
     1
102
RTVSPost2010Prop48
 90
       50
102
RTVSPost2010PropOp48
 70
     1
102
RTVSPost2010Prop49
280
     0
102
RTVSPost2010PropOp49
 70
     1
102
RTVSPost2010Prop50
 90
       50
102
RTVSPost2010PropOp50
 70
     1
102
RTVSPost2010Prop51ColorIndex
 90
      256
102
RTVSPost2010Prop51ColorRGB
 90
-16777216
102
RTVSPost2010PropOp51
 70
     0
102
RTVSPost2010Prop52
140
1.0
102
RTVSPost2010PropOp52
 70
     0
102
RTVSPost2010Prop53
 90
        2
102
RTVSPost2010PropOp53
 70
     1
102
RTVSPost2010Prop54
  1
strokes_ogs.tif
102
RTVSPost2010PropOp54
 70
     1
102
RTVSPost2010Prop55
280
     0
102
RTVSPost2010PropOp55
 70
     1
102
RTVSPost2010Prop56
140
1.0
102
RTVSPost2010PropOp56
 70
     1
102
RTVSPost2010Prop57
140
1.0
102
RTVSPost2010PropOp57
 70
     1
  0
XRECORD
  5
2D8
102
{ACAD_REACTORS
330
2D7
102
}
330
2D7
100
AcDbXrecord
280
     1
102
RTVSPost2010Prop28
280
     0
102
RTVSPost2010PropOp28
 70
     1
102
RTVSPost2010Prop29
280
     1
102
RTVSPost2010PropOp29
 70
     1
102
RTVSPost2010Prop30
280
     1
102
RTVSPost2010PropOp30
 70
     1
102
RTVSPost2010Prop31
280
     0
102
RTVSPost2010PropOp31
 70
     1
102
RTVSPost2010Prop32
280
     0
102
RTVSPost2010PropOp32
 70
     1
102
RTVSPost2010Prop33
280
     0
102
RTVSPost2010PropOp33
 70
     1
102
RTVSPost2010Prop34
280
     0
102
RTVSPost2010PropOp34
 70
     1
102
RTVSPost2010Prop35
280
     0
102
RTVSPost2010PropOp35
 70
     1
102
RTVSPost2010Prop36
280
     0
102
RTVSPost2010PropOp36
 70
     1
102
RTVSPost2010Prop37
 90
       50
102
RTVSPost2010PropOp37
 70
     1
102
RTVSPost2010Prop38
140
0.0
102
RTVSPost2010PropOp38
 70
     1
102
RTVSPost2010Prop39
140
1.0
102
RTVSPost2010PropOp39
 70
     1
102
RTVSPost2010Prop40
 90
        0
102
RTVSPost2010PropOp40
 70
     1
102
RTVSPost2010Prop41ColorIndex
 90
       18
102
RTVSPost2010Prop41ColorRGB
 90
        0
102
RTVSPost2010PropOp41
 70
     1
102
RTVSPost2010Prop42
 90
       50
102
RTVSPost2010PropOp42
 70
     1
102
RTVSPost2010Prop43
 90
        3
102
RTVSPost2010PropOp43
 70
     1
102
RTVSPost2010Prop44ColorIndex
 90
        5
102
RTVSPost2010Prop44ColorRGB
 90
      255
102
RTVSPost2010PropOp44
 70
     1
102
RTVSPost2010Prop45
280
     0
102
RTVSPost2010PropOp45
 70
     1
102
RTVSPost2010Prop46
 90
       50
102
RTVSPost2010PropOp46
 70
     1
102
RTVSPost2010Prop47
 90
       50
102
RTVSPost2010PropOp47
 70
     1
102
RTVSPost2010Prop48
 90
       50
102
RTVSPost2010PropOp48
 70
     1
102
RTVSPost2010Prop49
280
     0
102
RTVSPost2010PropOp49
 70
     1
102
RTVSPost2010Prop50
 90
       50
102
RTVSPost2010PropOp50
 70
     1
102
RTVSPost2010Prop51ColorIndex
 90
      256
102
RTVSPost2010Prop51ColorRGB
 90
-16777216
102
RTVSPost2010PropOp51
 70
     0
102
RTVSPost2010Prop52
140
1.0
102
RTVSPost2010PropOp52
 70
     0
102
RTVSPost2010Prop53
 90
        2
102
RTVSPost2010PropOp53
 70
     1
102
RTVSPost2010Prop54
  1
strokes_ogs.tif
102
RTVSPost2010PropOp54
 70
     1
102
RTVSPost2010Prop55
280
     0
102
RTVSPost2010PropOp55
 70
     1
102
RTVSPost2010Prop56
140
1.0
102
RTVSPost2010PropOp56
 70
     1
102
RTVSPost2010Prop57
140
1.0
102
RTVSPost2010PropOp57
 70
     1
  0
XRECORD
  5
2D2
102
{ACAD_REACTORS
330
2D1
102
}
330
2D1
100
AcDbXrecord
280
     1
102
RTVSPost2010Prop28
280
     0
102
RTVSPost2010PropOp28
 70
     1
102
RTVSPost2010Prop29
280
     1
102
RTVSPost2010PropOp29
 70
     1
102
RTVSPost2010Prop30
280
     1
102
RTVSPost2010PropOp30
 70
     1
102
RTVSPost2010Prop31
280
     0
102
RTVSPost2010PropOp31
 70
     1
102
RTVSPost2010Prop32
280
     0
102
RTVSPost2010PropOp32
 70
     1
102
RTVSPost2010Prop33
280
     0
102
RTVSPost2010PropOp33
 70
     1
102
RTVSPost2010Prop34
280
     0
102
RTVSPost2010PropOp34
 70
     1
102
RTVSPost2010Prop35
280
     0
102
RTVSPost2010PropOp35
 70
     1
102
RTVSPost2010Prop36
280
     0
102
RTVSPost2010PropOp36
 70
     1
102
RTVSPost2010Prop37
 90
       50
102
RTVSPost2010PropOp37
 70
     1
102
RTVSPost2010Prop38
140
0.0
102
RTVSPost2010PropOp38
 70
     1
102
RTVSPost2010Prop39
140
1.0
102
RTVSPost2010PropOp39
 70
     1
102
RTVSPost2010Prop40
 90
        0
102
RTVSPost2010PropOp40
 70
     1
102
RTVSPost2010Prop41ColorIndex
 90
       18
102
RTVSPost2010Prop41ColorRGB
 90
        0
102
RTVSPost2010PropOp41
 70
     1
102
RTVSPost2010Prop42
 90
       50
102
RTVSPost2010PropOp42
 70
     1
102
RTVSPost2010Prop43
 90
        3
102
RTVSPost2010PropOp43
 70
     1
102
RTVSPost2010Prop44ColorIndex
 90
        5
102
RTVSPost2010Prop44ColorRGB
 90
      255
102
RTVSPost2010PropOp44
 70
     1
102
RTVSPost2010Prop45
280
     0
102
RTVSPost2010PropOp45
 70
     1
102
RTVSPost2010Prop46
 90
       50
102
RTVSPost2010PropOp46
 70
     1
102
RTVSPost2010Prop47
 90
       50
102
RTVSPost2010PropOp47
 70
     1
102
RTVSPost2010Prop48
 90
       50
102
RTVSPost2010PropOp48
 70
     1
102
RTVSPost2010Prop49
280
     0
102
RTVSPost2010PropOp49
 70
     1
102
RTVSPost2010Prop50
 90
       50
102
RTVSPost2010PropOp50
 70
     1
102
RTVSPost2010Prop51ColorIndex
 90
      256
102
RTVSPost2010Prop51ColorRGB
 90
-16777216
102
RTVSPost2010PropOp51
 70
     0
102
RTVSPost2010Prop52
140
1.0
102
RTVSPost2010PropOp52
 70
     0
102
RTVSPost2010Prop53
 90
        2
102
RTVSPost2010PropOp53
 70
     1
102
RTVSPost2010Prop54
  1
strokes_ogs.tif
102
RTVSPost2010PropOp54
 70
     1
102
RTVSPost2010Prop55
280
     0
102
RTVSPost2010PropOp55
 70
     1
102
RTVSPost2010Prop56
140
1.0
102
RTVSPost2010PropOp56
 70
     1
102
RTVSPost2010Prop57
140
1.0
102
RTVSPost2010PropOp57
 70
     1
  0
XRECORD
  5
2D4
102
{ACAD_REACTORS
330
2D3
102
}
330
2D3
100
AcDbXrecord
280
     1
102
RTVSPost2010Prop28
280
     0
102
RTVSPost2010PropOp28
 70
     1
102
RTVSPost2010Prop29
280
     1
102
RTVSPost2010PropOp29
 70
     1
102
RTVSPost2010Prop30
280
     1
102
RTVSPost2010PropOp30
 70
     1
102
RTVSPost2010Prop31
280
     0
102
RTVSPost2010PropOp31
 70
     1
102
RTVSPost2010Prop32
280
     0
102
RTVSPost2010PropOp32
 70
     1
102
RTVSPost2010Prop33
280
     0
102
RTVSPost2010PropOp33
 70
     1
102
RTVSPost2010Prop34
280
     0
102
RTVSPost2010PropOp34
 70
     1
102
RTVSPost2010Prop35
280
     0
102
RTVSPost2010PropOp35
 70
     1
102
RTVSPost2010Prop36
280
     0
102
RTVSPost2010PropOp36
 70
     1
102
RTVSPost2010Prop37
 90
       50
102
RTVSPost2010PropOp37
 70
     1
102
RTVSPost2010Prop38
140
0.0
102
RTVSPost2010PropOp38
 70
     1
102
RTVSPost2010Prop39
140
1.0
102
RTVSPost2010PropOp39
 70
     1
102
RTVSPost2010Prop40
 90
        0
102
RTVSPost2010PropOp40
 70
     1
102
RTVSPost2010Prop41ColorIndex
 90
       18
102
RTVSPost2010Prop41ColorRGB
 90
        0
102
RTVSPost2010PropOp41
 70
     1
102
RTVSPost2010Prop42
 90
       50
102
RTVSPost2010PropOp42
 70
     1
102
RTVSPost2010Prop43
 90
        3
102
RTVSPost2010PropOp43
 70
     1
102
RTVSPost2010Prop44ColorIndex
 90
        5
102
RTVSPost2010Prop44ColorRGB
 90
      255
102
RTVSPost2010PropOp44
 70
     1
102
RTVSPost2010Prop45
280
     0
102
RTVSPost2010PropOp45
 70
     1
102
RTVSPost2010Prop46
 90
       50
102
RTVSPost2010PropOp46
 70
     1
102
RTVSPost2010Prop47
 90
       50
102
RTVSPost2010PropOp47
 70
     1
102
RTVSPost2010Prop48
 90
       50
102
RTVSPost2010PropOp48
 70
     1
102
RTVSPost2010Prop49
280
     0
102
RTVSPost2010PropOp49
 70
     1
102
RTVSPost2010Prop50
 90
       50
102
RTVSPost2010PropOp50
 70
     1
102
RTVSPost2010Prop51ColorIndex
 90
      256
102
RTVSPost2010Prop51ColorRGB
 90
-16777216
102
RTVSPost2010PropOp51
 70
     0
102
RTVSPost2010Prop52
140
1.0
102
RTVSPost2010PropOp52
 70
     0
102
RTVSPost2010Prop53
 90
        2
102
RTVSPost2010PropOp53
 70
     1
102
RTVSPost2010Prop54
  1
strokes_ogs.tif
102
RTVSPost2010PropOp54
 70
     1
102
RTVSPost2010Prop55
280
     0
102
RTVSPost2010PropOp55
 70
     1
102
RTVSPost2010Prop56
140
1.0
102
RTVSPost2010PropOp56
 70
     1
102
RTVSPost2010Prop57
140
1.0
102
RTVSPost2010PropOp57
 70
     1
  0
XRECORD
  5
2C4
102
{ACAD_REACTORS
330
2C3
102
}
330
2C3
100
AcDbXrecord
280
     1
102
RTVSPost2010Prop28
280
     0
102
RTVSPost2010PropOp28
 70
     1
102
RTVSPost2010Prop29
280
     1
102
RTVSPost2010PropOp29
 70
     1
102
RTVSPost2010Prop30
280
     1
102
RTVSPost2010PropOp30
 70
     1
102
RTVSPost2010Prop31
280
     0
102
RTVSPost2010PropOp31
 70
     1
102
RTVSPost2010Prop32
280
     0
102
RTVSPost2010PropOp32
 70
     1
102
RTVSPost2010Prop33
280
     0
102
RTVSPost2010PropOp33
 70
     1
102
RTVSPost2010Prop34
280
     0
102
RTVSPost2010PropOp34
 70
     1
102
RTVSPost2010Prop35
280
     0
102
RTVSPost2010PropOp35
 70
     1
102
RTVSPost2010Prop36
280
     0
102
RTVSPost2010PropOp36
 70
     1
102
RTVSPost2010Prop37
 90
       50
102
RTVSPost2010PropOp37
 70
     1
102
RTVSPost2010Prop38
140
0.0
102
RTVSPost2010PropOp38
 70
     1
102
RTVSPost2010Prop39
140
1.0
102
RTVSPost2010PropOp39
 70
     1
102
RTVSPost2010Prop40
 90
        0
102
RTVSPost2010PropOp40
 70
     1
102
RTVSPost2010Prop41ColorIndex
 90
       18
102
RTVSPost2010Prop41ColorRGB
 90
        0
102
RTVSPost2010PropOp41
 70
     1
102
RTVSPost2010Prop42
 90
       50
102
RTVSPost2010PropOp42
 70
     1
102
RTVSPost2010Prop43
 90
        3
102
RTVSPost2010PropOp43
 70
     1
102
RTVSPost2010Prop44ColorIndex
 90
        5
102
RTVSPost2010Prop44ColorRGB
 90
      255
102
RTVSPost2010PropOp44
 70
     1
102
RTVSPost2010Prop45
280
     0
102
RTVSPost2010PropOp45
 70
     1
102
RTVSPost2010Prop46
 90
       50
102
RTVSPost2010PropOp46
 70
     1
102
RTVSPost2010Prop47
 90
       50
102
RTVSPost2010PropOp47
 70
     1
102
RTVSPost2010Prop48
 90
       50
102
RTVSPost2010PropOp48
 70
     1
102
RTVSPost2010Prop49
280
     0
102
RTVSPost2010PropOp49
 70
     1
102
RTVSPost2010Prop50
 90
       50
102
RTVSPost2010PropOp50
 70
     1
102
RTVSPost2010Prop51ColorIndex
 90
      256
102
RTVSPost2010Prop51ColorRGB
 90
-16777216
102
RTVSPost2010PropOp51
 70
     0
102
RTVSPost2010Prop52
140
1.0
102
RTVSPost2010PropOp52
 70
     0
102
RTVSPost2010Prop53
 90
        2
102
RTVSPost2010PropOp53
 70
     1
102
RTVSPost2010Prop54
  1
strokes_ogs.tif
102
RTVSPost2010PropOp54
 70
     1
102
RTVSPost2010Prop55
280
     0
102
RTVSPost2010PropOp55
 70
     1
102
RTVSPost2010Prop56
140
1.0
102
RTVSPost2010PropOp56
 70
     1
102
RTVSPost2010Prop57
140
1.0
102
RTVSPost2010PropOp57
 70
     1
  0
XRECORD
  5
2B6
102
{ACAD_REACTORS
330
2B5
102
}
330
2B5
100
AcDbXrecord
280
     1
102
RTVSPost2010Prop28
280
     0
102
RTVSPost2010PropOp28
 70
     1
102
RTVSPost2010Prop29
280
     1
102
RTVSPost2010PropOp29
 70
     1
102
RTVSPost2010Prop30
280
     1
102
RTVSPost2010PropOp30
 70
     1
102
RTVSPost2010Prop31
280
     0
102
RTVSPost2010PropOp31
 70
     1
102
RTVSPost2010Prop32
280
     0
102
RTVSPost2010PropOp32
 70
     1
102
RTVSPost2010Prop33
280
     0
102
RTVSPost2010PropOp33
 70
     1
102
RTVSPost2010Prop34
280
     0
102
RTVSPost2010PropOp34
 70
     1
102
RTVSPost2010Prop35
280
     0
102
RTVSPost2010PropOp35
 70
     1
102
RTVSPost2010Prop36
280
     0
102
RTVSPost2010PropOp36
 70
     1
102
RTVSPost2010Prop37
 90
       50
102
RTVSPost2010PropOp37
 70
     1
102
RTVSPost2010Prop38
140
0.0
102
RTVSPost2010PropOp38
 70
     1
102
RTVSPost2010Prop39
140
1.0
102
RTVSPost2010PropOp39
 70
     1
102
RTVSPost2010Prop40
 90
        0
102
RTVSPost2010PropOp40
 70
     1
102
RTVSPost2010Prop41ColorIndex
 90
       18
102
RTVSPost2010Prop41ColorRGB
 90
        0
102
RTVSPost2010PropOp41
 70
     1
102
RTVSPost2010Prop42
 90
       50
102
RTVSPost2010PropOp42
 70
     1
102
RTVSPost2010Prop43
 90
        3
102
RTVSPost2010PropOp43
 70
     1
102
RTVSPost2010Prop44ColorIndex
 90
        5
102
RTVSPost2010Prop44ColorRGB
 90
      255
102
RTVSPost2010PropOp44
 70
     1
102
RTVSPost2010Prop45
280
     0
102
RTVSPost2010PropOp45
 70
     1
102
RTVSPost2010Prop46
 90
       50
102
RTVSPost2010PropOp46
 70
     1
102
RTVSPost2010Prop47
 90
       50
102
RTVSPost2010PropOp47
 70
     1
102
RTVSPost2010Prop48
 90
       50
102
RTVSPost2010PropOp48
 70
     1
102
RTVSPost2010Prop49
280
     0
102
RTVSPost2010PropOp49
 70
     1
102
RTVSPost2010Prop50
 90
       50
102
RTVSPost2010PropOp50
 70
     1
102
RTVSPost2010Prop51ColorIndex
 90
      256
102
RTVSPost2010Prop51ColorRGB
 90
-16777216
102
RTVSPost2010PropOp51
 70
     0
102
RTVSPost2010Prop52
140
1.0
102
RTVSPost2010PropOp52
 70
     0
102
RTVSPost2010Prop53
 90
        2
102
RTVSPost2010PropOp53
 70
     1
102
RTVSPost2010Prop54
  1
strokes_ogs.tif
102
RTVSPost2010PropOp54
 70
     1
102
RTVSPost2010Prop55
280
     0
102
RTVSPost2010PropOp55
 70
     1
102
RTVSPost2010Prop56
140
1.0
102
RTVSPost2010PropOp56
 70
     1
102
RTVSPost2010Prop57
140
1.0
102
RTVSPost2010PropOp57
 70
     1
  0
XRECORD
  5
2D6
102
{ACAD_REACTORS
330
2D5
102
}
330
2D5
100
AcDbXrecord
280
     1
102
RTVSPost2010Prop28
280
     0
102
RTVSPost2010PropOp28
 70
     1
102
RTVSPost2010Prop29
280
     1
102
RTVSPost2010PropOp29
 70
     1
102
RTVSPost2010Prop30
280
     1
102
RTVSPost2010PropOp30
 70
     1
102
RTVSPost2010Prop31
280
     0
102
RTVSPost2010PropOp31
 70
     1
102
RTVSPost2010Prop32
280
     0
102
RTVSPost2010PropOp32
 70
     1
102
RTVSPost2010Prop33
280
     0
102
RTVSPost2010PropOp33
 70
     1
102
RTVSPost2010Prop34
280
     0
102
RTVSPost2010PropOp34
 70
     1
102
RTVSPost2010Prop35
280
     0
102
RTVSPost2010PropOp35
 70
     1
102
RTVSPost2010Prop36
280
     0
102
RTVSPost2010PropOp36
 70
     1
102
RTVSPost2010Prop37
 90
       50
102
RTVSPost2010PropOp37
 70
     1
102
RTVSPost2010Prop38
140
0.0
102
RTVSPost2010PropOp38
 70
     1
102
RTVSPost2010Prop39
140
1.0
102
RTVSPost2010PropOp39
 70
     1
102
RTVSPost2010Prop40
 90
        0
102
RTVSPost2010PropOp40
 70
     1
102
RTVSPost2010Prop41ColorIndex
 90
       18
102
RTVSPost2010Prop41ColorRGB
 90
        0
102
RTVSPost2010PropOp41
 70
     1
102
RTVSPost2010Prop42
 90
       50
102
RTVSPost2010PropOp42
 70
     1
102
RTVSPost2010Prop43
 90
        3
102
RTVSPost2010PropOp43
 70
     1
102
RTVSPost2010Prop44ColorIndex
 90
        5
102
RTVSPost2010Prop44ColorRGB
 90
      255
102
RTVSPost2010PropOp44
 70
     1
102
RTVSPost2010Prop45
280
     0
102
RTVSPost2010PropOp45
 70
     1
102
RTVSPost2010Prop46
 90
       50
102
RTVSPost2010PropOp46
 70
     1
102
RTVSPost2010Prop47
 90
       50
102
RTVSPost2010PropOp47
 70
     1
102
RTVSPost2010Prop48
 90
       50
102
RTVSPost2010PropOp48
 70
     1
102
RTVSPost2010Prop49
280
     0
102
RTVSPost2010PropOp49
 70
     1
102
RTVSPost2010Prop50
 90
       50
102
RTVSPost2010PropOp50
 70
     1
102
RTVSPost2010Prop51ColorIndex
 90
      256
102
RTVSPost2010Prop51ColorRGB
 90
-16777216
102
RTVSPost2010PropOp51
 70
     0
102
RTVSPost2010Prop52
140
1.0
102
RTVSPost2010PropOp52
 70
     0
102
RTVSPost2010Prop53
 90
        2
102
RTVSPost2010PropOp53
 70
     1
102
RTVSPost2010Prop54
  1
strokes_ogs.tif
102
RTVSPost2010PropOp54
 70
     1
102
RTVSPost2010Prop55
280
     0
102
RTVSPost2010PropOp55
 70
     1
102
RTVSPost2010Prop56
140
1.0
102
RTVSPost2010PropOp56
 70
     1
102
RTVSPost2010Prop57
140
1.0
102
RTVSPost2010PropOp57
 70
     1
  0
ENDSEC
  0
EOF
