  0
SECTION
  2
HEADER
  9
$ACADVER
  1
AC1024
  9
$ACADMAINTVER
 70
     6
  9
$DWGCODEPAGE
  3
ANSI_1252
  9
$LASTSAVEDBY
  1
BirnerR
  9
$INSBASE
 10
0.0
 20
0.0
 30
0.0
  9
$EXTMIN
 10
-3.833383
 20
-8.16825
 30
-3.833383
  9
$EXTMAX
 10
-2.783383
 20
-6.68325
 30
-2.783383
  9
$LIMMIN
 10
-3.833383
 20
-8.16825
  9
$LIMMAX
 10
-2.783383
 20
-6.68325
  9
$ORTHOMODE
 70
     0
  9
$REGENMODE
 70
     1
  9
$FILLMODE
 70
     1
  9
$QTEXTMODE
 70
     0
  9
$MIRRTEXT
 70
     1
  9
$LTSCALE
 40
1.0
  9
$ATTMODE
 70
     1
  9
$TEXTSIZE
 40
0.2
  9
$TRACEWID
 40
0.05
  9
$TEXTSTYLE
  7
Standard
  9
$CLAYER
  8
0
  9
$CELTYPE
  6
ByLayer
  9
$CECOLOR
 62
   256
  9
$CELTSCALE
 40
1.0
  9
$DISPSILH
 70
     0
  9
$DIMSCALE
 40
1.0
  9
$DIMASZ
 40
0.18
  9
$DIMEXO
 40
0.0625
  9
$DIMDLI
 40
0.38
  9
$DIMRND
 40
0.0
  9
$DIMDLE
 40
0.0
  9
$DIMEXE
 40
0.18
  9
$DIMTP
 40
0.0
  9
$DIMTM
 40
0.0
  9
$DIMTXT
 40
0.18
  9
$DIMCEN
 40
0.09
  9
$DIMTSZ
 40
0.0
  9
$DIMTOL
 70
     0
  9
$DIMLIM
 70
     0
  9
$DIMTIH
 70
     1
  9
$DIMTOH
 70
     1
  9
$DIMSE1
 70
     0
  9
$DIMSE2
 70
     0
  9
$DIMTAD
 70
     0
  9
$DIMZIN
 70
     0
  9
$DIMBLK
  1

  9
$DIMASO
 70
     1
  9
$DIMSHO
 70
     1
  9
$DIMPOST
  1

  9
$DIMAPOST
  1

  9
$DIMALT
 70
     0
  9
$DIMALTD
 70
     2
  9
$DIMALTF
 40
25.4
  9
$DIMLFAC
 40
1.0
  9
$DIMTOFL
 70
     0
  9
$DIMTVP
 40
0.0
  9
$DIMTIX
 70
     0
  9
$DIMSOXD
 70
     0
  9
$DIMSAH
 70
     0
  9
$DIMBLK1
  1

  9
$DIMBLK2
  1

  9
$DIMSTYLE
  2
Standard
  9
$DIMCLRD
 70
     0
  9
$DIMCLRE
 70
     0
  9
$DIMCLRT
 70
     0
  9
$DIMTFAC
 40
1.0
  9
$DIMGAP
 40
0.09
  9
$DIMJUST
 70
     0
  9
$DIMSD1
 70
     0
  9
$DIMSD2
 70
     0
  9
$DIMTOLJ
 70
     1
  9
$DIMTZIN
 70
     0
  9
$DIMALTZ
 70
     0
  9
$DIMALTTZ
 70
     0
  9
$DIMUPT
 70
     0
  9
$DIMDEC
 70
     4
  9
$DIMTDEC
 70
     4
  9
$DIMALTU
 70
     2
  9
$DIMALTTD
 70
     2
  9
$DIMTXSTY
  7
Standard
  9
$DIMAUNIT
 70
     0
  9
$DIMADEC
 70
     0
  9
$DIMALTRND
 40
0.0
  9
$DIMAZIN
 70
     0
  9
$DIMDSEP
 70
    46
  9
$DIMATFIT
 70
     3
  9
$DIMFRAC
 70
     0
  9
$DIMLDRBLK
  1

  9
$DIMLUNIT
 70
     2
  9
$DIMLWD
 70
    -2
  9
$DIMLWE
 70
    -2
  9
$DIMTMOVE
 70
     0
  9
$DIMFXL
 40
1.0
  9
$DIMFXLON
 70
     0
  9
$DIMJOGANG
 40
0.785398
  9
$DIMTFILL
 70
     0
  9
$DIMTFILLCLR
 70
     0
  9
$DIMARCSYM
 70
     0
  9
$DIMLTYPE
  6

  9
$DIMLTEX1
  6

  9
$DIMLTEX2
  6

  9
$DIMTXTDIRECTION
 70
     0
  9
$LUNITS
 70
     2
  9
$LUPREC
 70
     4
  9
$SKETCHINC
 40
0.1
  9
$FILLETRAD
 40
0.5
  9
$AUNITS
 70
     0
  9
$AUPREC
 70
     0
  9
$MENU
  1
.
  9
$ELEVATION
 40
0.0
  9
$PELEVATION
 40
0.0
  9
$THICKNESS
 40
0.0
  9
$LIMCHECK
 70
     0
  9
$CHAMFERA
 40
0.0
  9
$CHAMFERB
 40
0.0
  9
$CHAMFERC
 40
0.0
  9
$CHAMFERD
 40
0.0
  9
$SKPOLY
 70
     0
  9
$TDCREATE
 40
2459143.698298958
  9
$TDUCREATE
 40
2459143.614965625
  9
$TDUPDATE
 40
2459143.698322651
  9
$TDUUPDATE
 40
2459143.614989317
  9
$TDINDWG
 40
0.0000000116
  9
$TDUSRTIMER
 40
0.0000000116
  9
$USRTIMER
 70
     1
  9
$ANGBASE
 50
0.0
  9
$ANGDIR
 70
     0
  9
$PDMODE
 70
    65
  9
$PDSIZE
 40
0.0
  9
$PLINEWID
 40
0.0
  9
$SPLFRAME
 70
     0
  9
$SPLINETYPE
 70
     6
  9
$SPLINESEGS
 70
     8
  9
$HANDSEED
  5
F0
  9
$SURFTAB1
 70
     6
  9
$SURFTAB2
 70
     6
  9
$SURFTYPE
 70
     6
  9
$SURFU
 70
     6
  9
$SURFV
 70
     6
  9
$UCSBASE
  2

  9
$UCSNAME
  2

  9
$UCSORG
 10
0.0
 20
0.0
 30
0.0
  9
$UCSXDIR
 10
1.0
 20
0.0
 30
0.0
  9
$UCSYDIR
 10
0.0
 20
1.0
 30
0.0
  9
$UCSORTHOREF
  2

  9
$UCSORTHOVIEW
 70
     0
  9
$UCSORGTOP
 10
0.0
 20
0.0
 30
0.0
  9
$UCSORGBOTTOM
 10
0.0
 20
0.0
 30
0.0
  9
$UCSORGLEFT
 10
0.0
 20
0.0
 30
0.0
  9
$UCSORGRIGHT
 10
0.0
 20
0.0
 30
0.0
  9
$UCSORGFRONT
 10
0.0
 20
0.0
 30
0.0
  9
$UCSORGBACK
 10
0.0
 20
0.0
 30
0.0
  9
$PUCSBASE
  2

  9
$PUCSNAME
  2

  9
$PUCSORG
 10
0.0
 20
0.0
 30
0.0
  9
$PUCSXDIR
 10
1.0
 20
0.0
 30
0.0
  9
$PUCSYDIR
 10
0.0
 20
1.0
 30
0.0
  9
$PUCSORTHOREF
  2

  9
$PUCSORTHOVIEW
 70
     0
  9
$PUCSORGTOP
 10
0.0
 20
0.0
 30
0.0
  9
$PUCSORGBOTTOM
 10
0.0
 20
0.0
 30
0.0
  9
$PUCSORGLEFT
 10
0.0
 20
0.0
 30
0.0
  9
$PUCSORGRIGHT
 10
0.0
 20
0.0
 30
0.0
  9
$PUCSORGFRONT
 10
0.0
 20
0.0
 30
0.0
  9
$PUCSORGBACK
 10
0.0
 20
0.0
 30
0.0
  9
$USERI1
 70
     0
  9
$USERI2
 70
     0
  9
$USERI3
 70
     0
  9
$USERI4
 70
     0
  9
$USERI5
 70
     0
  9
$USERR1
 40
0.0
  9
$USERR2
 40
0.0
  9
$USERR3
 40
0.0
  9
$USERR4
 40
0.0
  9
$USERR5
 40
0.0
  9
$WORLDVIEW
 70
     1
  9
$SHADEDGE
 70
     3
  9
$SHADEDIF
 70
    70
  9
$TILEMODE
 70
     0
  9
$MAXACTVP
 70
    64
  9
$PINSBASE
 10
0.0
 20
0.0
 30
0.0
  9
$PLIMCHECK
 70
     0
  9
$PEXTMIN
 10
-0.0001
 20
-0.0001
 30
0.0
  9
$PEXTMAX
 10
0.2101
 20
0.2971
 30
0.0
  9
$PLIMMIN
 10
-0.0001
 20
-0.0001
  9
$PLIMMAX
 10
0.2101
 20
0.2971
  9
$UNITMODE
 70
     0
  9
$VISRETAIN
 70
     1
  9
$PLINEGEN
 70
     0
  9
$PSLTSCALE
 70
     0
  9
$TREEDEPTH
 70
  3020
  9
$CMLSTYLE
  2
Standard
  9
$CMLJUST
 70
     0
  9
$CMLSCALE
 40
1.0
  9
$PROXYGRAPHICS
 70
     1
  9
$MEASUREMENT
 70
     1
  9
$CELWEIGHT
370
    -1
  9
$ENDCAPS
280
     0
  9
$JOINSTYLE
280
     0
  9
$LWDISPLAY
290
     0
  9
$INSUNITS
 70
     6
  9
$HYPERLINKBASE
  1

  9
$STYLESHEET
  1

  9
$XEDIT
290
     1
  9
$CEPSNTYPE
380
     0
  9
$PSTYLEMODE
290
     1
  9
$FINGERPRINTGUID
  2
{7fd3a004-cd29-4dee-a821-5f6ce889394c}
  9
$VERSIONGUID
  2
{FAEB1C32-E019-11D5-929B-00C0DF256EC4}
  9
$EXTNAMES
290
     1
  9
$PSVPSCALE
 40
0.0
  9
$OLESTARTUP
290
     0
  9
$SORTENTS
280
   127
  9
$INDEXCTL
280
     0
  9
$HIDETEXT
280
     1
  9
$XCLIPFRAME
280
     2
  9
$HALOGAP
280
     0
  9
$OBSCOLOR
 70
   257
  9
$OBSLTYPE
280
     0
  9
$INTERSECTIONDISPLAY
280
     0
  9
$INTERSECTIONCOLOR
 70
   257
  9
$DIMASSOC
280
     2
  9
$PROJECTNAME
  1

  9
$CAMERADISPLAY
290
     0
  9
$LENSLENGTH
 40
50.0
  9
$CAMERAHEIGHT
 40
0.0
  9
$STEPSPERSEC
 40
2.0
  9
$STEPSIZE
 40
6.0
  9
$3DDWFPREC
 40
2.0
  9
$PSOLWIDTH
 40
0.25
  9
$PSOLHEIGHT
 40
4.0
  9
$LOFTANG1
 40
1.570796
  9
$LOFTANG2
 40
1.570796
  9
$LOFTMAG1
 40
0.0
  9
$LOFTMAG2
 40
0.0
  9
$LOFTPARAM
 70
     7
  9
$LOFTNORMALS
280
     1
  9
$LATITUDE
 40
37.795
  9
$LONGITUDE
 40
-122.394
  9
$NORTHDIRECTION
 40
0.0
  9
$TIMEZONE
 70
 -8000
  9
$LIGHTGLYPHDISPLAY
280
     1
  9
$TILEMODELIGHTSYNCH
280
     1
  9
$CMATERIAL
347
44
  9
$SOLIDHIST
280
     0
  9
$SHOWHIST
280
     1
  9
$DWFFRAME
280
     2
  9
$DGNFRAME
280
     2
  9
$REALWORLDSCALE
290
     1
  9
$INTERFERECOLOR
 62
   256
  9
$CSHADOW
280
     0
  9
$SHADOWPLANELOCATION
 40
0.0
  0
ENDSEC
  0
SECTION
  2
CLASSES
  0
CLASS
  1
ACDBDICTIONARYWDFLT
  2
AcDbDictionaryWithDefault
  3
ObjectDBX Classes
 90
        0
 91
        3
280
     0
281
     0
  0
CLASS
  1
VISUALSTYLE
  2
AcDbVisualStyle
  3
ObjectDBX Classes
 90
     4095
 91
        3
280
     0
281
     0
  0
CLASS
  1
MATERIAL
  2
AcDbMaterial
  3
ObjectDBX Classes
 90
     1153
 91
        3
280
     0
281
     0
  0
CLASS
  1
SCALE
  2
AcDbScale
  3
ObjectDBX Classes
 90
     1153
 91
        3
280
     0
281
     0
  0
CLASS
  1
TABLESTYLE
  2
AcDbTableStyle
  3
ObjectDBX Classes
 90
     4095
 91
        3
280
     0
281
     0
  0
CLASS
  1
MLEADERSTYLE
  2
AcDbMLeaderStyle
  3
ACDB_MLEADERSTYLE_CLASS
 90
     4095
 91
        3
280
     0
281
     0
  0
CLASS
  1
SUN
  2
AcDbSun
  3
SCENEOE
 90
     1153
 91
        3
280
     0
281
     0
  0
CLASS
  1
SORTENTSTABLE
  2
AcDbSortentsTable
  3
ObjectDBX Classes
 90
        0
 91
        3
280
     0
281
     0
  0
CLASS
  1
DICTIONARYVAR
  2
AcDbDictionaryVar
  3
ObjectDBX Classes
 90
        0
 91
        3
280
     0
281
     0
  0
CLASS
  1
CELLSTYLEMAP
  2
AcDbCellStyleMap
  3
ObjectDBX Classes
 90
     1152
 91
        3
280
     0
281
     0
  0
ENDSEC
  0
SECTION
  2
TABLES
  0
TABLE
  2
VPORT
  5
8
330
0
100
AcDbSymbolTable
 70
     1
  0
VPORT
  5
29
330
8
100
AcDbSymbolTableRecord
100
AcDbViewportTableRecord
  2
*Active
 70
     0
 10
0.0
 20
0.0
 11
1.0
 21
1.0
 12
-3.308383
 22
-7.42575
 13
0.0
 23
0.0
 14
0.5
 24
0.5
 15
0.5
 25
0.5
 16
0.0
 26
0.0
 36
1.0
 17
0.0
 27
0.0
 37
0.0
 40
1.782
 41
0.848485
 42
50.0
 43
0.0
 44
0.0
 50
0.0
 51
0.0
 71
     0
 72
   100
 73
     1
 74
     3
 75
     0
 76
     0
 77
     0
 78
     0
281
     0
 65
     1
110
0.0
120
0.0
130
0.0
111
1.0
121
0.0
131
0.0
112
0.0
122
1.0
132
0.0
 79
     0
146
0.0
348
2F
 60
     3
 61
     5
292
     1
282
     1
141
0.0
142
0.0
 63
   250
361
6D
  0
ENDTAB
  0
TABLE
  2
LTYPE
  5
5
330
0
100
AcDbSymbolTable
 70
     2
  0
LTYPE
  5
14
330
5
100
AcDbSymbolTableRecord
100
AcDbLinetypeTableRecord
  2
ByBlock
 70
     0
  3

 72
    65
 73
     0
 40
0.0
  0
LTYPE
  5
15
330
5
100
AcDbSymbolTableRecord
100
AcDbLinetypeTableRecord
  2
ByLayer
 70
     0
  3

 72
    65
 73
     0
 40
0.0
  0
LTYPE
  5
16
330
5
100
AcDbSymbolTableRecord
100
AcDbLinetypeTableRecord
  2
Continuous
 70
     0
  3
Solid line
 72
    65
 73
     0
 40
0.0
  0
LTYPE
  5
74
330
5
100
AcDbSymbolTableRecord
100
AcDbLinetypeTableRecord
  2
AUSGEZOGEN
 70
     0
  3
durchgezogene Linie
 72
    65
 73
     0
 40
0.0
  0
ENDTAB
  0
TABLE
  2
LAYER
  5
2
330
0
100
AcDbSymbolTable
 70
     4
  0
LAYER
  5
10
330
2
100
AcDbSymbolTableRecord
100
AcDbLayerTableRecord
  2
0
 70
     0
 62
     7
  6
Continuous
370
    -3
390
F
347
46
  0
LAYER
  5
76
330
2
100
AcDbSymbolTableRecord
100
AcDbLayerTableRecord
  2
PLAN_600
 70
     0
 62
     7
  6
AUSGEZOGEN
370
    -3
390
F
347
46
1001
AcCmTransparency
1071
 33554687
1001
AcAecLayerStandard
1000

1000
Dokument-Layer
  0
LAYER
  5
78
330
2
100
AcDbSymbolTableRecord
100
AcDbLayerTableRecord
  2
TB_600
 70
     0
 62
     7
  6
AUSGEZOGEN
370
    -3
390
F
347
46
1001
AcCmTransparency
1071
 33554687
1001
AcAecLayerStandard
1000

1000
Dokument-Layer
  0
LAYER
  5
7A
330
2
100
AcDbSymbolTableRecord
100
AcDbLayerTableRecord
  2
XR$1$TB_600_1
 70
     0
 62
     7
  6
AUSGEZOGEN
370
    -3
390
F
347
46
1001
AcCmTransparency
1071
 33554687
1001
AcAecLayerStandard
1000

1000
Dokument-Layer
  0
ENDTAB
  0
TABLE
  2
STYLE
  5
3
330
0
100
AcDbSymbolTable
 70
     2
  0
STYLE
  5
11
330
3
100
AcDbSymbolTableRecord
100
AcDbTextStyleTableRecord
  2
Standard
 70
     0
 40
0.0
 41
1.0
 50
0.0
 71
     0
 42
0.2
  3
txt
  4

  0
STYLE
  5
79
330
3
100
AcDbSymbolTableRecord
100
AcDbTextStyleTableRecord
  2
ARIAL
 70
     0
 40
0.0
 41
1.0
 50
0.0
 71
     0
 42
0.2
  3
ARIAL.TTF
  4

1001
ACAD
1000
Arial
1071
       34
  0
ENDTAB
  0
TABLE
  2
VIEW
  5
6
330
0
100
AcDbSymbolTable
 70
     0
  0
ENDTAB
  0
TABLE
  2
UCS
  5
7
330
0
100
AcDbSymbolTable
 70
     0
  0
ENDTAB
  0
TABLE
  2
APPID
  5
9
330
0
100
AcDbSymbolTable
 70
     3
  0
APPID
  5
12
330
9
100
AcDbSymbolTableRecord
100
AcDbRegAppTableRecord
  2
ACAD
 70
     0
  0
APPID
  5
75
330
9
100
AcDbSymbolTableRecord
100
AcDbRegAppTableRecord
  2
AcCmTransparency
 70
     0
  0
APPID
  5
77
330
9
100
AcDbSymbolTableRecord
100
AcDbRegAppTableRecord
  2
AcAecLayerStandard
 70
     0
  0
ENDTAB
  0
TABLE
  2
DIMSTYLE
  5
A
330
0
100
AcDbSymbolTable
 70
     1
100
AcDbDimStyleTable
  0
DIMSTYLE
105
27
330
A
100
AcDbSymbolTableRecord
100
AcDbDimStyleTableRecord
  2
Standard
 70
     0
178
     0
340
11
  0
ENDTAB
  0
TABLE
  2
BLOCK_RECORD
  5
1
330
0
100
AcDbSymbolTable
 70
     0
  0
BLOCK_RECORD
  5
1F
102
{ACAD_XDICTIONARY
360
B3
102
}
330
1
100
AcDbSymbolTableRecord
100
AcDbBlockTableRecord
  2
*Model_Space
340
22
 70
     0
280
     1
281
     0
  0
BLOCK_RECORD
  5
6E
330
1
100
AcDbSymbolTableRecord
100
AcDbBlockTableRecord
  2
*Paper_Space
340
6F
 70
     0
280
     1
281
     0
  0
ENDTAB
  0
ENDSEC
  0
SECTION
  2
BLOCKS
  0
BLOCK
  5
20
330
1F
100
AcDbEntity
  8
0
100
AcDbBlockBegin
  2
*Model_Space
 70
     0
 10
0.0
 20
0.0
 30
0.0
  3
*Model_Space
  1

  0
ENDBLK
  5
21
330
1F
100
AcDbEntity
  8
0
100
AcDbBlockEnd
  0
BLOCK
  5
70
330
6E
100
AcDbEntity
 67
     1
  8
0
100
AcDbBlockBegin
  2
*Paper_Space
 70
     0
 10
0.0
 20
0.0
 30
0.0
  3
*Paper_Space
  1

  0
ENDBLK
  5
71
330
6E
100
AcDbEntity
 67
     1
  8
0
100
AcDbBlockEnd
  0
ENDSEC
  0
SECTION
  2
ENTITIES
  0
HATCH
  5
7B
330
1F
100
AcDbEntity
  8
XR$1$TB_600_1
  6
AUSGEZOGEN
 62
     9
440
 33554687
370
    -3
100
AcDbHatch
 10
0.0
 20
0.0
 30
0.0
210
0.0
220
0.0
230
1.0
  2
SOLID
 70
     1
 71
     0
 91
        1
 92
        3
 72
     0
 73
     1
 93
        4
 10
-3.685482146880425
 20
-7.506439897987976
 10
-3.566482146892325
 20
-7.506439897987976
 10
-3.566482146892325
 20
-6.974439898041177
 10
-3.685482146880425
 20
-6.974439898041177
 97
        0
 75
     0
 76
     1
 98
        0
  0
HATCH
  5
7C
330
1F
100
AcDbEntity
  8
XR$1$TB_600_1
  6
AUSGEZOGEN
 62
     9
440
 33554687
370
    -3
100
AcDbHatch
 10
0.0
 20
0.0
 30
0.0
210
0.0
220
0.0
230
1.0
  2
SOLID
 70
     1
 71
     0
 91
        1
 92
        3
 72
     0
 73
     1
 93
        4
 10
-3.563148813559326
 20
-7.506439897987976
 10
-3.398482146909125
 20
-7.506439897987976
 10
-3.398482146909125
 20
-6.974439898041177
 10
-3.563148813559326
 20
-6.974439898041177
 97
        0
 75
     0
 76
     1
 98
        0
  0
HATCH
  5
7D
330
1F
100
AcDbEntity
  8
XR$1$TB_600_1
  6
AUSGEZOGEN
 62
     9
440
 33554687
370
    -3
100
AcDbHatch
 10
0.0
 20
0.0
 30
0.0
210
0.0
220
0.0
230
1.0
  2
SOLID
 70
     1
 71
     0
 91
        1
 92
        3
 72
     0
 73
     1
 93
        4
 10
-3.395148813576126
 20
-7.506439897987976
 10
-3.230482146925925
 20
-7.506439897987976
 10
-3.230482146925925
 20
-6.974439898041177
 10
-3.395148813576126
 20
-6.974439898041177
 97
        0
 75
     0
 76
     1
 98
        0
  0
HATCH
  5
7E
330
1F
100
AcDbEntity
  8
XR$1$TB_600_1
  6
AUSGEZOGEN
 62
     9
440
 33554687
370
    -3
100
AcDbHatch
 10
0.0
 20
0.0
 30
0.0
210
0.0
220
0.0
230
1.0
  2
SOLID
 70
     1
 71
     0
 91
        1
 92
        3
 72
     0
 73
     1
 93
        4
 10
-3.227148813592926
 20
-7.506439897987976
 10
-3.062482146942722
 20
-7.506439897987976
 10
-3.062482146942722
 20
-6.974439898041177
 10
-3.227148813592926
 20
-6.974439898041177
 97
        0
 75
     0
 76
     1
 98
        0
  0
HATCH
  5
7F
330
1F
100
AcDbEntity
  8
XR$1$TB_600_1
  6
AUSGEZOGEN
 62
     9
440
 33554687
370
    -3
100
AcDbHatch
 10
0.0
 20
0.0
 30
0.0
210
0.0
220
0.0
230
1.0
  2
SOLID
 70
     1
 71
     0
 91
        1
 92
        3
 72
     0
 73
     1
 93
        4
 10
-3.059148813609722
 20
-7.506439897987976
 10
-2.952148813620421
 20
-7.506439897987976
 10
-2.952148813620421
 20
-6.974439898041177
 10
-3.059148813609722
 20
-6.974439898041177
 97
        0
 75
     0
 76
     1
 98
        0
  0
HATCH
  5
80
330
1F
100
AcDbEntity
  8
XR$1$TB_600_1
  6
AUSGEZOGEN
 62
     9
440
 33554687
370
    -3
100
AcDbHatch
 10
0.0
 20
0.0
 30
0.0
210
0.0
220
0.0
230
1.0
  2
SOLID
 70
     1
 71
     0
 91
        1
 92
        3
 72
     0
 73
     1
 93
        4
 10
-3.059148813609722
 20
-7.707773231301176
 10
-2.952148813620421
 20
-7.707773231301176
 10
-2.952148813620421
 20
-7.509106564654376
 10
-3.059148813609722
 20
-7.509106564654376
 97
        0
 75
     0
 76
     1
 98
        0
  0
HATCH
  5
81
330
1F
100
AcDbEntity
  8
XR$1$TB_600_1
  6
AUSGEZOGEN
 62
     9
440
 33554687
370
    -3
100
AcDbHatch
 10
0.0
 20
0.0
 30
0.0
210
0.0
220
0.0
230
1.0
  2
SOLID
 70
     1
 71
     0
 91
        1
 92
        3
 72
     0
 73
     1
 93
        4
 10
-3.227148813592926
 20
-7.707773231301176
 10
-3.062482146942722
 20
-7.707773231301176
 10
-3.062482146942722
 20
-7.509106564654376
 10
-3.227148813592926
 20
-7.509106564654376
 97
        0
 75
     0
 76
     1
 98
        0
  0
HATCH
  5
82
330
1F
100
AcDbEntity
  8
XR$1$TB_600_1
  6
AUSGEZOGEN
 62
     9
440
 33554687
370
    -3
100
AcDbHatch
 10
0.0
 20
0.0
 30
0.0
210
0.0
220
0.0
230
1.0
  2
SOLID
 70
     1
 71
     0
 91
        1
 92
        3
 72
     0
 73
     1
 93
        4
 10
-3.395148813576126
 20
-7.707773231301176
 10
-3.230482146925925
 20
-7.707773231301176
 10
-3.230482146925925
 20
-7.509106564654376
 10
-3.395148813576126
 20
-7.509106564654376
 97
        0
 75
     0
 76
     1
 98
        0
  0
HATCH
  5
83
330
1F
100
AcDbEntity
  8
XR$1$TB_600_1
  6
AUSGEZOGEN
 62
     9
440
 33554687
370
    -3
100
AcDbHatch
 10
0.0
 20
0.0
 30
0.0
210
0.0
220
0.0
230
1.0
  2
SOLID
 70
     1
 71
     0
 91
        1
 92
        3
 72
     0
 73
     1
 93
        4
 10
-3.563148813559326
 20
-7.707773231301176
 10
-3.398482146909125
 20
-7.707773231301176
 10
-3.398482146909125
 20
-7.509106564654376
 10
-3.563148813559326
 20
-7.509106564654376
 97
        0
 75
     0
 76
     1
 98
        0
  0
HATCH
  5
84
330
1F
100
AcDbEntity
  8
XR$1$TB_600_1
  6
AUSGEZOGEN
 62
     9
440
 33554687
370
    -3
100
AcDbHatch
 10
0.0
 20
0.0
 30
0.0
210
0.0
220
0.0
230
1.0
  2
SOLID
 70
     1
 71
     0
 91
        1
 92
        3
 72
     0
 73
     1
 93
        4
 10
-3.685482146880425
 20
-7.707773231301176
 10
-3.566482146892325
 20
-7.707773231301176
 10
-3.566482146892325
 20
-7.509106564654376
 10
-3.685482146880425
 20
-7.509106564654376
 97
        0
 75
     0
 76
     1
 98
        0
  0
HATCH
  5
85
330
1F
100
AcDbEntity
  8
XR$1$TB_600_1
  6
AUSGEZOGEN
 62
    18
420
        0
440
 33554687
370
    35
100
AcDbHatch
 10
0.0
 20
0.0
 30
0.0
210
0.0
220
0.0
230
1.0
  2
SOLID
 70
     1
 71
     0
 91
       18
 92
        3
 72
     0
 73
     1
 93
       27
 10
-3.714126514199775
 20
-8.030248466568725
 10
-3.710132770738875
 20
-8.030248466568725
 10
-3.709555644348274
 20
-8.030221070187912
 10
-3.709024659230675
 20
-8.030138520566778
 10
-3.708529721982575
 20
-8.030010190151389
 10
-3.708080926007374
 20
-8.02982706697437
 10
-3.707668898859075
 20
-8.029607174970472
 10
-3.707302652505075
 20
-8.02933249020495
 10
-3.706670372874175
 20
-8.028682186639333
 10
-3.706423084489475
 20
-8.028306567839232
 10
-3.706203192485574
 20
-8.02789454069095
 10
-3.705864342512375
 20
-8.026996588261923
 10
-3.705672207367975
 20
-8.025998422755704
 10
-3.705608042160274
 20
-8.024926719595733
 10
-3.705672207367975
 20
-8.023781478781995
 10
-3.705864342512375
 20
-8.022746544448902
 10
-3.706020069308575
 20
-8.022279364060298
 10
-3.706203192485574
 20
-8.021839940531194
 10
-3.706423084489475
 20
-8.021436564871589
 10
-3.706670372874175
 20
-8.02107031851756
 10
-3.707302652505075
 20
-8.02044741133275
 10
-3.707668898859075
 20
-8.020200122948042
 10
-3.708080926007374
 20
-8.01998960339022
 10
-3.708529721982575
 20
-8.019824504147941
 10
-3.709024659230675
 20
-8.019705546178619
 10
-3.710132770738875
 20
-8.019604612144041
 10
-3.714126514199775
 20
-8.019604612144041
 97
        0
 92
        3
 72
     0
 73
     1
 93
       12
 10
-3.702420329061174
 20
-8.030248466568725
 10
-3.694698514937475
 20
-8.030248466568725
 10
-3.694698514937475
 20
-8.028920102577972
 10
-3.700817280304874
 20
-8.028920102577972
 10
-3.700817280304874
 20
-8.025457704713338
 10
-3.695770218097475
 20
-8.025457704713338
 10
-3.695770218097475
 20
-8.02412970120128
 10
-3.700817280304874
 20
-8.02412970120128
 10
-3.700817280304874
 20
-8.020932976134802
 10
-3.694964187735674
 20
-8.020932976134802
 10
-3.694964187735674
 20
-8.019604612144041
 10
-3.702420329061174
 20
-8.019604612144041
 97
        0
 92
        3
 72
     0
 73
     1
 93
       38
 10
-3.685126724151475
 20
-8.019604612144041
 10
-3.685126724151475
 20
-8.026520395905942
 10
-3.685163492978375
 20
-8.02717069947156
 10
-3.685273078501575
 20
-8.027720429481302
 10
-3.685474946570775
 20
-8.02818760986991
 10
-3.685758643303675
 20
-8.028553856223947
 10
-3.686125250136375
 20
-8.028828540989469
 10
-3.686583058078874
 20
-8.029030048579921
 10
-3.687132788088674
 20
-8.02914936702794
 10
-3.687783091654274
 20
-8.029185775376124
 10
-3.688433395219875
 20
-8.02914936702794
 10
-3.688983125229675
 20
-8.029030048579921
 10
-3.689440933172175
 20
-8.028828540989469
 10
-3.689816551972275
 20
-8.028553856223947
 10
-3.690091236737774
 20
-8.02818760986991
 10
-3.690292744328274
 20
-8.027720429481302
 10
-3.690402690330174
 20
-8.02717069947156
 10
-3.690448471124474
 20
-8.026520395905942
 10
-3.690448471124474
 20
-8.019604612144041
 10
-3.691776835115174
 20
-8.019604612144041
 10
-3.691776835115174
 20
-8.026786068704089
 10
-3.691703297461475
 20
-8.027637879860167
 10
-3.691492777903574
 20
-8.028379745014297
 10
-3.691144555484375
 20
-8.029021036612544
 10
-3.690677375095776
 20
-8.029552382208852
 10
-3.690100609183875
 20
-8.029964409357133
 10
-3.689413536791374
 20
-8.030266850982162
 10
-3.688643914777676
 20
-8.03044997415918
 10
-3.687783091654274
 20
-8.030514139366877
 10
-3.686921908052075
 20
-8.03044997415918
 10
-3.686152646517175
 20
-8.030266850982162
 10
-3.685465574124674
 20
-8.029964409357133
 10
-3.684888447734175
 20
-8.029552382208852
 10
-3.684421267345474
 20
-8.029021036612544
 10
-3.684082417372275
 20
-8.028379745014297
 10
-3.683862525368374
 20
-8.027637879860167
 10
-3.683789348193375
 20
-8.026786068704089
 10
-3.683789348193375
 20
-8.019604612144041
 97
        0
 92
        3
 72
     0
 73
     1
 93
        8
 10
-3.681132980690575
 20
-8.019604612144041
 10
-3.681132980690575
 20
-8.020932976134802
 10
-3.677936255624075
 20
-8.020932976134802
 10
-3.677936255624075
 20
-8.030248466568725
 10
-3.676608252111974
 20
-8.030248466568725
 10
-3.676608252111974
 20
-8.020932976134802
 10
-3.673420539012874
 20
-8.020932976134802
 10
-3.673420539012874
 20
-8.019604612144041
 97
        0
 92
        3
 72
     0
 73
     1
 93
       96
 10
-3.670415949090774
 20
-8.02316794404325
 10
-3.670205429532976
 20
-8.023689917193488
 10
-3.669875591527075
 20
-8.02410230482047
 10
-3.669454191932774
 20
-8.024441154793685
 10
-3.668950603195975
 20
-8.02470682759183
 10
-3.668382488772774
 20
-8.024908335182293
 10
-3.667164431262675
 20
-8.02522880074207
 10
-3.665946013273874
 20
-8.02550384598628
 10
-3.665378259329375
 20
-8.025659212303797
 10
-3.664874310113874
 20
-8.025860719894252
 10
-3.664453270998275
 20
-8.026108368757653
 10
-3.664123432992374
 20
-8.02642883431743
 10
-3.663912552955874
 20
-8.026822837530975
 10
-3.663839375780774
 20
-8.027317414300395
 10
-3.663894529021175
 20
-8.027784594688999
 10
-3.664068279752074
 20
-8.02816922545647
 10
-3.664333952550275
 20
-8.028499063462316
 10
-3.664672802523474
 20
-8.028755363814396
 10
-3.665075817704375
 20
-8.028947859437482
 10
-3.665524974158175
 20
-8.029075829374177
 10
-3.666001166514175
 20
-8.029158378995307
 10
-3.666495743283575
 20
-8.029185775376124
 10
-3.667164431262675
 20
-8.02914936702794
 10
-3.667750569620575
 20
-8.029030048579921
 10
-3.668254518836076
 20
-8.028828540989469
 10
-3.668693942365174
 20
-8.028553856223947
 10
-3.669051176751874
 20
-8.02818760986991
 10
-3.669344606409474
 20
-8.027720429481302
 10
-3.669555125967375
 20
-8.02717069947156
 10
-3.669692468350074
 20
-8.026520395905942
 10
-3.671020832340874
 20
-8.026786068704089
 10
-3.670928910273674
 20
-8.027711057035239
 10
-3.670809952304274
 20
-8.028123444662214
 10
-3.670654225508074
 20
-8.028489691016247
 10
-3.670452717917674
 20
-8.028828540989469
 10
-3.670223813946374
 20
-8.02913999458187
 10
-3.669655699523174
 20
-8.029652955764732
 10
-3.668987372022874
 20
-8.030037586532199
 10
-3.668217750009174
 20
-8.030303259330351
 10
-3.667384323266574
 20
-8.030458986126554
 10
-3.666495743283575
 20
-8.030514139366877
 10
-3.665717109302574
 20
-8.030458986126554
 10
-3.664975244148475
 20
-8.030312631776418
 10
-3.664297544202075
 20
-8.030046958978273
 10
-3.663702033398076
 20
-8.029680352145544
 10
-3.663207456628575
 20
-8.029204159789565
 10
-3.662831837828474
 20
-8.02860864898557
 10
-3.662694495445775
 20
-8.028260787044976
 10
-3.662593561411174
 20
-8.02789454069095
 10
-3.662511372268774
 20
-8.027051741502241
 10
-3.662584549443776
 20
-8.02632790028286
 10
-3.662795069001674
 20
-8.025732749957557
 10
-3.663124907007475
 20
-8.025256197122877
 10
-3.663546306601874
 20
-8.024880938801477
 10
-3.664050255817275
 20
-8.024587869622511
 10
-3.664608997794475
 20
-8.024358605172557
 10
-3.665836067271975
 20
-8.024028767166703
 10
-3.667054485260775
 20
-8.023763454847249
 10
-3.667613227237875
 20
-8.02360772805105
 10
-3.668117176453275
 20
-8.023424244395336
 10
-3.668547588015074
 20
-8.023186328456692
 10
-3.668877426020875
 20
-8.022883886831664
 10
-3.669087945578775
 20
-8.02249024409682
 10
-3.669161122753775
 20
-8.021995306848705
 10
-3.669096957546074
 20
-8.021638072462046
 10
-3.668932218782574
 20
-8.021345003283082
 10
-3.668684930397775
 20
-8.02110708734444
 10
-3.668364464838075
 20
-8.020932976134802
 10
-3.667988846037975
 20
-8.020814018165472
 10
-3.667585830857074
 20
-8.02073146854434
 10
-3.666761416081775
 20
-8.020667303336646
 10
-3.666193301658574
 20
-8.02069469971746
 10
-3.665680700954375
 20
-8.020777249338593
 10
-3.665222532533174
 20
-8.02092396416742
 10
-3.664837901765674
 20
-8.021134483725257
 10
-3.664526448173275
 20
-8.02142755290422
 10
-3.664297544202075
 20
-8.021793799258248
 10
-3.664150829373174
 20
-8.022251967679484
 10
-3.664105048578974
 20
-8.022801697689221
 10
-3.662511372268774
 20
-8.022801697689221
 10
-3.662758660653474
 20
-8.021958898500516
 10
-3.663097510626675
 20
-8.021244429727199
 10
-3.663527922188375
 20
-8.020648918923206
 10
-3.664040883371275
 20
-8.020172726567226
 10
-3.664627021729174
 20
-8.0198061197345
 10
-3.665277325294775
 20
-8.019540807415046
 10
-3.665991794068074
 20
-8.01939409258622
 10
-3.666761416081775
 20
-8.01933929982459
 10
-3.667457500441674
 20
-8.019385080618841
 10
-3.668135200388074
 20
-8.019540807415046
 10
-3.668758107572875
 20
-8.01978809579976
 10
-3.669326221996075
 20
-8.020135957740345
 10
-3.669802414352075
 20
-8.020584753715513
 10
-3.670168660706074
 20
-8.021134483725257
 10
-3.670406937123376
 20
-8.021784787290883
 10
-3.670489486744574
 20
-8.022536024891076
 97
        0
 92
        3
 72
     0
 73
     1
 93
       78
 10
-3.658187790801975
 20
-8.02405652402621
 10
-3.658004667624974
 20
-8.023250493664388
 10
-3.657693214032574
 20
-8.022526652445002
 10
-3.657253430024774
 20
-8.021903745260193
 10
-3.656694688047674
 20
-8.021381772109965
 10
-3.656007976133874
 20
-8.020997141342495
 10
-3.655192573325975
 20
-8.020758864925153
 10
-3.654258212548674
 20
-8.020667303336646
 10
-3.653754623811975
 20
-8.020704072163529
 10
-3.653241662629075
 20
-8.020823030132851
 10
-3.652737713413574
 20
-8.021006153309862
 10
-3.652261521057574
 20
-8.021271826108022
 10
-3.651840121463275
 20
-8.021601664113861
 10
-3.651491899043974
 20
-8.022013691262147
 10
-3.651226586724474
 20
-8.022499256064192
 10
-3.651070859928275
 20
-8.023067010008685
 10
-3.649733483970175
 20
-8.022801697689221
 10
-3.649999156768374
 20
-8.021958898500516
 10
-3.650365403122375
 20
-8.021244429727199
 10
-3.650841595478375
 20
-8.020648918923206
 10
-3.651400337455475
 20
-8.020172726567226
 10
-3.652032617086375
 20
-8.0198061197345
 10
-3.652728701446176
 20
-8.019540807415046
 10
-3.653479578567675
 20
-8.01939409258622
 10
-3.654258212548674
 20
-8.01933929982459
 10
-3.654890492179574
 20
-8.019366696205397
 10
-3.655485642504874
 20
-8.01944888534784
 10
-3.656035372514675
 20
-8.019577215763226
 10
-3.656548333697475
 20
-8.019760338940245
 10
-3.657024526053475
 20
-8.01998960339022
 10
-3.657464310061275
 20
-8.020264288155738
 10
-3.657857952796075
 20
-8.020584753715513
 10
-3.658215187182775
 20
-8.020932976134802
 10
-3.658536013221275
 20
-8.02132697934834
 10
-3.658810697986774
 20
-8.02175739091006
 10
-3.659039601958074
 20
-8.022215198852603
 10
-3.659232097581175
 20
-8.02270977562202
 10
-3.659497770379275
 20
-8.023772466814627
 10
-3.659579959521675
 20
-8.024926719595733
 10
-3.659497770379275
 20
-8.026080611898145
 10
-3.659232097581175
 20
-8.027143303090751
 10
-3.659039601958074
 20
-8.027637879860167
 10
-3.658810697986774
 20
-8.028096048281398
 10
-3.658536013221275
 20
-8.028526459843132
 10
-3.658215187182775
 20
-8.028920102577972
 10
-3.657857952796075
 20
-8.02926832499725
 10
-3.657464310061275
 20
-8.02958879055704
 10
-3.657024526053475
 20
-8.029863835801251
 10
-3.656548333697475
 20
-8.030092739772522
 10
-3.656035372514675
 20
-8.030275862949537
 10
-3.655485642504874
 20
-8.030404193364925
 10
-3.654890492179574
 20
-8.03048674298606
 10
-3.654258212548674
 20
-8.030514139366877
 10
-3.653461554632974
 20
-8.030440601713115
 10
-3.652691932619374
 20
-8.030221070187912
 10
-3.651950067465175
 20
-8.02987284776863
 10
-3.651262995072674
 20
-8.029387282966585
 10
-3.650658472301374
 20
-8.028773748227838
 10
-3.650145511118474
 20
-8.028040895041075
 10
-3.649742495937574
 20
-8.027207468298442
 10
-3.649467811172074
 20
-8.02625472310779
 10
-3.651070859928275
 20
-8.02625472310779
 10
-3.651217214278474
 20
-8.02691439911948
 10
-3.651455490695774
 20
-8.027500537477408
 10
-3.651775956255574
 20
-8.028004126214203
 10
-3.652160587022975
 20
-8.028416513841176
 10
-3.652618755444274
 20
-8.02874635184703
 10
-3.653122344181075
 20
-8.028984267785674
 10
-3.653672074190775
 20
-8.029130982614491
 10
-3.654258212548674
 20
-8.029185775376124
 10
-3.655192573325975
 20
-8.029103586233683
 10
-3.656007976133874
 20
-8.02885629784897
 10
-3.656694688047674
 20
-8.028471306602807
 10
-3.657253430024774
 20
-8.027949333452574
 10
-3.657693214032574
 20
-8.027326426267761
 10
-3.658004667624974
 20
-8.026602945527072
 10
-3.658187790801975
 20
-8.025796915165254
 10
-3.658251956009674
 20
-8.024926719595733
 97
        0
 92
        3
 72
     0
 73
     1
 93
       12
 10
-3.646280098072874
 20
-8.030248466568725
 10
-3.644952094560874
 20
-8.030248466568725
 10
-3.644952094560874
 20
-8.025457704713338
 10
-3.639364674789674
 20
-8.025457704713338
 10
-3.639364674789674
 20
-8.030248466568725
 10
-3.637761626033476
 20
-8.030248466568725
 10
-3.637761626033476
 20
-8.019604612144041
 10
-3.639364674789674
 20
-8.019604612144041
 10
-3.639364674789674
 20
-8.02412970120128
 10
-3.644952094560874
 20
-8.02412970120128
 10
-3.644952094560874
 20
-8.019604612144041
 10
-3.646280098072874
 20
-8.019604612144041
 97
        0
 92
        3
 72
     0
 73
     1
 93
       12
 10
-3.634308240136174
 20
-8.030248466568725
 10
-3.626852459289275
 20
-8.030248466568725
 10
-3.626852459289275
 20
-8.028920102577972
 10
-3.632970864178076
 20
-8.028920102577972
 10
-3.632970864178076
 20
-8.025457704713338
 10
-3.627658489651175
 20
-8.025457704713338
 10
-3.627658489651175
 20
-8.02412970120128
 10
-3.632970864178076
 20
-8.02412970120128
 10
-3.632970864178076
 20
-8.020932976134802
 10
-3.626852459289275
 20
-8.020932976134802
 10
-3.626852459289275
 20
-8.019604612144041
 10
-3.634308240136174
 20
-8.019604612144041
 97
        0
 92
        3
 72
     0
 73
     1
 93
       90
 10
-3.711598477112374
 20
-8.037814553896242
 10
-3.711900558258675
 20
-8.037521124238586
 10
-3.711974095912475
 20
-8.037356385475011
 10
-3.711992119847174
 20
-8.037163889851927
 10
-3.711946339052976
 20
-8.0368892050864
 10
-3.711818369116275
 20
-8.03666030111513
 10
-3.711634885460574
 20
-8.036477177938119
 10
-3.711396969521874
 20
-8.036330463109284
 10
-3.710874635892974
 20
-8.03615635189965
 10
-3.710398443536974
 20
-8.036101559138013
 10
-3.709610797588574
 20
-8.036193120726518
 10
-3.709226166821175
 20
-8.036312078695852
 10
-3.708868932434475
 20
-8.036467805492046
 10
-3.708227640836275
 20
-8.0368892050864
 10
-3.707742076034175
 20
-8.037429562650074
 10
-3.705608042160274
 20
-8.036101559138013
 10
-3.706121003343176
 20
-8.035625366782039
 10
-3.706651988460774
 20
-8.035203967187684
 10
-3.707201718470476
 20
-8.034846732801032
 10
-3.707769472414974
 20
-8.03453527920862
 10
-3.708355971251575
 20
-8.034297002791286
 10
-3.708942109609575
 20
-8.034113879614269
 10
-3.709537620413575
 20
-8.03401294557969
 10
-3.710132770738875
 20
-8.033976537231506
 10
-3.711002966308374
 20
-8.034022318025766
 10
-3.711808996670175
 20
-8.034178044821969
 10
-3.712532837889575
 20
-8.03443434517405
 10
-3.713155745074374
 20
-8.034800952006773
 10
-3.713677718224574
 20
-8.035286156330125
 10
-3.714062348992075
 20
-8.035881667134126
 10
-3.714199691374874
 20
-8.036220517107337
 10
-3.714309637376774
 20
-8.036596135907436
 10
-3.714392186997874
 20
-8.037429562650074
 10
-3.714337033757575
 20
-8.038006689040635
 10
-3.714181306961375
 20
-8.038529022669556
 10
-3.713934018576675
 20
-8.038995842579471
 10
-3.713595168603474
 20
-8.039408230206446
 10
-3.713173769009075
 20
-8.039756092147039
 10
-3.712670180272374
 20
-8.040031137391257
 10
-3.712084041914374
 20
-8.04024165694909
 10
-3.711442750316174
 20
-8.04037899933185
 10
-3.709308355963575
 20
-8.040818783339638
 10
-3.708841175574974
 20
-8.04092872934159
 10
-3.708520710015174
 20
-8.041102840551229
 10
-3.708328214392074
 20
-8.041340756489877
 10
-3.708273421630475
 20
-8.041688978909159
 10
-3.708319202424774
 20
-8.041973036120748
 10
-3.708447532840074
 20
-8.042229336472833
 10
-3.708649040430574
 20
-8.042458240444098
 10
-3.708905340782675
 20
-8.04265073606719
 10
-3.709189397994275
 20
-8.042806462863393
 10
-3.709509863554076
 20
-8.042925420832706
 10
-3.710132770738875
 20
-8.043016982421221
 10
-3.711039735135274
 20
-8.042925420832706
 10
-3.711433377870074
 20
-8.042806462863393
 10
-3.711799984702774
 20
-8.04265073606719
 10
-3.712450288268475
 20
-8.042229336472833
 10
-3.713063823007175
 20
-8.041688978909159
 10
-3.715189205392374
 20
-8.04275167010176
 10
-3.714602706555775
 20
-8.043301039632807
 10
-3.714025580165174
 20
-8.043759208054038
 10
-3.713466838188074
 20
-8.044125454408075
 10
-3.712890072276275
 20
-8.044418523587042
 10
-3.712312945885674
 20
-8.044629403623563
 10
-3.711708423114275
 20
-8.044775757973694
 10
-3.711076143483474
 20
-8.044858307594827
 10
-3.710398443536974
 20
-8.044885703975645
 10
-3.709656578382875
 20
-8.044848935148764
 10
-3.708868932434475
 20
-8.044748361592882
 10
-3.708062902072675
 20
-8.044546854002423
 10
-3.707302652505075
 20
-8.044217015996582
 10
-3.706954430085775
 20
-8.043997123992682
 10
-3.706633964525975
 20
-8.0437408236406
 10
-3.706349907314475
 20
-8.04343838201557
 10
-3.706093246483674
 20
-8.043081147628916
 10
-3.705891738893174
 20
-8.042687504894067
 10
-3.705736012096974
 20
-8.042229336472833
 10
-3.705644450508474
 20
-8.04172574773604
 10
-3.705608042160274
 20
-8.041157633312858
 10
-3.705644450508474
 20
-8.040727221751135
 10
-3.705745384543075
 20
-8.040342590983657
 10
-3.705901111339275
 20
-8.040012752977812
 10
-3.706102618929775
 20
-8.039719683798857
 10
-3.706358919281775
 20
-8.039463022968075
 10
-3.706642976493375
 20
-8.039243491442875
 10
-3.707320676439874
 20
-8.03889526902359
 10
-3.708080926007374
 20
-8.03865699260625
 10
-3.708886956369274
 20
-8.038482881396604
 10
-3.710398443536974
 20
-8.038226581044523
 10
-3.711094527896875
 20
-8.038043457867511
 97
        0
 92
        3
 72
     0
 73
     1
 93
        8
 10
-3.699223603994674
 20
-8.036367231936167
 10
-3.696567236491875
 20
-8.036367231936167
 10
-3.696567236491875
 20
-8.034242210029657
 10
-3.704545350967674
 20
-8.034242210029657
 10
-3.704545350967674
 20
-8.036367231936167
 10
-3.701888983464876
 20
-8.036367231936167
 10
-3.701888983464876
 20
-8.04461101921012
 10
-3.699223603994674
 20
-8.04461101921012
 97
        0
 92
        3
 72
     0
 73
     1
 93
       12
 10
-3.694698514937475
 20
-8.04461101921012
 10
-3.686720400461675
 20
-8.04461101921012
 10
-3.686720400461675
 20
-8.04275167010176
 10
-3.692307820232775
 20
-8.04275167010176
 10
-3.692307820232775
 20
-8.040360975397098
 10
-3.687517418856075
 20
-8.040360975397098
 10
-3.687517418856075
 20
-8.038226581044523
 10
-3.692307820232775
 20
-8.038226581044523
 10
-3.692307820232775
 20
-8.036367231936167
 10
-3.687251746057974
 20
-8.036367231936167
 10
-3.687251746057974
 20
-8.034242210029657
 10
-3.694698514937475
 20
-8.034242210029657
 97
        0
 92
        3
 72
     0
 73
     1
 93
        4
 10
-3.684861051353274
 20
-8.04461101921012
 10
-3.682195671883175
 20
-8.04461101921012
 10
-3.682195671883175
 20
-8.034242210029657
 10
-3.684861051353274
 20
-8.034242210029657
 97
        0
 92
        3
 72
     0
 73
     1
 93
       10
 10
-3.677404910027775
 20
-8.04461101921012
 10
-3.677404910027775
 20
-8.038226581044523
 10
-3.673686211811074
 20
-8.04461101921012
 10
-3.671020832340874
 20
-8.04461101921012
 10
-3.671020832340874
 20
-8.034242210029657
 10
-3.673420539012874
 20
-8.034242210029657
 10
-3.673420539012874
 20
-8.040891960514713
 10
-3.677139237229575
 20
-8.034242210029657
 10
-3.679804977178474
 20
-8.034242210029657
 10
-3.679804977178474
 20
-8.04461101921012
 97
        0
 92
        3
 72
     0
 73
     1
 93
       10
 10
-3.660111305117975
 20
-8.036367231936167
 10
-3.660111305117975
 20
-8.034242210029657
 10
-3.668630137636174
 20
-8.034242210029657
 10
-3.668630137636174
 20
-8.036367231936167
 10
-3.663308030184474
 20
-8.036367231936167
 10
-3.668895449955674
 20
-8.04275167010176
 10
-3.668895449955674
 20
-8.04461101921012
 10
-3.660111305117975
 20
-8.04461101921012
 10
-3.660111305117975
 20
-8.04275167010176
 10
-3.665698724889174
 20
-8.04275167010176
 97
        0
 92
        3
 72
     0
 73
     1
 93
       12
 10
-3.657986283211475
 20
-8.04461101921012
 10
-3.649999156768374
 20
-8.04461101921012
 10
-3.649999156768374
 20
-8.04275167010176
 10
-3.655320903741275
 20
-8.04275167010176
 10
-3.655320903741275
 20
-8.040360975397098
 10
-3.650805187130175
 20
-8.040360975397098
 10
-3.650805187130175
 20
-8.038226581044523
 10
-3.655320903741275
 20
-8.038226581044523
 10
-3.655320903741275
 20
-8.036367231936167
 10
-3.650273841533874
 20
-8.036367231936167
 10
-3.650273841533874
 20
-8.034242210029657
 10
-3.657986283211475
 20
-8.034242210029657
 97
        0
 92
        3
 72
     0
 73
     1
 93
       42
 10
-3.645483079678475
 20
-8.034242210029657
 10
-3.648139447181276
 20
-8.034242210029657
 10
-3.648139447181276
 20
-8.041157633312858
 10
-3.648112050800474
 20
-8.04163418614753
 10
-3.648029501179374
 20
-8.042082982122698
 10
-3.647901531242676
 20
-8.042485997303611
 10
-3.647736432000376
 20
-8.042861255625018
 10
-3.647269251611774
 20
-8.043502547223264
 10
-3.646674101286474
 20
-8.044015508406122
 10
-3.645987028893974
 20
-8.044400139173593
 10
-3.645226779326376
 20
-8.044675184417816
 10
-3.644420748964575
 20
-8.044830911214012
 10
-3.643614718602775
 20
-8.044885703975645
 10
-3.642900249829475
 20
-8.044830911214012
 10
-3.642167396642674
 20
-8.044675184417816
 10
-3.641452927869374
 20
-8.044400139173593
 10
-3.640793612336375
 20
-8.044015508406122
 10
-3.640216485945774
 20
-8.043502547223264
 10
-3.639767689970674
 20
-8.042861255625018
 10
-3.639593578760975
 20
-8.042485997303611
 10
-3.639465248345575
 20
-8.042082982122698
 10
-3.639392071170575
 20
-8.04163418614753
 10
-3.639364674789674
 20
-8.041157633312858
 10
-3.639364674789674
 20
-8.034242210029657
 10
-3.641755369494375
 20
-8.034242210029657
 10
-3.641755369494375
 20
-8.040891960514713
 10
-3.641782765875175
 20
-8.041285963728248
 10
-3.641855943050275
 20
-8.041670594495722
 10
-3.641993285432975
 20
-8.042027828882373
 10
-3.642185781056075
 20
-8.042357666888218
 10
-3.642442081408174
 20
-8.04262333968637
 10
-3.642762907446674
 20
-8.042833859244203
 10
-3.643156550181474
 20
-8.042971201626962
 10
-3.643614718602775
 20
-8.043016982421221
 10
-3.644081898991374
 20
-8.042971201626962
 10
-3.644466529758775
 20
-8.042833859244203
 10
-3.644786995318575
 20
-8.04262333968637
 10
-3.645043656149374
 20
-8.042357666888218
 10
-3.645245163739875
 20
-8.042027828882373
 10
-3.645373494155175
 20
-8.041670594495722
 10
-3.645455683297675
 20
-8.041285963728248
 10
-3.645483079678475
 20
-8.040891960514713
 97
        0
 92
        3
 72
     0
 73
     1
 93
       75
 10
-3.637157103262075
 20
-8.040708837337693
 10
-3.636937211258174
 20
-8.041734759703413
 10
-3.636763100048575
 20
-8.042210952059392
 10
-3.636561592458075
 20
-8.04265073606719
 10
-3.636314304073375
 20
-8.043053751248099
 10
-3.636030246861775
 20
-8.043419997602129
 10
-3.635361558882675
 20
-8.044042904786934
 10
-3.634967916147875
 20
-8.044290193171644
 10
-3.634537504586174
 20
-8.04450107320817
 10
-3.634070324197574
 20
-8.044665811971745
 10
-3.633566374982075
 20
-8.044785130419765
 10
-3.632439879060475
 20
-8.044885703975645
 10
-3.631496145837176
 20
-8.044830911214012
 10
-3.630681103507975
 20
-8.044647427558303
 10
-3.630323869121275
 20
-8.04450107320817
 10
-3.630012415528875
 20
-8.044317950031148
 10
-3.629737730763375
 20
-8.044088685581194
 10
-3.629517838759474
 20
-8.043814000815667
 10
-3.629517838759474
 20
-8.04461101921012
 10
-3.627383444406875
 20
-8.04461101921012
 10
-3.627383444406875
 20
-8.039023599438975
 10
-3.631908533464174
 20
-8.039023599438975
 10
-3.631908533464174
 20
-8.040891960514713
 10
-3.629783511557676
 20
-8.040891960514713
 10
-3.629838304319275
 20
-8.041350128935944
 10
-3.630003403561575
 20
-8.041743771670784
 10
-3.630241319500175
 20
-8.042064597709254
 10
-3.630543761125176
 20
-8.042320898061345
 10
-3.630882611098475
 20
-8.042513393684418
 10
-3.631239845485075
 20
-8.04265073606719
 10
-3.631908533464174
 20
-8.04275167010176
 10
-3.632558837029775
 20
-8.04269651686144
 10
-3.633108567039474
 20
-8.042513393684418
 10
-3.633575386949374
 20
-8.042229336472833
 10
-3.633941993782174
 20
-8.041853717672737
 10
-3.634216678547674
 20
-8.041386537284126
 10
-3.634418186138174
 20
-8.040846179720457
 10
-3.634537504586174
 20
-8.04023264498171
 10
-3.634573912934374
 20
-8.039563957002654
 10
-3.634519120172675
 20
-8.038721157813946
 10
-3.634381777789974
 20
-8.038006689040635
 10
-3.634152513339975
 20
-8.03741153871533
 10
-3.633841059747575
 20
-8.03693498588065
 10
-3.633456428980074
 20
-8.036568739526626
 10
-3.632998621037575
 20
-8.036303066728474
 10
-3.632485659854675
 20
-8.036147339932272
 10
-3.631908533464174
 20
-8.036101559138013
 10
-3.631166668310075
 20
-8.036193120726518
 10
-3.630827457858074
 20
-8.036312078695852
 10
-3.630516364744374
 20
-8.036467805492046
 10
-3.629966634734675
 20
-8.0368892050864
 10
-3.629517838759474
 20
-8.037429562650074
 10
-3.627383444406875
 20
-8.036632904734319
 10
-3.627814216447375
 20
-8.035982601168696
 10
-3.628290408803275
 20
-8.035432871158951
 10
-3.628812381953575
 20
-8.03497470273772
 10
-3.629380496376776
 20
-8.03460845638369
 10
-3.630003403561575
 20
-8.034324399172103
 10
-3.630681103507975
 20
-8.034122891581644
 10
-3.631404584248675
 20
-8.03401294557969
 10
-3.632174206262275
 20
-8.033976537231506
 10
-3.632806125414475
 20
-8.034003933612324
 10
-3.633383251805074
 20
-8.034086483233462
 10
-3.633923609368675
 20
-8.03421445317015
 10
-3.634427558584174
 20
-8.034397936825854
 10
-3.634885366526775
 20
-8.034626840797133
 10
-3.635297754153674
 20
-8.03490152556265
 10
-3.635673012475075
 20
-8.035212979155062
 10
-3.636002850480975
 20
-8.035570213541714
 10
-3.636295919659974
 20
-8.035964216755254
 10
-3.636543208044674
 20
-8.036385616349603
 10
-3.636754088081175
 20
-8.036852436259522
 10
-3.636928199290776
 20
-8.037338001061567
 10
-3.637157103262075
 20
-8.038400692254168
 10
-3.637230280437175
 20
-8.039563957002654
 97
        0
 92
       18
 72
     0
 73
     1
 93
       19
 10
-3.710398443536974
 20
-8.020932976134802
 10
-3.709565016794374
 20
-8.021006153309862
 10
-3.708850548021074
 20
-8.021226045313762
 10
-3.708255037217075
 20
-8.02156489528698
 10
-3.707769472414974
 20
-8.022032075675588
 10
-3.707403226060974
 20
-8.022609202066135
 10
-3.707146925708875
 20
-8.023296274458644
 10
-3.706991198912675
 20
-8.024065535993584
 10
-3.706945418118475
 20
-8.024926719595733
 10
-3.706991198912675
 20
-8.025787542719177
 10
-3.707146925708875
 20
-8.026557164732827
 10
-3.707403226060974
 20
-8.027243876646635
 10
-3.707769472414974
 20
-8.027821003037182
 10
-3.708255037217075
 20
-8.02828818342579
 10
-3.708850548021074
 20
-8.02862703339901
 10
-3.709565016794374
 20
-8.028846925402902
 10
-3.710398443536974
 20
-8.028920102577972
 10
-3.712798510687674
 20
-8.028920102577972
 10
-3.712798510687674
 20
-8.020932976134802
 97
        0
 75
     0
 76
     1
 98
        0
  0
HATCH
  5
86
330
1F
100
AcDbEntity
  8
XR$1$TB_600_1
  6
AUSGEZOGEN
 62
    18
420
        0
440
 33554687
370
    35
100
AcDbHatch
 10
0.0
 20
0.0
 30
0.0
210
0.0
220
0.0
230
1.0
  2
SOLID
 70
     1
 71
     0
 91
       20
 92
        3
 72
     0
 73
     1
 93
        8
 10
-3.581090049448875
 20
-8.0198702849422
 10
-3.590936885479075
 20
-8.04461101921012
 10
-3.588546190774475
 20
-8.04461101921012
 10
-3.585615138506074
 20
-8.037163889851927
 10
-3.574705611283275
 20
-8.037163889851927
 10
-3.572049243780474
 20
-8.04461101921012
 10
-3.569383864310275
 20
-8.04461101921012
 10
-3.578965027542375
 20
-8.0198702849422
 97
        0
 92
        3
 72
     0
 73
     1
 93
      116
 10
-3.566461824009374
 20
-8.03237348847523
 10
-3.566425415661174
 20
-8.031420743284578
 10
-3.566333854072675
 20
-8.030458986126554
 10
-3.566178127276474
 20
-8.02948821700115
 10
-3.565948862826474
 20
-8.028535471810498
 10
-3.565655793647474
 20
-8.027610483479354
 10
-3.565298559260874
 20
-8.026703519082956
 10
-3.564868147699074
 20
-8.0258426959595
 10
-3.564364198483675
 20
-8.025027293151611
 10
-3.563787432571774
 20
-8.024276416030116
 10
-3.563146140973574
 20
-8.02358934363761
 10
-3.562431672200174
 20
-8.022975448420175
 10
-3.561634653805774
 20
-8.022462487237314
 10
-3.560764458236275
 20
-8.022041448121655
 10
-3.559812073524275
 20
-8.02172999452925
 10
-3.558786151158575
 20
-8.021537498906168
 10
-3.557677679171674
 20
-8.021464321731099
 10
-3.556358687626974
 20
-8.021546510873542
 10
-3.555177038465075
 20
-8.021775775323507
 10
-3.554636680901375
 20
-8.021949526054449
 10
-3.554133092164674
 20
-8.02216941805835
 10
-3.553665911776075
 20
-8.022426078889124
 10
-3.553226127768275
 20
-8.022728160035461
 10
-3.552438481819875
 20
-8.023470025189589
 10
-3.551769793840776
 20
-8.024386001553362
 10
-3.551211051863675
 20
-8.025494473540215
 10
-3.550762255888475
 20
-8.026786068704089
 10
-3.548371561183875
 20
-8.025457704713338
 10
-3.549113426337974
 20
-8.024047151580143
 10
-3.549974249461474
 20
-8.02281972162397
 10
-3.550936006619474
 20
-8.021766402877432
 10
-3.551467352215774
 20
-8.021308594934895
 10
-3.552026094192875
 20
-8.020905579753979
 10
-3.552612232550774
 20
-8.020538972921257
 10
-3.553235139735575
 20
-8.020227519328861
 10
-3.553894815747274
 20
-8.019952834563327
 10
-3.554581888139774
 20
-8.019732942559434
 10
-3.556056606480674
 20
-8.019439873380472
 10
-3.557677679171674
 20
-8.01933929982459
 10
-3.559079220337574
 20
-8.019412476999657
 10
-3.560370815501375
 20
-8.019622996557485
 10
-3.561579861044175
 20
-8.019971218976771
 10
-3.562678960584874
 20
-8.020438399365377
 10
-3.563686498537175
 20
-8.021024537723308
 10
-3.564602474900975
 20
-8.021711610115807
 10
-3.565426889676274
 20
-8.02249024409682
 10
-3.566159742862975
 20
-8.023360439666337
 10
-3.566801034461275
 20
-8.024312824378297
 10
-3.567350403992275
 20
-8.025329734776646
 10
-3.567817584380874
 20
-8.02640143793662
 10
-3.568193203180975
 20
-8.027537306304284
 10
-3.568486272359976
 20
-8.028700571052768
 10
-3.568687779950376
 20
-8.02990961659551
 10
-3.568816110365774
 20
-8.031137046551686
 10
-3.568852518713974
 20
-8.03237348847523
 10
-3.568816110365774
 20
-8.033710864433354
 10
-3.568687779950376
 20
-8.035002459597221
 10
-3.568486272359976
 20
-8.036247913488152
 10
-3.568202215148375
 20
-8.037447947063514
 10
-3.567835968794375
 20
-8.038583815431185
 10
-3.567377800373074
 20
-8.039655518591161
 10
-3.566846815255475
 20
-8.040663056543435
 10
-3.566223908070674
 20
-8.041588044874587
 10
-3.565527823710775
 20
-8.042430844063293
 10
-3.564739817283774
 20
-8.043182081663488
 10
-3.563860609746874
 20
-8.043832385229113
 10
-3.562907864556174
 20
-8.04439112720622
 10
-3.561863918255776
 20
-8.04482153876795
 10
-3.560728049888075
 20
-8.04515137677379
 10
-3.559519004345274
 20
-8.045343872396876
 10
-3.558209024767975
 20
-8.045417049571942
 10
-3.557109925227175
 20
-8.045352884364249
 10
-3.556001453240374
 20
-8.045160388741168
 10
-3.554920738112976
 20
-8.044839923181387
 10
-3.553885443301274
 20
-8.044382115238857
 10
-3.552933058589274
 20
-8.043786604434858
 10
-3.552071874987075
 20
-8.043053751248099
 10
-3.551339021800374
 20
-8.042183555678585
 10
-3.551036940653975
 20
-8.041688978909159
 10
-3.550762255888475
 20
-8.041157633312858
 10
-3.550762255888475
 20
-8.04461101921012
 10
-3.548637233981975
 20
-8.04461101921012
 10
-3.548637233981975
 20
-8.031842142878931
 10
-3.559812073524275
 20
-8.031842142878931
 10
-3.559812073524275
 20
-8.033976537231506
 10
-3.550762255888475
 20
-8.033976537231506
 10
-3.550762255888475
 20
-8.035304540743562
 10
-3.550862829444374
 20
-8.036641916701692
 10
-3.551174283036774
 20
-8.038006689040635
 10
-3.551421571421475
 20
-8.038684388987065
 10
-3.551714640600475
 20
-8.039344064998756
 10
-3.552071874987075
 20
-8.039985356597002
 10
-3.552493274581474
 20
-8.040589879368369
 10
-3.552969466937474
 20
-8.041157633312858
 10
-3.553519196947176
 20
-8.041670594495722
 10
-3.554123719718574
 20
-8.042128762916954
 10
-3.554801419664974
 20
-8.042522405651798
 10
-3.555543645297775
 20
-8.042843231690266
 10
-3.556368060073074
 20
-8.043081147628916
 10
-3.557247267609974
 20
-8.043236874425114
 10
-3.558209024767975
 20
-8.043282655219366
 10
-3.559271715960576
 20
-8.043218490011677
 10
-3.560242485085974
 20
-8.043026354867285
 10
-3.561149449482374
 20
-8.04271490127488
 10
-3.561973503778975
 20
-8.04229350168053
 10
-3.562715729411774
 20
-8.041771528530294
 10
-3.563393429358274
 20
-8.041167005758924
 10
-3.563997952129574
 20
-8.040479933366425
 10
-3.564529297725875
 20
-8.039728695766229
 10
-3.564996478114475
 20
-8.03891365343703
 10
-3.565390120849374
 20
-8.03805246983488
 10
-3.565729331301275
 20
-8.037145865917173
 10
-3.565994643620775
 20
-8.036211505139962
 10
-3.566196151211175
 20
-8.035258759949318
 10
-3.566342866039974
 20
-8.034297002791286
 10
-3.566434427628475
 20
-8.03333524563326
 97
        0
 92
        3
 72
     0
 73
     1
 93
       37
 10
-3.545174836117375
 20
-8.04461101921012
 10
-3.542784141412675
 20
-8.04461101921012
 10
-3.542784141412675
 20
-8.033710864433354
 10
-3.537196361162875
 20
-8.033710864433354
 10
-3.529209234719675
 20
-8.04461101921012
 10
-3.526287194418674
 20
-8.04461101921012
 10
-3.534265308894574
 20
-8.033710864433354
 10
-3.532662260138274
 20
-8.0335093568429
 10
-3.531920394984075
 20
-8.03333524563326
 10
-3.531233683070274
 20
-8.033115353629361
 10
-3.530592391472074
 20
-8.032840668863837
 10
-3.530006253114175
 20
-8.03252020330406
 10
-3.529465535071774
 20
-8.032153596471337
 10
-3.528980330748376
 20
-8.031741569323053
 10
-3.528540546740675
 20
-8.031283400901819
 10
-3.528164927940575
 20
-8.030779812165026
 10
-3.527835089934674
 20
-8.030230082155281
 10
-3.527569777615275
 20
-8.029625559383915
 10
-3.527358897578674
 20
-8.028984267785674
 10
-3.527203170782474
 20
-8.028297555871857
 10
-3.527111609193974
 20
-8.027564702685101
 10
-3.527084212813175
 20
-8.026786068704089
 10
-3.527184786369076
 20
-8.025494473540215
 10
-3.527496239961475
 20
-8.024248659170603
 10
-3.527734516378775
 20
-8.023653508845296
 10
-3.528018573590375
 20
-8.02307638245475
 10
-3.528375807977075
 20
-8.022536024891076
 10
-3.528778823157976
 20
-8.022032075675588
 10
-3.529246003546575
 20
-8.02156489528698
 10
-3.529767976696775
 20
-8.021152868138694
 10
-3.530363487500775
 20
-8.020777249338593
 10
-3.531013791066375
 20
-8.020465795746194
 10
-3.531728259839775
 20
-8.020209495394107
 10
-3.532506893820774
 20
-8.020026011738398
 10
-3.533349332530775
 20
-8.01990705376908
 10
-3.534265308894574
 20
-8.0198702849422
 10
-3.545174836117375
 20
-8.0198702849422
 97
        0
 92
        3
 72
     0
 73
     1
 93
       64
 10
-3.525325437260674
 20
-8.034846732801032
 10
-3.525114917702874
 20
-8.036046405897695
 10
-3.524830860491276
 20
-8.037219043092248
 10
-3.524455241691175
 20
-8.038345539013845
 10
-3.523997433748674
 20
-8.03942661461989
 10
-3.523456715706275
 20
-8.040443164539546
 10
-3.522824796554075
 20
-8.041386537284126
 10
-3.522110327780775
 20
-8.042256732853645
 10
-3.521304297418975
 20
-8.043044739280726
 10
-3.520406705468674
 20
-8.043731451194533
 10
-3.519426563897175
 20
-8.044308577585086
 10
-3.518345848769775
 20
-8.044775757973694
 10
-3.517182584021374
 20
-8.045123980392976
 10
-3.515927397205675
 20
-8.045343872396876
 10
-3.514590742204874
 20
-8.045417049571942
 10
-3.513280762627574
 20
-8.045343872396876
 10
-3.512062344638776
 20
-8.045123980392976
 10
-3.510935848717175
 20
-8.044775757973694
 10
-3.509891541938075
 20
-8.044308577585086
 10
-3.508939157226075
 20
-8.043731451194533
 10
-3.508059589210475
 20
-8.043044739280726
 10
-3.507271943262075
 20
-8.042256732853645
 10
-3.506575858902174
 20
-8.041386537284126
 10
-3.505952951717375
 20
-8.040443164539546
 10
-3.505421606121075
 20
-8.03942661461989
 10
-3.504963798178575
 20
-8.038345539013845
 10
-3.504597191345875
 20
-8.037219043092248
 10
-3.504313494612975
 20
-8.036046405897695
 10
-3.504102614576475
 20
-8.034846732801032
 10
-3.503983656607074
 20
-8.033619302844855
 10
-3.503946887780275
 20
-8.03237348847523
 10
-3.503983656607074
 20
-8.031137046551686
 10
-3.504102614576475
 20
-8.02990961659551
 10
-3.504313494612975
 20
-8.028700571052768
 10
-3.504597191345875
 20
-8.027537306304284
 10
-3.504963798178575
 20
-8.02640143793662
 10
-3.505421606121075
 20
-8.025329734776646
 10
-3.505952951717375
 20
-8.024312824378297
 10
-3.506575858902174
 20
-8.023360439666337
 10
-3.507271943262075
 20
-8.02249024409682
 10
-3.508059589210475
 20
-8.021711610115807
 10
-3.508939157226075
 20
-8.021024537723308
 10
-3.509891541938075
 20
-8.020438399365377
 10
-3.510935848717175
 20
-8.019971218976771
 10
-3.512062344638776
 20
-8.019622996557485
 10
-3.513280762627574
 20
-8.019412476999657
 10
-3.514590742204874
 20
-8.01933929982459
 10
-3.515927397205675
 20
-8.019412476999657
 10
-3.517182584021374
 20
-8.019622996557485
 10
-3.518345848769775
 20
-8.019971218976771
 10
-3.519426563897175
 20
-8.020438399365377
 10
-3.520406705468674
 20
-8.021024537723308
 10
-3.521304297418975
 20
-8.021711610115807
 10
-3.522110327780775
 20
-8.02249024409682
 10
-3.522824796554075
 20
-8.023360439666337
 10
-3.523456715706275
 20
-8.024312824378297
 10
-3.523997433748674
 20
-8.025329734776646
 10
-3.524455241691175
 20
-8.02640143793662
 10
-3.524830860491276
 20
-8.027537306304284
 10
-3.525114917702874
 20
-8.028700571052768
 10
-3.525325437260674
 20
-8.02990961659551
 10
-3.525444395229974
 20
-8.031137046551686
 10
-3.525481164056874
 20
-8.03237348847523
 10
-3.525444395229974
 20
-8.033619302844855
 97
        0
 92
        3
 72
     0
 73
     1
 93
       57
 10
-3.490106668767775
 20
-8.04461101921012
 10
-3.489099130815474
 20
-8.044574250383238
 10
-3.488164770038276
 20
-8.04447367682736
 10
-3.487294574468774
 20
-8.044299565617715
 10
-3.486506568041675
 20
-8.044061289200375
 10
-3.485783087300975
 20
-8.043768220021414
 10
-3.485123771767975
 20
-8.043419997602129
 10
-3.484537272931374
 20
-8.043026354867285
 10
-3.484024311748474
 20
-8.042586570859495
 10
-3.483566503805975
 20
-8.042101006057447
 10
-3.483181873038474
 20
-8.041588044874587
 10
-3.482852035032675
 20
-8.041038675343536
 10
-3.482586362234474
 20
-8.040461548952987
 10
-3.482384854644074
 20
-8.03986603814899
 10
-3.482238139815175
 20
-8.039243491442875
 10
-3.482155950672774
 20
-8.038611211812
 10
-3.482128554291975
 20
-8.037960908246378
 10
-3.482201731467075
 20
-8.036706081909385
 10
-3.482430635438274
 20
-8.035542817160906
 10
-3.482613758615276
 20
-8.034993087151157
 10
-3.482824638651874
 20
-8.034480125968297
 10
-3.483090311449975
 20
-8.03399492164495
 10
-3.483392392596274
 20
-8.033536753223716
 10
-3.483740615015574
 20
-8.033124726075432
 10
-3.484125245783075
 20
-8.032739734829267
 10
-3.484565029790875
 20
-8.032391872888674
 10
-3.485041222146875
 20
-8.03208943126364
 10
-3.485572567743174
 20
-8.031823758465494
 10
-3.486149694133675
 20
-8.031613238907658
 10
-3.486772240839774
 20
-8.031439127698023
 10
-3.487450301264974
 20
-8.031310797282629
 10
-3.486332817310674
 20
-8.031054496930548
 10
-3.485847252508675
 20
-8.030871373753529
 10
-3.485398456533475
 20
-8.030660493717003
 10
-3.484610810585175
 20
-8.030156904980219
 10
-3.483987903400275
 20
-8.029515613381966
 10
-3.483511350565675
 20
-8.028755363814396
 10
-3.483328227388675
 20
-8.02832495225267
 10
-3.483181873038474
 20
-8.027866783831442
 10
-3.482989377415374
 20
-8.026859245879157
 10
-3.482925212207675
 20
-8.025723377511488
 10
-3.482970993001975
 20
-8.025091458359308
 10
-3.483154116178975
 20
-8.024248659170603
 10
-3.483309842975174
 20
-8.023781478781995
 10
-3.483529734979075
 20
-8.023286902012572
 10
-3.483804780223275
 20
-8.022792325243158
 10
-3.484152642163875
 20
-8.022297748473735
 10
-3.484583053725574
 20
-8.021821556117754
 10
-3.485096014908474
 20
-8.021372760142587
 10
-3.485700537679874
 20
-8.020960372515612
 10
-3.486405994485775
 20
-8.020603138128953
 10
-3.487221036814975
 20
-8.020301056982612
 10
-3.488146385624875
 20
-8.020071792532649
 10
-3.489190692403975
 20
-8.01992543818252
 10
-3.490372341565874
 20
-8.0198702849422
 10
-3.501015835511874
 20
-8.0198702849422
 10
-3.501015835511874
 20
-8.04461101921012
 97
        0
 92
        3
 72
     0
 73
     1
 93
       56
 10
-3.474141067370075
 20
-8.04461101921012
 10
-3.462966227827775
 20
-8.04461101921012
 10
-3.460703863538575
 20
-8.044528469588986
 10
-3.459668568726776
 20
-8.04440951161966
 10
-3.458697799601375
 20
-8.044244412377394
 10
-3.457800207650974
 20
-8.044024880852193
 10
-3.456966420429674
 20
-8.043759208054038
 10
-3.456206170862074
 20
-8.04343838201557
 10
-3.455519098469575
 20
-8.043053751248099
 10
-3.454905563730875
 20
-8.042613967240307
 10
-3.454374218134574
 20
-8.04211037850351
 10
-3.453916410192075
 20
-8.041542264080329
 10
-3.453540791391974
 20
-8.040910344928143
 10
-3.453247722212974
 20
-8.040214260568272
 10
-3.453036842176475
 20
-8.039444999033327
 10
-3.452899499793674
 20
-8.038611211812
 10
-3.452863091445475
 20
-8.037695235448222
 10
-3.452890487826274
 20
-8.037026547469162
 10
-3.452982049414774
 20
-8.036394628316977
 10
-3.453128403764974
 20
-8.035817501926429
 10
-3.453329911355374
 20
-8.035286156330125
 10
-3.453577560218774
 20
-8.034800952006773
 10
-3.453870629397775
 20
-8.034361167998984
 10
-3.454209479370974
 20
-8.033967164785443
 10
-3.454585098171075
 20
-8.033609930398782
 10
-3.455006497765474
 20
-8.03328946483901
 10
-3.455455293740574
 20
-8.03301478007348
 10
-3.455940498063975
 20
-8.032776503656146
 10
-3.456453459246775
 20
-8.032574996065689
 10
-3.457543546820275
 20
-8.032272554440663
 10
-3.458716184014774
 20
-8.032107815677081
 10
-3.458716184014774
 20
-8.031842142878931
 10
-3.457580315647075
 20
-8.031503292905715
 10
-3.456572777694874
 20
-8.031081893311367
 10
-3.455711594092675
 20
-8.030568932128503
 10
-3.454988113351975
 20
-8.029946024943692
 10
-3.454419998928774
 20
-8.029213532235628
 10
-3.454191094957575
 20
-8.02881051705472
 10
-3.453998599334475
 20
-8.028361360600861
 10
-3.453742298982375
 20
-8.027381579508083
 10
-3.453659749361274
 20
-8.02625472310779
 10
-3.453696518188074
 20
-8.025439680778593
 10
-3.453815476157474
 20
-8.024688443178396
 10
-3.454007971780574
 20
-8.023992358818518
 10
-3.454273644578675
 20
-8.02335106722027
 10
-3.454603122105874
 20
-8.022773940829717
 10
-3.455006497765474
 20
-8.022251967679484
 10
-3.455464305707975
 20
-8.021784787290883
 10
-3.455986278858175
 20
-8.021372760142587
 10
-3.456563405248774
 20
-8.021006153309862
 10
-3.457195324400974
 20
-8.02069469971746
 10
-3.457873384826076
 20
-8.020438399365377
 10
-3.458596865566774
 20
-8.020236891774923
 10
-3.460172517942275
 20
-8.019961846530704
 10
-3.461903536635175
 20
-8.0198702849422
 10
-3.474141067370075
 20
-8.0198702849422
 97
        0
 92
        3
 72
     0
 73
     1
 93
       58
 10
-3.448603675186375
 20
-8.036101559138013
 10
-3.448539509978674
 20
-8.037301592713385
 10
-3.448356386801675
 20
-8.038409704221541
 10
-3.448053945176675
 20
-8.03942661461989
 10
-3.447650929995775
 20
-8.040360975397098
 10
-3.447156353226374
 20
-8.04121278655318
 10
-3.446579226835775
 20
-8.041973036120748
 10
-3.445928923270175
 20
-8.04265073606719
 10
-3.445214454496875
 20
-8.04325525883855
 10
-3.444435820515874
 20
-8.04377723198879
 10
-3.443611405740575
 20
-8.044217015996582
 10
-3.442759594584474
 20
-8.044592634796683
 10
-3.441871375080276
 20
-8.04489471594301
 10
-3.440964410683774
 20
-8.045123980392976
 10
-3.440048434320074
 20
-8.045288719156556
 10
-3.439132457956275
 20
-8.04538028074506
 10
-3.438225493559875
 20
-8.045417049571942
 10
-3.437318889642175
 20
-8.04538028074506
 10
-3.436402913278375
 20
-8.045288719156556
 10
-3.435486936914676
 20
-8.045123980392976
 10
-3.434589344964274
 20
-8.04489471594301
 10
-3.433700764981374
 20
-8.044592634796683
 10
-3.432839581379175
 20
-8.044217015996582
 10
-3.432015166603874
 20
-8.04377723198879
 10
-3.431245905068975
 20
-8.04325525883855
 10
-3.430522424328275
 20
-8.04265073606719
 10
-3.429871760283974
 20
-8.041973036120748
 10
-3.429294994372075
 20
-8.04121278655318
 10
-3.428800057123975
 20
-8.040360975397098
 10
-3.428397041943074
 20
-8.03942661461989
 10
-3.428094960796775
 20
-8.038409704221541
 10
-3.427911837619774
 20
-8.037301592713385
 10
-3.427847672412075
 20
-8.036101559138013
 10
-3.427847672412075
 20
-8.0198702849422
 10
-3.433966437779475
 20
-8.0198702849422
 10
-3.433966437779475
 20
-8.035570213541714
 10
-3.434021230541074
 20
-8.036541343145807
 10
-3.434186329783374
 20
-8.037438935096144
 10
-3.434470026516275
 20
-8.038253977425342
 10
-3.434900798556674
 20
-8.03895943423129
 10
-3.435477564468575
 20
-8.039545572589208
 10
-3.435825786887875
 20
-8.039783849006545
 10
-3.436210417655274
 20
-8.039985356597002
 10
-3.436650201663074
 20
-8.040141083393205
 10
-3.437126394019074
 20
-8.040260041362528
 10
-3.438225493559875
 20
-8.040360975397098
 10
-3.439324953579374
 20
-8.040260041362528
 10
-3.439801145935374
 20
-8.040141083393205
 10
-3.440240929943174
 20
-8.039985356597002
 10
-3.440625560710575
 20
-8.039783849006545
 10
-3.440973422651175
 20
-8.039545572589208
 10
-3.441550549041775
 20
-8.03895943423129
 10
-3.441980960603475
 20
-8.038253977425342
 10
-3.442265017815075
 20
-8.037438935096144
 10
-3.442430117057375
 20
-8.036541343145807
 10
-3.442484909818974
 20
-8.035570213541714
 10
-3.442484909818974
 20
-8.0198702849422
 10
-3.448603675186375
 20
-8.0198702849422
 97
        0
 92
        3
 72
     0
 73
     1
 93
      105
 10
-3.417469490785475
 20
-8.03237348847523
 10
-3.417442094404675
 20
-8.031365950522952
 10
-3.417350532816175
 20
-8.030431589745744
 10
-3.417203817987375
 20
-8.029561394176225
 10
-3.417002310396875
 20
-8.028773748227838
 10
-3.416755022012175
 20
-8.028049907008453
 10
-3.416452940865875
 20
-8.027399603442836
 10
-3.416104718446574
 20
-8.026813465084906
 10
-3.415711075711775
 20
-8.026291491934668
 10
-3.415280303671275
 20
-8.025833323513437
 10
-3.414813123282675
 20
-8.025448692745963
 10
-3.414309534545874
 20
-8.025118854740118
 10
-3.413769176982275
 20
-8.02485318194197
 10
-3.413201062559075
 20
-8.02465167435151
 10
-3.412605912233775
 20
-8.024505320001381
 10
-3.411992017016274
 20
-8.024422770380244
 10
-3.411350725418074
 20
-8.024395373999425
 10
-3.410554067502274
 20
-8.0244685511745
 10
-3.409775433521275
 20
-8.024679431211027
 10
-3.409033568367174
 20
-8.02500890873817
 10
-3.408328111561274
 20
-8.025457704713338
 10
-3.407686819962974
 20
-8.026007434723079
 10
-3.407128077985874
 20
-8.026639353875265
 10
-3.406661258075975
 20
-8.027344810681202
 10
-3.406294651243275
 20
-8.028123444662214
 10
-3.401247589035775
 20
-8.025723377511488
 10
-3.402181949812975
 20
-8.024303812410919
 10
-3.403198860211375
 20
-8.023039613627862
 10
-3.404316344165575
 20
-8.021949526054449
 10
-3.404911494490875
 20
-8.021473333698468
 10
-3.405534401675674
 20
-8.02103354969068
 10
-3.406184705241275
 20
-8.020648918923206
 10
-3.406862765666375
 20
-8.020310068949986
 10
-3.407577234439775
 20
-8.020016999771023
 10
-3.408319099593874
 20
-8.019778723353685
 10
-3.409088361128775
 20
-8.0195865882093
 10
-3.409894391490675
 20
-8.01944888534784
 10
-3.410737190679375
 20
-8.019366696205397
 10
-3.411616398216175
 20
-8.01933929982459
 10
-3.413026951349374
 20
-8.019412476999657
 10
-3.414346303372774
 20
-8.019613984590112
 10
-3.415591757263674
 20
-8.019952834563327
 10
-3.416746010044875
 20
-8.020401630538492
 10
-3.417817713204774
 20
-8.020969744961679
 10
-3.418797854776275
 20
-8.021638072462046
 10
-3.419695446726574
 20
-8.02240769447568
 10
-3.420501477088475
 20
-8.023259505631762
 10
-3.421215945861774
 20
-8.024202878376352
 10
-3.421838853046575
 20
-8.02521041632863
 10
-3.422370198642874
 20
-8.026291491934668
 10
-3.422809622171974
 20
-8.027417987856273
 10
-3.423148832623875
 20
-8.02860864898557
 10
-3.423396121008575
 20
-8.02982706697437
 10
-3.423542475358675
 20
-8.031091265757427
 10
-3.423597628599075
 20
-8.03237348847523
 10
-3.423542475358675
 20
-8.033665083639102
 10
-3.423386748562475
 20
-8.034919909976097
 10
-3.423121075764374
 20
-8.036147339932272
 10
-3.422763841377674
 20
-8.037328989094194
 10
-3.422296660989075
 20
-8.038464857461864
 10
-3.421737919011975
 20
-8.039545572589208
 10
-3.421087615446374
 20
-8.040553110541488
 10
-3.420336738324874
 20
-8.041487471318707
 10
-3.419484927168775
 20
-8.042348294442151
 10
-3.418550566391575
 20
-8.043108904488422
 10
-3.417524644025875
 20
-8.043786604434858
 10
-3.416407160071575
 20
-8.044345346411967
 10
-3.415207126496275
 20
-8.044803154354508
 10
-3.413915531332374
 20
-8.045132992360353
 10
-3.412541747026076
 20
-8.045343872396876
 10
-3.411085413098574
 20
-8.045417049571942
 10
-3.410343187465775
 20
-8.045389653191133
 10
-3.409610694757775
 20
-8.045307103569995
 10
-3.408163372797674
 20
-8.04497726556415
 10
-3.407467288437775
 20
-8.044739349625509
 10
-3.406780216045275
 20
-8.044445919967846
 10
-3.406111528066175
 20
-8.04410706999463
 10
-3.405470236467975
 20
-8.043713427259789
 10
-3.404242806511774
 20
-8.042806462863393
 10
-3.403116310590175
 20
-8.041707363322603
 10
-3.402117784605275
 20
-8.04045253698561
 10
-3.401659976662774
 20
-8.039756092147039
 10
-3.401247589035775
 20
-8.039023599438975
 10
-3.406028978445075
 20
-8.036632904734319
 10
-3.406487146866274
 20
-8.037466331476953
 10
-3.407045888843474
 20
-8.038180800250274
 10
-3.407677807995574
 20
-8.038776311054269
 10
-3.408364880388074
 20
-8.039261515377616
 10
-3.409069976715374
 20
-8.039628122210342
 10
-3.409775433521275
 20
-8.039884422562427
 10
-3.410453133467775
 20
-8.040040149358628
 10
-3.411085413098574
 20
-8.040095302598953
 10
-3.411992017016274
 20
-8.040040149358628
 10
-3.412816431791575
 20
-8.03990280697587
 10
-3.413558296945675
 20
-8.039673903004598
 10
-3.414217972957375
 20
-8.039371461379568
 10
-3.414813123282675
 20
-8.038995842579471
 10
-3.415326084465575
 20
-8.038565431017744
 10
-3.415784252886774
 20
-8.03807085424832
 10
-3.416178256100374
 20
-8.03753049668465
 10
-3.416507733627475
 20
-8.036953370294095
 10
-3.416782778871674
 20
-8.036339835555355
 10
-3.417011682842976
 20
-8.035698543957103
 10
-3.417185794052574
 20
-8.035038867945417
 10
-3.417405325577775
 20
-8.033701491987294
 97
        0
 92
        3
 72
     0
 73
     1
 93
       12
 10
-3.397785191171174
 20
-8.04461101921012
 10
-3.391666425803675
 20
-8.04461101921012
 10
-3.391666425803675
 20
-8.034242210029657
 10
-3.382350935369775
 20
-8.034242210029657
 10
-3.382350935369775
 20
-8.04461101921012
 10
-3.376232530480974
 20
-8.04461101921012
 10
-3.376232530480974
 20
-8.0198702849422
 10
-3.382350935369775
 20
-8.0198702849422
 10
-3.382350935369775
 20
-8.028920102577972
 10
-3.391666425803675
 20
-8.028920102577972
 10
-3.391666425803675
 20
-8.0198702849422
 10
-3.397785191171174
 20
-8.0198702849422
 97
        0
 92
        3
 72
     0
 73
     1
 93
        8
 10
-3.360266929083374
 20
-8.024661046797583
 10
-3.353882490917774
 20
-8.024661046797583
 10
-3.353882490917774
 20
-8.0198702849422
 10
-3.373044817381874
 20
-8.0198702849422
 10
-3.373044817381874
 20
-8.024661046797583
 10
-3.366385694450774
 20
-8.024661046797583
 10
-3.366385694450774
 20
-8.04461101921012
 10
-3.360266929083374
 20
-8.04461101921012
 97
        0
 92
        3
 72
     0
 73
     1
 93
        8
 10
-3.355751212472175
 20
-8.04461101921012
 10
-3.349092089541076
 20
-8.04461101921012
 10
-3.347763725550275
 20
-8.040891960514713
 10
-3.338723280360574
 20
-8.040891960514713
 10
-3.337385904402475
 20
-8.04461101921012
 10
-3.330735793438774
 20
-8.04461101921012
 10
-3.340051283872675
 20
-8.0198702849422
 10
-3.346435722038275
 20
-8.0198702849422
 97
        0
 92
        3
 72
     0
 73
     1
 93
        6
 10
-3.328079425935874
 20
-8.04461101921012
 10
-3.312114185016974
 20
-8.04461101921012
 10
-3.312114185016974
 20
-8.039563957002654
 10
-3.321694987770275
 20
-8.039563957002654
 10
-3.321694987770275
 20
-8.0198702849422
 10
-3.328079425935874
 20
-8.0198702849422
 97
        0
 92
       18
 72
     0
 73
     1
 93
        3
 10
-3.580027718734974
 20
-8.023067010008685
 10
-3.575502629677775
 20
-8.035304540743562
 10
-3.584818120111674
 20
-8.035304540743562
 97
        0
 92
       18
 72
     0
 73
     1
 93
       29
 10
-3.535062327288975
 20
-8.02227035209292
 10
-3.533587608948074
 20
-8.02234352926799
 10
-3.532351167024574
 20
-8.022563421271883
 10
-3.531819821428274
 20
-8.022728160035461
 10
-3.531343268593574
 20
-8.022929667625913
 10
-3.530912857031875
 20
-8.023158932075884
 10
-3.530537238231774
 20
-8.023433616841407
 10
-3.530216772671976
 20
-8.023735697987735
 10
-3.529942087906474
 20
-8.024074908439658
 10
-3.529712823456475
 20
-8.024441154793685
 10
-3.529529700279475
 20
-8.024844169974592
 10
-3.529291784340775
 20
-8.025751134370996
 10
-3.529209234719675
 20
-8.026786068704089
 10
-3.529273399927374
 20
-8.027683660654422
 10
-3.529493291931275
 20
-8.028544844256569
 10
-3.529667042662274
 20
-8.028956871404855
 10
-3.529886934666075
 20
-8.029359886585762
 10
-3.530152607464274
 20
-8.029735505385865
 10
-3.530473073024075
 20
-8.030083727805152
 10
-3.530848691824175
 20
-8.030404193364925
 10
-3.531288475831975
 20
-8.030697262543889
 10
-3.531792425047474
 20
-8.03095356289597
 10
-3.532351167024574
 20
-8.031164442932493
 10
-3.532983086176774
 20
-8.03133855414214
 10
-3.533688182503976
 20
-8.031466524078834
 10
-3.534476188931075
 20
-8.03154907369997
 10
-3.535328000087175
 20
-8.031576470080786
 10
-3.542784141412675
 20
-8.031576470080786
 10
-3.542784141412675
 20
-8.02227035209292
 97
        0
 92
       18
 72
     0
 73
     1
 93
       64
 10
-3.523063072971475
 20
-8.031420743284578
 10
-3.522962138936874
 20
-8.030458986126554
 10
-3.522806412140674
 20
-8.02948821700115
 10
-3.522586520136775
 20
-8.028535471810498
 10
-3.522293450957775
 20
-8.027610483479354
 10
-3.521936216571175
 20
-8.026703519082956
 10
-3.521515177455475
 20
-8.0258426959595
 10
-3.521029612653475
 20
-8.025027293151611
 10
-3.520470870676275
 20
-8.024276416030116
 10
-3.519838591045475
 20
-8.02358934363761
 10
-3.519142506685574
 20
-8.022975448420175
 10
-3.518373245150574
 20
-8.022462487237314
 10
-3.517539818407974
 20
-8.022041448121655
 10
-3.516623842044174
 20
-8.02172999452925
 10
-3.515644060951475
 20
-8.021537498906168
 10
-3.514590742204874
 20
-8.021464321731099
 10
-3.513528051012275
 20
-8.021537498906168
 10
-3.512547909440874
 20
-8.02172999452925
 10
-3.511650317490475
 20
-8.022041448121655
 10
-3.510825902715276
 20
-8.022462487237314
 10
-3.510084037561074
 20
-8.022975448420175
 10
-3.509405977135974
 20
-8.02358934363761
 10
-3.508801454364574
 20
-8.024276416030116
 10
-3.508270469246975
 20
-8.025027293151611
 10
-3.507803288858374
 20
-8.0258426959595
 10
-3.507409285644874
 20
-8.026703519082956
 10
-3.507070435671675
 20
-8.027610483479354
 10
-3.506804762873474
 20
-8.028535471810498
 10
-3.506594243315675
 20
-8.02948821700115
 10
-3.506456540454175
 20
-8.030458986126554
 10
-3.506364978865674
 20
-8.031420743284578
 10
-3.506337582484874
 20
-8.03237348847523
 10
-3.506364978865674
 20
-8.03333524563326
 10
-3.506456540454175
 20
-8.034297002791286
 10
-3.506594243315675
 20
-8.035258759949318
 10
-3.506804762873474
 20
-8.036211505139962
 10
-3.507070435671675
 20
-8.037145865917173
 10
-3.507409285644874
 20
-8.03805246983488
 10
-3.507803288858374
 20
-8.03891365343703
 10
-3.508270469246975
 20
-8.039728695766229
 10
-3.508801454364574
 20
-8.040479933366425
 10
-3.509405977135974
 20
-8.041167005758924
 10
-3.510084037561074
 20
-8.041771528530294
 10
-3.510825902715276
 20
-8.04229350168053
 10
-3.511650317490475
 20
-8.04271490127488
 10
-3.512547909440874
 20
-8.043026354867285
 10
-3.513528051012275
 20
-8.043218490011677
 10
-3.514590742204874
 20
-8.043282655219366
 10
-3.515644060951475
 20
-8.043218490011677
 10
-3.516623842044174
 20
-8.043026354867285
 10
-3.517539818407974
 20
-8.04271490127488
 10
-3.518373245150574
 20
-8.04229350168053
 10
-3.519142506685574
 20
-8.041771528530294
 10
-3.519838591045475
 20
-8.041167005758924
 10
-3.520470870676275
 20
-8.040479933366425
 10
-3.521029612653475
 20
-8.039728695766229
 10
-3.521515177455475
 20
-8.03891365343703
 10
-3.521936216571175
 20
-8.03805246983488
 10
-3.522293450957775
 20
-8.037145865917173
 10
-3.522586520136775
 20
-8.036211505139962
 10
-3.522806412140674
 20
-8.035258759949318
 10
-3.522962138936874
 20
-8.034297002791286
 10
-3.523063072971475
 20
-8.03333524563326
 10
-3.523090469352274
 20
-8.03237348847523
 97
        0
 92
       18
 72
     0
 73
     1
 93
       26
 10
-3.490903326683475
 20
-8.02227035209292
 10
-3.489593707584875
 20
-8.02230676044111
 10
-3.488466851184575
 20
-8.02244446330257
 10
-3.487505094026575
 20
-8.022682379241205
 10
-3.487083694432175
 20
-8.02285649045085
 10
-3.486717448078175
 20
-8.023067010008685
 10
-3.486387610072375
 20
-8.023305286426021
 10
-3.486103552860774
 20
-8.02358934363761
 10
-3.485865636922075
 20
-8.023919181643452
 10
-3.485673141299075
 20
-8.024285427997482
 10
-3.485517414502875
 20
-8.02470682759183
 10
-3.485407468500875
 20
-8.025164635534374
 10
-3.485315906912375
 20
-8.02625472310779
 10
-3.485416840946974
 20
-8.027207468298442
 10
-3.485535798916274
 20
-8.027637879860167
 10
-3.485709910125875
 20
-8.028040895041075
 10
-3.485920429683775
 20
-8.028425525808549
 10
-3.486177090514474
 20
-8.028773748227838
 10
-3.486818021634075
 20
-8.029387282966585
 10
-3.487615040028574
 20
-8.02987284776863
 10
-3.488082220417176
 20
-8.030065343391712
 10
-3.488576797186575
 20
-8.030221070187912
 10
-3.489675896727376
 20
-8.030440601713115
 10
-3.490903326683475
 20
-8.030514139366877
 10
-3.498625140807274
 20
-8.030514139366877
 10
-3.498625140807274
 20
-8.02227035209292
 97
        0
 92
       18
 72
     0
 73
     1
 93
       28
 10
-3.490903326683475
 20
-8.032639161273387
 10
-3.489410223929174
 20
-8.032739734829267
 10
-3.488109616797975
 20
-8.033023792040856
 10
-3.487541862853475
 20
-8.03323467207738
 10
-3.487019529224574
 20
-8.03348196046209
 10
-3.486543336868575
 20
-8.03377502964105
 10
-3.486121937274175
 20
-8.034104507168202
 10
-3.485746318474074
 20
-8.034471114000931
 10
-3.485416840946974
 20
-8.034874129181842
 10
-3.485141795702774
 20
-8.035313913189638
 10
-3.484922264177575
 20
-8.035781093578237
 10
-3.484748152967875
 20
-8.036284682315033
 10
-3.484619822552474
 20
-8.036816027911332
 10
-3.484519248996575
 20
-8.037960908246378
 10
-3.484601438139075
 20
-8.038766938608202
 10
-3.484830342110375
 20
-8.039563957002654
 10
-3.485233717769975
 20
-8.040333218537597
 10
-3.485819856127874
 20
-8.041020290930096
 10
-3.486177090514474
 20
-8.041331744522502
 10
-3.486589117662775
 20
-8.04161580173409
 10
-3.487047286084076
 20
-8.041863090118804
 10
-3.487550874820875
 20
-8.042082982122698
 10
-3.488109616797975
 20
-8.042247720886273
 10
-3.488723512015376
 20
-8.042376051301659
 10
-3.489392199994475
 20
-8.042458240444098
 10
-3.490106668767775
 20
-8.042485997303611
 10
-3.498625140807274
 20
-8.042485997303611
 10
-3.498625140807274
 20
-8.032639161273387
 97
        0
 92
       18
 72
     0
 73
     1
 93
       19
 10
-3.462966227827775
 20
-8.024661046797583
 10
-3.462297539848775
 20
-8.024688443178396
 10
-3.461683644631274
 20
-8.02477099279953
 10
-3.461143287067675
 20
-8.024926719595733
 10
-3.460676106679074
 20
-8.025155623566999
 10
-3.460300487878875
 20
-8.025476089126778
 10
-3.460016791146075
 20
-8.025897488721133
 10
-3.459842679936374
 20
-8.026419822350064
 10
-3.459778514728675
 20
-8.027051741502241
 10
-3.459842679936374
 20
-8.02770204506786
 10
-3.460016791146075
 20
-8.028260787044976
 10
-3.460300487878875
 20
-8.028718594987517
 10
-3.460676106679074
 20
-8.029085201820244
 10
-3.461143287067675
 20
-8.029369259031832
 10
-3.461683644631274
 20
-8.029561394176225
 10
-3.462297539848775
 20
-8.029680352145544
 10
-3.462966227827775
 20
-8.029717120972425
 10
-3.468287974800775
 20
-8.029717120972425
 10
-3.468287974800775
 20
-8.024661046797583
 97
        0
 92
       18
 72
     0
 73
     1
 93
       19
 10
-3.461903536635175
 20
-8.034242210029657
 10
-3.461170683448475
 20
-8.034287990823913
 10
-3.460548136742375
 20
-8.03443434517405
 10
-3.460044187526874
 20
-8.034672621591383
 10
-3.459641172345974
 20
-8.035002459597221
 10
-3.459348103166975
 20
-8.035423859191582
 10
-3.459137223130475
 20
-8.035918435961
 10
-3.459018265161175
 20
-8.036504574318933
 10
-3.458981496334275
 20
-8.037163889851927
 10
-3.459018265161175
 20
-8.037750388688542
 10
-3.459155607543874
 20
-8.038299758219596
 10
-3.459402895928574
 20
-8.038794334989015
 10
-3.459778514728675
 20
-8.039225107029434
 10
-3.460300487878875
 20
-8.039591353383464
 10
-3.460996932717474
 20
-8.039857026181616
 10
-3.461885152221775
 20
-8.040031137391257
 10
-3.462966227827775
 20
-8.040095302598953
 10
-3.468022302002674
 20
-8.040095302598953
 10
-3.468022302002674
 20
-8.034242210029657
 97
        0
 92
       18
 72
     0
 73
     1
 93
        3
 10
-3.343238996971774
 20
-8.025989050309638
 10
-3.340316956670774
 20
-8.036367231936167
 10
-3.346435722038275
 20
-8.036367231936167
 97
        0
 75
     0
 76
     1
 98
        0
  0
HATCH
  5
88
102
{ACAD_REACTORS
330
87
102
}
330
1F
100
AcDbEntity
  8
XR$1$TB_600_1
  6
AUSGEZOGEN
 62
     3
440
 33554687
370
    35
100
AcDbHatch
 10
0.0
 20
0.0
 30
0.0
210
0.0
220
0.0
230
1.0
  2
SOLID
 70
     1
 71
     0
 91
        1
 92
        3
 72
     0
 73
     1
 93
       22
 10
-3.619936675527374
 20
-8.044885703975645
 10
-3.604768092524174
 20
-8.044885703975645
 10
-3.606050315241974
 20
-8.044042904786934
 10
-3.607296129611575
 20
-8.043126928423167
 10
-3.608496163186975
 20
-8.042119390470887
 10
-3.609632031554676
 20
-8.041020290930096
 10
-3.610685350301174
 20
-8.039829629800801
 10
-3.611656119426575
 20
-8.038519650223488
 10
-3.612526314996075
 20
-8.037100085122923
 10
-3.613286564563675
 20
-8.035570213541714
 10
-3.613753744952275
 20
-8.034571687556813
 10
-3.614156760133175
 20
-8.033564149604535
 10
-3.614504982552474
 20
-8.032556611652248
 10
-3.614798051731475
 20
-8.03154907369997
 10
-3.615201066912375
 20
-8.029524625349344
 10
-3.615384190089374
 20
-8.027518921890847
 10
-3.615347781741174
 20
-8.025540254334471
 10
-3.615118517291175
 20
-8.023598355604976
 10
-3.614697117696875
 20
-8.02170223766974
 10
-3.614413420963975
 20
-8.020777249338593
 10
-3.614083582958175
 20
-8.0198702849422
 10
-3.619936675527374
 20
-8.0198702849422
 97
        0
 75
     0
 76
     1
 98
        0
  0
HATCH
  5
89
102
{ACAD_REACTORS
330
87
102
}
330
1F
100
AcDbEntity
  8
XR$1$TB_600_1
  6
AUSGEZOGEN
 62
     3
440
 33554687
370
    35
100
AcDbHatch
 10
0.0
 20
0.0
 30
0.0
210
0.0
220
0.0
230
1.0
  2
SOLID
 70
     1
 71
     0
 91
        1
 92
        3
 72
     0
 73
     1
 93
       24
 10
-3.607369306786675
 20
-8.041167005758924
 10
-3.606160261243974
 20
-8.042284489713152
 10
-3.604832257731875
 20
-8.043292027665434
 10
-3.603394308217875
 20
-8.044152850788882
 10
-3.601846052223276
 20
-8.044885703975645
 10
-3.594930628940075
 20
-8.044885703975645
 10
-3.594930628940075
 20
-8.0198702849422
 10
-3.608496163186975
 20
-8.0198702849422
 10
-3.609054905164075
 20
-8.020511576540446
 10
-3.609531097520075
 20
-8.021235057281135
 10
-3.610355512295374
 20
-8.022801697689221
 10
-3.610731131095475
 20
-8.023598355604976
 10
-3.611060969101275
 20
-8.024413758412875
 10
-3.611335653866775
 20
-8.02522880074207
 10
-3.611564557838074
 20
-8.02605321551733
 10
-3.611885383876575
 20
-8.02770204506786
 10
-3.612022726259275
 20
-8.029350874618391
 10
-3.611985957432474
 20
-8.030999704168927
 10
-3.611784449841975
 20
-8.032611764892568
 10
-3.611418203487975
 20
-8.034196429235406
 10
-3.610895869858975
 20
-8.035734952305289
 10
-3.610218169912575
 20
-8.03720967064618
 10
-3.609402767104674
 20
-8.038620584258068
 10
-3.608450382392774
 20
-8.03993957580275
 97
        0
 75
     0
 76
     1
 98
        0
  0
LINE
  5
8A
330
1F
100
AcDbEntity
  8
XR$1$TB_600_1
  6
AUSGEZOGEN
 62
    35
440
 33554687
370
    70
100
AcDbLine
 10
-3.833383
 20
-6.68325
 30
0.0
 11
-3.833383
 21
-8.16825
 31
0.0
  0
LINE
  5
8B
330
1F
100
AcDbEntity
  8
XR$1$TB_600_1
  6
AUSGEZOGEN
 62
    35
440
 33554687
370
    70
100
AcDbLine
 10
-2.783383
 20
-6.68325
 30
0.0
 11
-3.833383
 21
-6.68325
 31
0.0
  0
LINE
  5
8C
330
1F
100
AcDbEntity
  8
XR$1$TB_600_1
  6
AUSGEZOGEN
 62
    35
440
 33554687
370
    70
100
AcDbLine
 10
-2.783383
 20
-8.16825
 30
0.0
 11
-2.783383
 21
-6.68325
 31
0.0
  0
LINE
  5
8D
330
1F
100
AcDbEntity
  8
XR$1$TB_600_1
  6
AUSGEZOGEN
 62
     7
440
 33554687
370
    -3
100
AcDbLine
 10
-2.952149
 20
-6.95444
 30
0.0
 11
-2.952149
 21
-7.727773
 31
0.0
  0
LINE
  5
8E
330
1F
100
AcDbEntity
  8
XR$1$TB_600_1
  6
AUSGEZOGEN
 62
     7
440
 33554687
370
    -3
100
AcDbLine
 10
-2.932149
 20
-6.97444
 30
0.0
 11
-3.705482
 21
-6.97444
 31
0.0
  0
LINE
  5
8F
330
1F
100
AcDbEntity
  8
XR$1$TB_600_1
  6
AUSGEZOGEN
 62
     7
440
 33554687
370
    -3
100
AcDbLine
 10
-3.705482
 20
-7.707773
 30
0.0
 11
-2.932149
 21
-7.707773
 31
0.0
  0
LINE
  5
90
330
1F
100
AcDbEntity
  8
XR$1$TB_600_1
  6
AUSGEZOGEN
 62
     7
440
 33554687
370
    -3
100
AcDbLine
 10
-3.685482
 20
-7.727773
 30
0.0
 11
-3.685482
 21
-6.95444
 31
0.0
  0
LINE
  5
91
330
1F
100
AcDbEntity
  8
XR$1$TB_600_1
  6
AUSGEZOGEN
 62
     7
440
 33554687
370
    -3
100
AcDbLine
 10
-3.685482
 20
-7.50644
 30
0.0
 11
-2.952149
 21
-7.50644
 31
0.0
  0
LINE
  5
92
330
1F
100
AcDbEntity
  8
XR$1$TB_600_1
  6
AUSGEZOGEN
 62
     7
440
 33554687
370
    -3
100
AcDbLine
 10
-3.685482
 20
-7.509107
 30
0.0
 11
-2.952149
 21
-7.509107
 31
0.0
  0
LINE
  5
93
330
1F
100
AcDbEntity
  8
XR$1$TB_600_1
  6
AUSGEZOGEN
 62
     7
440
 33554687
370
    -3
100
AcDbLine
 10
-3.230482
 20
-6.97444
 30
0.0
 11
-3.230482
 21
-7.50644
 31
0.0
  0
LINE
  5
94
330
1F
100
AcDbEntity
  8
XR$1$TB_600_1
  6
AUSGEZOGEN
 62
     7
440
 33554687
370
    -3
100
AcDbLine
 10
-3.227149
 20
-6.97444
 30
0.0
 11
-3.227149
 21
-7.50644
 31
0.0
  0
LINE
  5
95
330
1F
100
AcDbEntity
  8
XR$1$TB_600_1
  6
AUSGEZOGEN
 62
     7
440
 33554687
370
    -3
100
AcDbLine
 10
-3.230482
 20
-7.509107
 30
0.0
 11
-3.230482
 21
-7.707773
 31
0.0
  0
LINE
  5
96
330
1F
100
AcDbEntity
  8
XR$1$TB_600_1
  6
AUSGEZOGEN
 62
     7
440
 33554687
370
    -3
100
AcDbLine
 10
-3.227149
 20
-7.509107
 30
0.0
 11
-3.227149
 21
-7.707773
 31
0.0
  0
LINE
  5
97
330
1F
100
AcDbEntity
  8
XR$1$TB_600_1
  6
AUSGEZOGEN
 62
     7
440
 33554687
370
    -3
100
AcDbLine
 10
-3.395149
 20
-6.97444
 30
0.0
 11
-3.395149
 21
-7.50644
 31
0.0
  0
LINE
  5
98
330
1F
100
AcDbEntity
  8
XR$1$TB_600_1
  6
AUSGEZOGEN
 62
     7
440
 33554687
370
    -3
100
AcDbLine
 10
-3.398482
 20
-6.97444
 30
0.0
 11
-3.398482
 21
-7.50644
 31
0.0
  0
LINE
  5
99
330
1F
100
AcDbEntity
  8
XR$1$TB_600_1
  6
AUSGEZOGEN
 62
     7
440
 33554687
370
    -3
100
AcDbLine
 10
-3.395149
 20
-7.509107
 30
0.0
 11
-3.395149
 21
-7.707773
 31
0.0
  0
LINE
  5
9A
330
1F
100
AcDbEntity
  8
XR$1$TB_600_1
  6
AUSGEZOGEN
 62
     7
440
 33554687
370
    -3
100
AcDbLine
 10
-3.398482
 20
-7.509107
 30
0.0
 11
-3.398482
 21
-7.707773
 31
0.0
  0
LINE
  5
9B
330
1F
100
AcDbEntity
  8
XR$1$TB_600_1
  6
AUSGEZOGEN
 62
     7
440
 33554687
370
    -3
100
AcDbLine
 10
-3.563149
 20
-6.97444
 30
0.0
 11
-3.563149
 21
-7.50644
 31
0.0
  0
LINE
  5
9C
330
1F
100
AcDbEntity
  8
XR$1$TB_600_1
  6
AUSGEZOGEN
 62
     7
440
 33554687
370
    -3
100
AcDbLine
 10
-3.566482
 20
-6.97444
 30
0.0
 11
-3.566482
 21
-7.50644
 31
0.0
  0
LINE
  5
9D
330
1F
100
AcDbEntity
  8
XR$1$TB_600_1
  6
AUSGEZOGEN
 62
     7
440
 33554687
370
    -3
100
AcDbLine
 10
-3.563149
 20
-7.509107
 30
0.0
 11
-3.563149
 21
-7.707773
 31
0.0
  0
LINE
  5
9E
330
1F
100
AcDbEntity
  8
XR$1$TB_600_1
  6
AUSGEZOGEN
 62
     7
440
 33554687
370
    -3
100
AcDbLine
 10
-3.566482
 20
-7.509107
 30
0.0
 11
-3.566482
 21
-7.707773
 31
0.0
  0
LINE
  5
9F
330
1F
100
AcDbEntity
  8
XR$1$TB_600_1
  6
AUSGEZOGEN
 62
     7
440
 33554687
370
    -3
100
AcDbLine
 10
-3.062482
 20
-6.97444
 30
0.0
 11
-3.062482
 21
-7.50644
 31
0.0
  0
LINE
  5
A0
330
1F
100
AcDbEntity
  8
XR$1$TB_600_1
  6
AUSGEZOGEN
 62
     7
440
 33554687
370
    -3
100
AcDbLine
 10
-3.059149
 20
-6.97444
 30
0.0
 11
-3.059149
 21
-7.50644
 31
0.0
  0
LINE
  5
A1
330
1F
100
AcDbEntity
  8
XR$1$TB_600_1
  6
AUSGEZOGEN
 62
     7
440
 33554687
370
    -3
100
AcDbLine
 10
-3.062482
 20
-7.509107
 30
0.0
 11
-3.062482
 21
-7.707773
 31
0.0
  0
LINE
  5
A2
330
1F
100
AcDbEntity
  8
XR$1$TB_600_1
  6
AUSGEZOGEN
 62
     7
440
 33554687
370
    -3
100
AcDbLine
 10
-3.059149
 20
-7.509107
 30
0.0
 11
-3.059149
 21
-7.707773
 31
0.0
  0
MTEXT
  5
A3
330
1F
100
AcDbEntity
  8
XR$1$TB_600_1
  6
AUSGEZOGEN
 62
     7
440
 33554687
370
    -3
100
AcDbMText
 10
-3.715574
 20
-8.100872
 30
0.0
 40
0.009
 41
0.89646
 46
0.0
 71
     7
 72
     5
  1
\W0.85;THESE ARE NOT BINDING CONSTRUCTION PROPOSALS WHICH HAVE TO BE VERIFIED FOR EACH INDIVIDUAL PROJECT AS REGARDS APPLICABILITY AND CORRECTNESS.
  7
ARIAL
 73
     1
 44
1.0
  0
MTEXT
  5
A4
330
1F
100
AcDbEntity
  8
XR$1$TB_600_1
  6
AUSGEZOGEN
 62
     7
440
 33554687
370
    -3
100
AcDbMText
 10
-3.715574
 20
-8.082872
 30
0.0
 40
0.009
 41
0.8975
 46
0.0
 71
     7
 72
     5
  1
\W0.91;DIES SIND UNVERBINDLICHE KONSTRUKTIONSVORSCHLÄGE, DIE FÜR JEDES PROJEKT AUF ANWENDBARKEIT UND RICHTIGKEIT GEPRÜFT WERDEN MÜSSEN.
  7
ARIAL
 73
     1
 44
1.0
  0
MTEXT
  5
A5
330
1F
100
AcDbEntity
  8
XR$1$TB_600_1
  6
AUSGEZOGEN
 62
     7
440
 33554687
370
    -3
100
AcDbMText
 10
-3.715574
 20
-8.118872
 30
0.0
 40
0.009
 41
0.895804
 46
0.0
 71
     7
 72
     5
  1
\W0.80;IL S' AGIT DE PROPOSITIONS DE CONSTRUCTION SANS ENGAGEMENT DE NOTRE PART QUI DOIVENT ETRE VERIFIEES POUR CHAQUE PROJET A LEUR EXACTITUDE ET FAISABILITE.
  7
ARIAL
 73
     1
 44
1.0
  0
MTEXT
  5
A6
330
1F
100
AcDbEntity
  8
XR$1$TB_600_1
  6
AUSGEZOGEN
 62
     7
440
 33554687
370
    -3
100
AcDbMText
 10
-3.300914
 20
-8.044943
 30
0.0
 40
0.009
 41
0.348436
 46
0.0
 71
     7
 72
     5
  1
\W0.92;Tel. 09435 / 391 3238   e-mail: as.fassade@deutsche-steinzeug.de
  7
ARIAL
 73
     1
 44
1.0
  0
LINE
  5
A7
330
1F
100
AcDbEntity
  8
XR$1$TB_600_1
  6
AUSGEZOGEN
 62
    35
440
 33554687
370
    70
100
AcDbLine
 10
-3.833383
 20
-8.16825
 30
0.0
 11
-2.783393
 21
-8.16825
 31
0.0
  0
MTEXT
  5
A8
330
1F
100
AcDbEntity
  8
XR$1$TB_600_1
  6
AUSGEZOGEN
 62
     7
440
 33554687
370
    -3
100
AcDbMText
 10
-3.712011
 20
-6.761878
 30
0.0
 40
0.025
 41
0.242542
 46
0.0
 71
     7
 72
     5
  1
\W1.00;KeraTwin  K20
  7
ARIAL
 73
     1
 44
1.0
  0
MTEXT
  5
A9
330
1F
100
AcDbEntity
  8
XR$1$TB_600_1
  6
AUSGEZOGEN
 62
     7
440
 33554687
370
    -3
100
AcDbMText
 10
-3.56515
 20
-6.749194
 30
0.0
 40
0.0175
 41
0.026744
 46
0.0
 71
     7
 72
     5
  1
\W0.99;®
  7
ARIAL
 73
     1
 44
1.0
  0
MTEXT
  5
AA
330
1F
100
AcDbEntity
  8
XR$1$TB_600_1
  6
AUSGEZOGEN
 62
     7
440
 33554687
370
    -3
100
AcDbMText
 10
-3.712011
 20
-6.828949
 30
0.0
 40
0.0175
 41
0.453374
 46
0.0
 71
     7
 72
     5
  1
\W0.96;VERTIKALE VERLEGUNG MIT OMEGA S
  7
ARIAL
 73
     1
 44
1.0
  0
MTEXT
  5
AB
330
1F
100
AcDbEntity
  8
XR$1$TB_600_1
  6
AUSGEZOGEN
 62
     7
440
 33554687
370
    -3
100
AcDbMText
 10
-3.712011
 20
-6.855199
 30
0.0
 40
0.0175
 41
0.445273
 46
0.0
 71
     7
 72
     5
  1
\W0.96;VERTICAL FASTENING WITH OMEGA S
  7
ARIAL
 73
     1
 44
1.0
  0
MTEXT
  5
AC
330
1F
100
AcDbEntity
  8
XR$1$TB_600_1
  6
AUSGEZOGEN
 62
     7
440
 33554687
370
    -3
100
AcDbMText
 10
-3.712011
 20
-6.881449
 30
0.0
 40
0.0175
 41
0.423219
 46
0.0
 71
     7
 72
     5
  1
\W0.96;FIXATION VERTICALE PAR OMEGA S
  7
ARIAL
 73
     1
 44
1.0
  0
MTEXT
  5
AD
330
1F
100
AcDbEntity
  8
XR$1$TB_600_1
  6
AUSGEZOGEN
 62
     7
440
 33554687
370
    -3
100
AcDbMText
 10
-3.717528
 20
-7.944555
 30
0.0
 40
0.0125
 41
0.751283
 46
0.0
 71
     1
 72
     5
  3
\A1;{\fArial|i0|b0;\H0.012500;\W1.000000;\C7;Alle Rechte vorbehalten. Außervertragliche Nutzung nur mit unserer schriftlichen Genehmigung.}\P{\fArial|i0|b0;\H0.012500;\W1.000000;\C7;All rights reserved. Noncontract use is subject to our previous writ
  1
ten consent.}\P{\fArial|i0|b0;\H0.012500;\W1.000000;\C7;Tous droits réservés. Utilisation hors contract seulement avec notre autorisation écrite.}\P
  7
ARIAL
 73
     1
 44
0.903614
  0
MTEXT
  5
AE
330
1F
100
AcDbEntity
  8
XR$1$TB_600_1
  6
AUSGEZOGEN
 62
     7
440
 33554687
370
    -3
100
AcDbMText
 10
-3.622259
 20
-7.83281
 30
0.0
 40
0.0175
 41
0.678715
 46
0.0
 71
     7
 72
     5
  1
\W1.00;WEITERE OBJEKTSPEZIFISCHE DETAILS AUF ANFRAGE 
  7
ARIAL
 73
     1
 44
1.0
  0
MTEXT
  5
AF
330
1F
100
AcDbEntity
  8
XR$1$TB_600_1
  6
AUSGEZOGEN
 62
     7
440
 33554687
370
    -3
100
AcDbMText
 10
-3.623037
 20
-7.867986
 30
0.0
 40
0.0175
 41
0.686604
 46
0.0
 71
     7
 72
     5
  1
\W1.00;FURTHER PROJECT-RELATED DETAILS UPON REQUEST 
  7
ARIAL
 73
     1
 44
1.0
  0
MTEXT
  5
B0
330
1F
100
AcDbEntity
  8
XR$1$TB_600_1
  6
AUSGEZOGEN
 62
     7
440
 33554687
370
    -3
100
AcDbMText
 10
-3.623767
 20
-7.900808
 30
0.0
 40
0.0175
 41
0.702061
 46
0.0
 71
     7
 72
     5
  1
\W1.00;D'AUTRES DETAILS RELATIFS AU PROJET SUR DEMANDE 
  7
ARIAL
 73
     1
 44
1.0
  0
MTEXT
  5
B1
330
1F
100
AcDbEntity
  8
XR$1$TB_600_1
  6
AUSGEZOGEN
 62
     7
440
 33554687
370
    -3
100
AcDbMText
 10
-3.301365
 20
-8.028701
 30
0.0
 40
0.009
 41
0.418059
 46
0.0
 71
     7
 72
     5
  1
\W1.00;AGROB BUCHTAL GmbH   Architektenservice   D - 92521 Schwarzenfeld
  7
ARIAL
 73
     1
 44
1.0
  0
MTEXT
  5
B2
330
1F
100
AcDbEntity
  8
XR$1$TB_600_1
  6
AUSGEZOGEN
 62
     7
440
 33554687
370
    -3
100
AcDbMText
 10
-2.966407
 20
-8.064587
 30
0.0
 40
0.009
 41
0.134495
 46
0.0
 71
     7
 72
     5
  1
\W0.91;STAND: September 2020
  7
ARIAL
 73
     1
 44
1.0
  0
VIEWPORT
  5
72
330
6E
100
AcDbEntity
 67
     1
  8
0
100
AcDbViewport
 10
0.105
 20
0.1485
 30
0.0
 40
0.2102
 41
0.2972
 68
     1
 69
     1
 12
0.105
 22
0.1485
 13
0.0
 23
0.0
 14
0.5
 24
0.5
 15
0.5
 25
0.5
 16
0.0
 26
0.0
 36
1.0
 17
0.0
 27
0.0
 37
0.0
 42
50.0
 43
0.0
 44
0.0
 45
0.2972
 50
0.0
 51
0.0
 72
   100
 90
   557152
  1

281
     0
 71
     1
 74
     0
110
0.0
120
0.0
130
0.0
111
1.0
121
0.0
131
0.0
112
0.0
122
1.0
132
0.0
 79
     0
146
0.0
170
     0
 61
     5
348
2F
292
     1
282
     1
141
0.0
142
0.0
 63
   256
361
73
  0
VIEWPORT
  5
B5
330
6E
100
AcDbEntity
 67
     1
  8
PLAN_600
  6
AUSGEZOGEN
 62
     7
370
    25
100
AcDbViewport
 10
0.105
 20
0.1485
 30
0.0
 40
0.2102
 41
0.2972
 68
     2
 69
     2
 12
0.0
 22
0.0
 13
0.0
 23
0.0
 14
1.0
 24
1.0
 15
0.0
 25
0.0
 16
0.0
 26
0.0
 36
1.0
 17
-3.308383
 27
-7.42575
 37
0.0
 42
50.0
 43
0.0
 44
0.0
 45
1.486
 50
0.0
 51
0.0
 72
   100
331
10
331
76
331
78
 90
   557280
  1

281
     0
 71
     1
 74
     0
110
0.0
120
0.0
130
0.0
111
1.0
121
0.0
131
0.0
112
0.0
122
1.0
132
0.0
 79
     0
146
0.0
170
     0
 61
     5
348
2F
292
     1
282
     1
141
0.0
142
0.0
 63
   256
361
B6
  0
ENDSEC
  0
SECTION
  2
OBJECTS
  0
DICTIONARY
  5
C
330
0
100
AcDbDictionary
281
     1
  3
ACAD_DETAILVIEWSTYLE
350
EE
  3
ACAD_GROUP
350
D
  3
ACAD_LAYOUT
350
1A
  3
ACAD_MATERIAL
350
43
  3
ACAD_MLEADERSTYLE
350
6B
  3
ACAD_MLINESTYLE
350
17
  3
ACAD_PLOTSETTINGS
350
19
  3
ACAD_PLOTSTYLENAME
350
E
  3
ACAD_SCALELIST
350
47
  3
ACAD_SECTIONVIEWSTYLE
350
EF
  3
ACAD_TABLESTYLE
350
69
  3
ACAD_VISUALSTYLE
350
2A
  3
ACDB_RECOMPOSE_DATA
350
EB
  3
AcDbVariableDictionary
350
B7
  0
SUN
  5
6D
330
29
100
AcDbSun
 90
        1
290
     0
 63
     7
421
 16777215
 40
1.0
291
     1
 91
  2455826
 92
 54000000
292
     0
 70
     2
 71
   256
280
     1
  0
DICTIONARY
  5
B3
330
1F
100
AcDbDictionary
280
     1
281
     1
  3
ACAD_SORTENTS
360
B4
  0
SUN
  5
73
330
72
100
AcDbSun
 90
        1
290
     0
 63
     7
421
 16777215
 40
1.0
291
     1
 91
  2455826
 92
 54000000
292
     0
 70
     2
 71
   256
280
     1
  0
SUN
  5
B6
330
B5
100
AcDbSun
 90
        1
290
     0
 63
     7
421
 16777215
 40
1.0
291
     1
 91
  2455826
 92
 54000000
292
     0
 70
     2
 71
   256
280
     1
  0
DICTIONARY
  5
EE
102
{ACAD_REACTORS
330
C
102
}
330
C
100
AcDbDictionary
281
     1
  0
DICTIONARY
  5
D
102
{ACAD_REACTORS
330
C
102
}
330
C
100
AcDbDictionary
281
     1
  3
VERBUNDBLOCK_0
350
87
  0
DICTIONARY
  5
1A
102
{ACAD_REACTORS
330
C
102
}
330
C
100
AcDbDictionary
281
     1
  3
K20 OmegaS 2020 1
350
6F
  3
Model
350
22
  0
DICTIONARY
  5
43
102
{ACAD_REACTORS
330
C
102
}
330
C
100
AcDbDictionary
281
     1
  3
ByBlock
350
45
  3
ByLayer
350
44
  3
Global
350
46
  0
DICTIONARY
  5
6B
102
{ACAD_REACTORS
330
C
102
}
330
C
100
AcDbDictionary
281
     1
  3
Standard
350
6C
  0
DICTIONARY
  5
17
102
{ACAD_REACTORS
330
C
102
}
330
C
100
AcDbDictionary
281
     1
  3
Standard
350
18
  0
DICTIONARY
  5
19
102
{ACAD_REACTORS
330
C
102
}
330
C
100
AcDbDictionary
281
     1
  0
ACDBDICTIONARYWDFLT
  5
E
102
{ACAD_REACTORS
330
C
102
}
330
C
100
AcDbDictionary
281
     1
  3
Normal
350
F
100
AcDbDictionaryWithDefault
340
F
  0
DICTIONARY
  5
47
102
{ACAD_REACTORS
330
C
102
}
330
C
100
AcDbDictionary
281
     1
  3
A0
350
48
  3
A1
350
49
  3
A2
350
4A
  3
A3
350
4B
  3
A4
350
4C
  3
A5
350
4D
  3
A6
350
4E
  3
A7
350
4F
  3
A8
350
50
  3
A9
350
51
  3
B0
350
52
  3
B1
350
53
  3
B2
350
54
  3
B3
350
55
  3
B4
350
56
  3
B5
350
57
  3
B6
350
58
  3
B7
350
59
  3
B8
350
5A
  3
B9
350
5B
  3
C0
350
5C
  3
C1
350
5D
  3
C2
350
5E
  3
C3
350
5F
  3
C4
350
60
  3
C5
350
61
  3
C6
350
62
  3
C7
350
63
  3
C8
350
64
  3
C9
350
65
  3
D0
350
66
  3
D1
350
67
  3
D2
350
68
  0
DICTIONARY
  5
EF
102
{ACAD_REACTORS
330
C
102
}
330
C
100
AcDbDictionary
281
     1
  0
DICTIONARY
  5
69
102
{ACAD_REACTORS
330
C
102
}
330
C
100
AcDbDictionary
281
     1
  3
Standard
350
6A
  0
DICTIONARY
  5
2A
102
{ACAD_REACTORS
330
C
102
}
330
C
100
AcDbDictionary
281
     1
  3
2dWireframe
350
2F
  3
Basic
350
32
  3
Brighten
350
36
  3
ColorChange
350
3A
  3
Conceptual
350
34
  3
Dim
350
35
  3
EdgeColorOff
350
3D
  3
Facepattern
350
39
  3
Flat
350
2B
  3
FlatWithEdges
350
2C
  3
Gouraud
350
2D
  3
GouraudWithEdges
350
2E
  3
Hidden
350
31
  3
JitterOff
350
3B
  3
Linepattern
350
38
  3
OverhangOff
350
3C
  3
Realistic
350
33
  3
Shaded
350
42
  3
Shaded with edges
350
41
  3
Shades of Gray
350
3E
  3
Sketchy
350
3F
  3
Thicken
350
37
  3
Wireframe
350
30
  3
X-Ray
350
40
  0
XRECORD
  5
EB
102
{ACAD_REACTORS
330
C
102
}
330
C
100
AcDbXrecord
280
     1
 90
        1
330
6A
  0
DICTIONARY
  5
B7
102
{ACAD_REACTORS
330
C
102
}
330
C
100
AcDbDictionary
281
     1
  3
CANNOSCALE
350
B8
  3
CMLEADERSTYLE
350
ED
  3
CTABLESTYLE
350
EC
  0
SORTENTSTABLE
  5
B4
102
{ACAD_REACTORS
330
B3
102
}
330
B3
100
AcDbSortentsTable
330
1F
  0
GROUP
  5
87
102
{ACAD_REACTORS
330
D
102
}
330
D
100
AcDbGroup
300

 70
     0
 71
     1
340
88
340
89
  0
LAYOUT
  5
6F
102
{ACAD_REACTORS
330
1A
102
}
330
1A
100
AcDbPlotSettings
  1

  2
none_device
  4
none_user_media
  6

 40
0.0
 41
0.0
 42
0.0
 43
0.0
 44
297.0
 45
209.9
 46
0.0
 47
0.0
 48
0.0
 49
0.0
140
0.0
141
0.0
142
1000.0
143
1.0
 70
   688
 72
     1
 73
     1
 74
     5
  7

 75
    33
 76
     0
 77
     2
 78
   300
147
1000.0
148
0.0
149
0.0
100
AcDbLayout
  1
K20 OmegaS 2020 1
 70
     0
 71
     1
 10
-0.0001
 20
-0.0001
 11
0.2101
 21
0.2971
 12
0.0
 22
0.0
 32
0.0
 14
-0.0001
 24
-0.0001
 34
0.0
 15
0.2101
 25
0.2971
 35
0.0
146
0.0
 13
0.0
 23
0.0
 33
0.0
 16
1.0
 26
0.0
 36
0.0
 17
0.0
 27
1.0
 37
0.0
 76
     0
330
6E
331
72
  0
LAYOUT
  5
22
102
{ACAD_REACTORS
330
1A
102
}
330
1A
100
AcDbPlotSettings
  1

  2
none_device
  4
Letter_(8.50_x_11.00_Inches)
  6

 40
6.35
 41
6.35
 42
6.350005
 43
6.350005
 44
215.9
 45
279.4
 46
0.0
 47
0.0
 48
0.0
 49
0.0
140
0.0
141
0.0
142
1.0
143
1.0
 70
  1712
 72
     0
 73
     0
 74
     0
  7

 75
     0
 76
     0
 77
     2
 78
   300
147
1.0
148
0.0
149
0.0
100
AcDbLayout
  1
Model
 70
     1
 71
     0
 10
-3.833383
 20
-8.16825
 11
-2.783383
 21
-6.68325
 12
0.0
 22
0.0
 32
0.0
 14
-3.833383
 24
-8.16825
 34
-3.833383
 15
-2.783383
 25
-6.68325
 35
-2.783383
146
0.0
 13
0.0
 23
0.0
 33
0.0
 16
1.0
 26
0.0
 36
0.0
 17
0.0
 27
1.0
 37
0.0
 76
     0
330
1F
331
29
  0
MATERIAL
  5
45
102
{ACAD_REACTORS
330
43
102
}
330
43
100
AcDbMaterial
  1
ByBlock
 72
     1
 94
      127
  0
MATERIAL
  5
44
102
{ACAD_REACTORS
330
43
102
}
330
43
100
AcDbMaterial
  1
ByLayer
 72
     1
 94
      127
  0
MATERIAL
  5
46
102
{ACAD_REACTORS
330
43
102
}
330
43
100
AcDbMaterial
  1
Global
 72
     1
 94
      127
  0
MLEADERSTYLE
  5
6C
102
{ACAD_REACTORS
330
6B
102
}
330
6B
100
AcDbMLeaderStyle
179
     2
170
     2
171
     1
172
     0
 90
        2
 40
0.0
 41
0.0
173
     1
 91
-1056964608
340
14
 92
       -2
290
     1
 42
0.09
291
     1
 43
0.36
  3
Standard
341
0
 44
0.18
300

342
11
174
     1
178
     6
175
     1
176
     0
 93
-1056964608
 45
0.18
292
     0
297
     0
 46
0.18
343
0
 94
-1056964608
 47
1.0
 49
1.0
140
1.0
293
     1
141
0.0
294
     1
177
     0
142
1.0
295
     0
296
     0
143
0.125
271
     0
272
     9
273
     9
  0
MLINESTYLE
  5
18
102
{ACAD_REACTORS
330
17
102
}
330
17
100
AcDbMlineStyle
  2
Standard
 70
     0
  3

 62
   256
 51
90.0
 52
90.0
 71
     2
 49
0.5
 62
   256
  6
BYLAYER
 49
-0.5
 62
   256
  6
BYLAYER
  0
ACDBPLACEHOLDER
  5
F
102
{ACAD_REACTORS
330
E
102
}
330
E
  0
SCALE
  5
48
102
{ACAD_REACTORS
330
47
102
}
330
47
100
AcDbScale
 70
     0
300
1:1
140
1.0
141
1.0
290
     1
  0
SCALE
  5
49
102
{ACAD_REACTORS
330
47
102
}
330
47
100
AcDbScale
 70
     0
300
1:2
140
1.0
141
2.0
290
     0
  0
SCALE
  5
4A
102
{ACAD_REACTORS
330
47
102
}
330
47
100
AcDbScale
 70
     0
300
1:4
140
1.0
141
4.0
290
     0
  0
SCALE
  5
4B
102
{ACAD_REACTORS
330
47
102
}
330
47
100
AcDbScale
 70
     0
300
1:5
140
1.0
141
5.0
290
     0
  0
SCALE
  5
4C
102
{ACAD_REACTORS
330
47
102
}
330
47
100
AcDbScale
 70
     0
300
1:8
140
1.0
141
8.0
290
     0
  0
SCALE
  5
4D
102
{ACAD_REACTORS
330
47
102
}
330
47
100
AcDbScale
 70
     0
300
1:10
140
1.0
141
10.0
290
     0
  0
SCALE
  5
4E
102
{ACAD_REACTORS
330
47
102
}
330
47
100
AcDbScale
 70
     0
300
1:16
140
1.0
141
16.0
290
     0
  0
SCALE
  5
4F
102
{ACAD_REACTORS
330
47
102
}
330
47
100
AcDbScale
 70
     0
300
1:20
140
1.0
141
20.0
290
     0
  0
SCALE
  5
50
102
{ACAD_REACTORS
330
47
102
}
330
47
100
AcDbScale
 70
     0
300
1:30
140
1.0
141
30.0
290
     0
  0
SCALE
  5
51
102
{ACAD_REACTORS
330
47
102
}
330
47
100
AcDbScale
 70
     0
300
1:40
140
1.0
141
40.0
290
     0
  0
SCALE
  5
52
102
{ACAD_REACTORS
330
47
102
}
330
47
100
AcDbScale
 70
     0
300
1:50
140
1.0
141
50.0
290
     0
  0
SCALE
  5
53
102
{ACAD_REACTORS
330
47
102
}
330
47
100
AcDbScale
 70
     0
300
1:100
140
1.0
141
100.0
290
     0
  0
SCALE
  5
54
102
{ACAD_REACTORS
330
47
102
}
330
47
100
AcDbScale
 70
     0
300
2:1
140
2.0
141
1.0
290
     0
  0
SCALE
  5
55
102
{ACAD_REACTORS
330
47
102
}
330
47
100
AcDbScale
 70
     0
300
4:1
140
4.0
141
1.0
290
     0
  0
SCALE
  5
56
102
{ACAD_REACTORS
330
47
102
}
330
47
100
AcDbScale
 70
     0
300
8:1
140
8.0
141
1.0
290
     0
  0
SCALE
  5
57
102
{ACAD_REACTORS
330
47
102
}
330
47
100
AcDbScale
 70
     0
300
10:1
140
10.0
141
1.0
290
     0
  0
SCALE
  5
58
102
{ACAD_REACTORS
330
47
102
}
330
47
100
AcDbScale
 70
     0
300
100:1
140
100.0
141
1.0
290
     0
  0
SCALE
  5
59
102
{ACAD_REACTORS
330
47
102
}
330
47
100
AcDbScale
 70
     0
300
1/128" = 1'-0"
140
0.007812
141
12.0
290
     0
  0
SCALE
  5
5A
102
{ACAD_REACTORS
330
47
102
}
330
47
100
AcDbScale
 70
     0
300
1/64" = 1'-0"
140
0.015625
141
12.0
290
     0
  0
SCALE
  5
5B
102
{ACAD_REACTORS
330
47
102
}
330
47
100
AcDbScale
 70
     0
300
1/32" = 1'-0"
140
0.03125
141
12.0
290
     0
  0
SCALE
  5
5C
102
{ACAD_REACTORS
330
47
102
}
330
47
100
AcDbScale
 70
     0
300
1/16" = 1'-0"
140
0.0625
141
12.0
290
     0
  0
SCALE
  5
5D
102
{ACAD_REACTORS
330
47
102
}
330
47
100
AcDbScale
 70
     0
300
3/32" = 1'-0"
140
0.09375
141
12.0
290
     0
  0
SCALE
  5
5E
102
{ACAD_REACTORS
330
47
102
}
330
47
100
AcDbScale
 70
     0
300
1/8" = 1'-0"
140
0.125
141
12.0
290
     0
  0
SCALE
  5
5F
102
{ACAD_REACTORS
330
47
102
}
330
47
100
AcDbScale
 70
     0
300
3/16" = 1'-0"
140
0.1875
141
12.0
290
     0
  0
SCALE
  5
60
102
{ACAD_REACTORS
330
47
102
}
330
47
100
AcDbScale
 70
     0
300
1/4" = 1'-0"
140
0.25
141
12.0
290
     0
  0
SCALE
  5
61
102
{ACAD_REACTORS
330
47
102
}
330
47
100
AcDbScale
 70
     0
300
3/8" = 1'-0"
140
0.375
141
12.0
290
     0
  0
SCALE
  5
62
102
{ACAD_REACTORS
330
47
102
}
330
47
100
AcDbScale
 70
     0
300
1/2" = 1'-0"
140
0.5
141
12.0
290
     0
  0
SCALE
  5
63
102
{ACAD_REACTORS
330
47
102
}
330
47
100
AcDbScale
 70
     0
300
3/4" = 1'-0"
140
0.75
141
12.0
290
     0
  0
SCALE
  5
64
102
{ACAD_REACTORS
330
47
102
}
330
47
100
AcDbScale
 70
     0
300
1" = 1'-0"
140
1.0
141
12.0
290
     0
  0
SCALE
  5
65
102
{ACAD_REACTORS
330
47
102
}
330
47
100
AcDbScale
 70
     0
300
1-1/2" = 1'-0"
140
1.5
141
12.0
290
     0
  0
SCALE
  5
66
102
{ACAD_REACTORS
330
47
102
}
330
47
100
AcDbScale
 70
     0
300
3" = 1'-0"
140
3.0
141
12.0
290
     0
  0
SCALE
  5
67
102
{ACAD_REACTORS
330
47
102
}
330
47
100
AcDbScale
 70
     0
300
6" = 1'-0"
140
6.0
141
12.0
290
     0
  0
SCALE
  5
68
102
{ACAD_REACTORS
330
47
102
}
330
47
100
AcDbScale
 70
     0
300
1'-0" = 1'-0"
140
12.0
141
12.0
290
     0
  0
TABLESTYLE
  5
6A
102
{ACAD_REACTORS
330
69
102
}
102
{ACAD_XDICTIONARY
360
E9
102
}
330
69
100
AcDbTableStyle
  3
Standard
 70
     0
 71
     0
 40
0.06
 41
0.06
280
     0
281
     0
  7
Standard
140
0.18
170
     2
 62
     0
 63
   257
283
     0
 90
        4
 91
        0
  1

274
    -2
284
     1
 64
     0
275
    -2
285
     1
 65
     0
276
    -2
286
     1
 66
     0
277
    -2
287
     1
 67
     0
278
    -2
288
     1
 68
     0
279
    -2
289
     1
 69
     0
  7
Standard
140
0.25
170
     5
 62
     0
 63
   257
283
     0
 90
        4
 91
        0
  1

274
    -2
284
     1
 64
     0
275
    -2
285
     1
 65
     0
276
    -2
286
     1
 66
     0
277
    -2
287
     1
 67
     0
278
    -2
288
     1
 68
     0
279
    -2
289
     1
 69
     0
  7
Standard
140
0.18
170
     5
 62
     0
 63
   257
283
     0
 90
        4
 91
        0
  1

274
    -2
284
     1
 64
     0
275
    -2
285
     1
 65
     0
276
    -2
286
     1
 66
     0
277
    -2
287
     1
 67
     0
278
    -2
288
     1
 68
     0
279
    -2
289
     1
 69
     0
  0
VISUALSTYLE
  5
2F
102
{ACAD_REACTORS
330
2A
102
}
102
{ACAD_XDICTIONARY
360
C1
102
}
330
2A
100
AcDbVisualStyle
  2
2dWireframe
 70
     4
177
     2
291
     0
 71
     0
176
     1
 72
     2
176
     1
 73
     0
176
     1
 90
        0
176
     1
 40
0.6
176
     1
 41
30.0
176
     1
 62
     5
 63
     7
421
 16777215
176
     1
 74
     1
176
     1
 91
        4
176
     1
 64
     7
176
     1
 65
   257
176
     1
 75
     1
176
     1
175
     1
176
     1
 42
1.0
176
     1
 92
        0
176
     1
 66
   257
176
     1
 43
1.0
176
     1
 76
     1
176
     1
 77
     6
176
     1
 78
     2
176
     1
 67
     7
176
     1
 79
     5
176
     1
170
     0
176
     1
171
     0
176
     1
290
     0
176
     1
 93
        1
176
     1
 44
0.0
176
     1
173
     0
176
     1
  0
VISUALSTYLE
  5
32
102
{ACAD_REACTORS
330
2A
102
}
102
{ACAD_XDICTIONARY
360
C7
102
}
330
2A
100
AcDbVisualStyle
  2
Basic
 70
     7
177
     2
291
     1
 71
     1
176
     1
 72
     0
176
     1
 73
     1
176
     1
 90
        0
176
     1
 40
0.6
176
     1
 41
30.0
176
     1
 62
     5
 63
     7
421
 16777215
176
     1
 74
     0
176
     1
 91
        4
176
     1
 64
     7
176
     1
 65
   257
176
     1
 75
     1
176
     1
175
     1
176
     1
 42
1.0
176
     1
 92
        8
176
     1
 66
     7
176
     1
 43
1.0
176
     1
 76
     1
176
     1
 77
     6
176
     1
 78
     2
176
     1
 67
     7
176
     1
 79
     5
176
     1
170
     0
176
     1
171
     0
176
     1
290
     0
176
     1
 93
        1
176
     1
 44
0.0
176
     1
173
     0
176
     1
  0
VISUALSTYLE
  5
36
102
{ACAD_REACTORS
330
2A
102
}
102
{ACAD_XDICTIONARY
360
CF
102
}
330
2A
100
AcDbVisualStyle
  2
Brighten
 70
    12
177
     2
291
     1
 71
     2
176
     1
 72
     2
176
     1
 73
     0
176
     1
 90
        0
176
     1
 40
0.6
176
     1
 41
30.0
176
     1
 62
     5
 63
     7
421
 16777215
176
     1
 74
     1
176
     1
 91
        4
176
     1
 64
     7
176
     1
 65
   257
176
     1
 75
     1
176
     1
175
     1
176
     1
 42
1.0
176
     1
 92
        8
176
     1
 66
     7
176
     1
 43
1.0
176
     1
 76
     1
176
     1
 77
     6
176
     1
 78
     2
176
     1
 67
     7
176
     1
 79
     5
176
     1
170
     0
176
     1
171
     0
176
     1
290
     0
176
     1
 93
        1
176
     1
 44
50.0
176
     1
173
     0
176
     1
  0
VISUALSTYLE
  5
3A
102
{ACAD_REACTORS
330
2A
102
}
102
{ACAD_XDICTIONARY
360
D7
102
}
330
2A
100
AcDbVisualStyle
  2
ColorChange
 70
    16
177
     2
291
     1
 71
     2
176
     1
 72
     2
176
     1
 73
     3
176
     1
 90
        0
176
     1
 40
0.6
176
     1
 41
30.0
176
     1
 62
     5
 63
     8
421
  8421504
176
     1
 74
     1
176
     1
 91
        4
176
     1
 64
     7
176
     1
 65
   257
176
     1
 75
     1
176
     1
175
     1
176
     1
 42
1.0
176
     1
 92
        8
176
     1
 66
     8
424
  8421504
176
     1
 43
1.0
176
     1
 76
     1
176
     1
 77
     6
176
     1
 78
     2
176
     1
 67
     7
176
     1
 79
     5
176
     1
170
     0
176
     1
171
     0
176
     1
290
     0
176
     1
 93
        1
176
     1
 44
0.0
176
     1
173
     0
176
     1
  0
VISUALSTYLE
  5
34
102
{ACAD_REACTORS
330
2A
102
}
102
{ACAD_XDICTIONARY
360
CB
102
}
330
2A
100
AcDbVisualStyle
  2
Conceptual
 70
     9
177
     2
291
     0
 71
     3
176
     1
 72
     2
176
     1
 73
     0
176
     1
 90
        0
176
     1
 40
0.6
176
     1
 41
30.0
176
     1
 62
     5
 63
     7
421
 16777215
176
     1
 74
     2
176
     1
 91
        2
176
     1
 64
     7
176
     1
 65
   257
176
     1
 75
     1
176
     1
175
     1
176
     1
 42
179.0
176
     1
 92
        8
176
     1
 66
     7
176
     1
 43
1.0
176
     1
 76
     1
176
     1
 77
     6
176
     1
 78
     2
176
     1
 67
     7
176
     1
 79
     3
176
     1
170
     0
176
     1
171
     0
176
     1
290
     0
176
     1
 93
        1
176
     1
 44
0.0
176
     1
173
     0
176
     1
  0
VISUALSTYLE
  5
35
102
{ACAD_REACTORS
330
2A
102
}
102
{ACAD_XDICTIONARY
360
CD
102
}
330
2A
100
AcDbVisualStyle
  2
Dim
 70
    11
177
     2
291
     1
 71
     2
176
     1
 72
     2
176
     1
 73
     0
176
     1
 90
        0
176
     1
 40
0.6
176
     1
 41
30.0
176
     1
 62
     5
 63
     7
421
 16777215
176
     1
 74
     1
176
     1
 91
        4
176
     1
 64
     7
176
     1
 65
   257
176
     1
 75
     1
176
     1
175
     1
176
     1
 42
1.0
176
     1
 92
        8
176
     1
 66
     7
176
     1
 43
1.0
176
     1
 76
     1
176
     1
 77
     6
176
     1
 78
     2
176
     1
 67
     7
176
     1
 79
     5
176
     1
170
     0
176
     1
171
     0
176
     1
290
     0
176
     1
 93
        1
176
     1
 44
-50.0
176
     1
173
     0
176
     1
  0
VISUALSTYLE
  5
3D
102
{ACAD_REACTORS
330
2A
102
}
102
{ACAD_XDICTIONARY
360
DD
102
}
330
2A
100
AcDbVisualStyle
  2
EdgeColorOff
 70
    22
177
     2
291
     1
 71
     2
176
     0
 72
     2
176
     0
 73
     0
176
     0
 90
        0
176
     0
 40
0.6
176
     0
 41
30.0
176
     0
 62
     5
 63
     7
421
 16777215
176
     0
 74
     1
176
     0
 91
        4
176
     0
 64
     7
176
     0
 65
   257
176
     0
 75
     1
176
     0
175
     1
176
     0
 42
1.0
176
     0
 92
        8
176
     2
 66
     7
176
     0
 43
1.0
176
     0
 76
     1
176
     0
 77
     6
176
     0
 78
     2
176
     0
 67
     7
176
     0
 79
     5
176
     0
170
     0
176
     0
171
     0
176
     0
290
     0
176
     0
 93
        1
176
     0
 44
0.0
176
     0
173
     0
176
     0
  0
VISUALSTYLE
  5
39
102
{ACAD_REACTORS
330
2A
102
}
102
{ACAD_XDICTIONARY
360
D5
102
}
330
2A
100
AcDbVisualStyle
  2
Facepattern
 70
    15
177
     2
291
     1
 71
     2
176
     1
 72
     2
176
     1
 73
     0
176
     1
 90
        0
176
     1
 40
0.6
176
     1
 41
30.0
176
     1
 62
     5
 63
     7
421
 16777215
176
     1
 74
     1
176
     1
 91
        4
176
     1
 64
     7
176
     1
 65
   257
176
     1
 75
     1
176
     1
175
     1
176
     1
 42
1.0
176
     1
 92
        8
176
     1
 66
     7
176
     1
 43
1.0
176
     1
 76
     1
176
     1
 77
     6
176
     1
 78
     2
176
     1
 67
     7
176
     1
 79
     5
176
     1
170
     0
176
     1
171
     0
176
     1
290
     0
176
     1
 93
        1
176
     1
 44
0.0
176
     1
173
     0
176
     1
  0
VISUALSTYLE
  5
2B
102
{ACAD_REACTORS
330
2A
102
}
102
{ACAD_XDICTIONARY
360
B9
102
}
330
2A
100
AcDbVisualStyle
  2
Flat
 70
     0
177
     2
291
     1
 71
     2
176
     1
 72
     1
176
     1
 73
     1
176
     1
 90
        2
176
     1
 40
0.6
176
     1
 41
30.0
176
     1
 62
     5
 63
     7
421
 16777215
176
     1
 74
     0
176
     1
 91
        0
176
     1
 64
     7
176
     1
 65
   257
176
     1
 75
     1
176
     1
175
     1
176
     1
 42
1.0
176
     1
 92
        8
176
     1
 66
     7
176
     1
 43
1.0
176
     1
 76
     1
176
     1
 77
     6
176
     1
 78
     2
176
     1
 67
     7
176
     1
 79
     5
176
     1
170
     0
176
     1
171
     0
176
     1
290
     0
176
     1
 93
       13
176
     1
 44
0.0
176
     1
173
     0
176
     1
  0
VISUALSTYLE
  5
2C
102
{ACAD_REACTORS
330
2A
102
}
102
{ACAD_XDICTIONARY
360
BB
102
}
330
2A
100
AcDbVisualStyle
  2
FlatWithEdges
 70
     1
177
     2
291
     1
 71
     2
176
     1
 72
     1
176
     1
 73
     1
176
     1
 90
        2
176
     1
 40
0.6
176
     1
 41
30.0
176
     1
 62
     5
 63
     7
421
 16777215
176
     1
 74
     1
176
     1
 91
        0
176
     1
 64
     7
176
     1
 65
   257
176
     1
 75
     1
176
     1
175
     1
176
     1
 42
1.0
176
     1
 92
        0
176
     1
 66
   257
176
     1
 43
1.0
176
     1
 76
     1
176
     1
 77
     6
176
     1
 78
     2
176
     1
 67
     7
176
     1
 79
     5
176
     1
170
     0
176
     1
171
     0
176
     1
290
     0
176
     1
 93
       13
176
     1
 44
0.0
176
     1
173
     0
176
     1
  0
VISUALSTYLE
  5
2D
102
{ACAD_REACTORS
330
2A
102
}
102
{ACAD_XDICTIONARY
360
BD
102
}
330
2A
100
AcDbVisualStyle
  2
Gouraud
 70
     2
177
     2
291
     1
 71
     2
176
     1
 72
     2
176
     1
 73
     1
176
     1
 90
        2
176
     1
 40
0.6
176
     1
 41
30.0
176
     1
 62
     5
 63
     7
421
 16777215
176
     1
 74
     0
176
     1
 91
        0
176
     1
 64
     7
176
     1
 65
   257
176
     1
 75
     1
176
     1
175
     1
176
     1
 42
1.0
176
     1
 92
        0
176
     1
 66
     7
176
     1
 43
1.0
176
     1
 76
     1
176
     1
 77
     6
176
     1
 78
     2
176
     1
 67
     7
176
     1
 79
     5
176
     1
170
     0
176
     1
171
     0
176
     1
290
     0
176
     1
 93
       13
176
     1
 44
0.0
176
     1
173
     0
176
     1
  0
VISUALSTYLE
  5
2E
102
{ACAD_REACTORS
330
2A
102
}
102
{ACAD_XDICTIONARY
360
BF
102
}
330
2A
100
AcDbVisualStyle
  2
GouraudWithEdges
 70
     3
177
     2
291
     1
 71
     2
176
     1
 72
     2
176
     1
 73
     1
176
     1
 90
        2
176
     1
 40
0.6
176
     1
 41
30.0
176
     1
 62
     5
 63
     7
421
 16777215
176
     1
 74
     1
176
     1
 91
        0
176
     1
 64
     7
176
     1
 65
   257
176
     1
 75
     1
176
     1
175
     1
176
     1
 42
1.0
176
     1
 92
        0
176
     1
 66
   257
176
     1
 43
1.0
176
     1
 76
     1
176
     1
 77
     6
176
     1
 78
     2
176
     1
 67
     7
176
     1
 79
     5
176
     1
170
     0
176
     1
171
     0
176
     1
290
     0
176
     1
 93
       13
176
     1
 44
0.0
176
     1
173
     0
176
     1
  0
VISUALSTYLE
  5
31
102
{ACAD_REACTORS
330
2A
102
}
102
{ACAD_XDICTIONARY
360
C5
102
}
330
2A
100
AcDbVisualStyle
  2
Hidden
 70
     6
177
     2
291
     0
 71
     1
176
     1
 72
     2
176
     1
 73
     2
176
     1
 90
        0
176
     1
 40
0.6
176
     1
 41
30.0
176
     1
 62
     5
 63
     7
421
 16777215
176
     1
 74
     2
176
     1
 91
        2
176
     1
 64
     7
176
     1
 65
   257
176
     1
 75
     2
176
     1
175
     1
176
     1
 42
40.0
176
     1
 92
        0
176
     1
 66
   257
176
     1
 43
1.0
176
     1
 76
     1
176
     1
 77
     6
176
     1
 78
     2
176
     1
 67
     7
176
     1
 79
     3
176
     1
170
     0
176
     1
171
     0
176
     1
290
     0
176
     1
 93
        1
176
     1
 44
0.0
176
     1
173
     0
176
     1
  0
VISUALSTYLE
  5
3B
102
{ACAD_REACTORS
330
2A
102
}
102
{ACAD_XDICTIONARY
360
D9
102
}
330
2A
100
AcDbVisualStyle
  2
JitterOff
 70
    20
177
     2
291
     1
 71
     2
176
     0
 72
     2
176
     0
 73
     0
176
     0
 90
        0
176
     0
 40
0.6
176
     0
 41
30.0
176
     0
 62
     5
 63
     7
421
 16777215
176
     0
 74
     1
176
     0
 91
        4
176
     0
 64
     7
176
     0
 65
   257
176
     0
 75
     1
176
     0
175
     1
176
     0
 42
1.0
176
     0
 92
       10
176
     2
 66
     7
176
     0
 43
1.0
176
     0
 76
     1
176
     0
 77
     6
176
     0
 78
     2
176
     0
 67
     7
176
     0
 79
     5
176
     0
170
     0
176
     0
171
     0
176
     0
290
     0
176
     0
 93
        1
176
     0
 44
0.0
176
     0
173
     0
176
     0
  0
VISUALSTYLE
  5
38
102
{ACAD_REACTORS
330
2A
102
}
102
{ACAD_XDICTIONARY
360
D3
102
}
330
2A
100
AcDbVisualStyle
  2
Linepattern
 70
    14
177
     2
291
     1
 71
     2
176
     1
 72
     2
176
     1
 73
     0
176
     1
 90
        0
176
     1
 40
0.6
176
     1
 41
30.0
176
     1
 62
     5
 63
     7
421
 16777215
176
     1
 74
     1
176
     1
 91
        4
176
     1
 64
     7
176
     1
 65
   257
176
     1
 75
     7
176
     1
175
     7
176
     1
 42
1.0
176
     1
 92
        8
176
     1
 66
     7
176
     1
 43
1.0
176
     1
 76
     1
176
     1
 77
     6
176
     1
 78
     2
176
     1
 67
     7
176
     1
 79
     5
176
     1
170
     0
176
     1
171
     0
176
     1
290
     0
176
     1
 93
        1
176
     1
 44
0.0
176
     1
173
     0
176
     1
  0
VISUALSTYLE
  5
3C
102
{ACAD_REACTORS
330
2A
102
}
102
{ACAD_XDICTIONARY
360
DB
102
}
330
2A
100
AcDbVisualStyle
  2
OverhangOff
 70
    21
177
     2
291
     1
 71
     2
176
     0
 72
     2
176
     0
 73
     0
176
     0
 90
        0
176
     0
 40
0.6
176
     0
 41
30.0
176
     0
 62
     5
 63
     7
421
 16777215
176
     0
 74
     1
176
     0
 91
        4
176
     0
 64
     7
176
     0
 65
   257
176
     0
 75
     1
176
     0
175
     1
176
     0
 42
1.0
176
     0
 92
        9
176
     2
 66
     7
176
     0
 43
1.0
176
     0
 76
     1
176
     0
 77
     6
176
     0
 78
     2
176
     0
 67
     7
176
     0
 79
     5
176
     0
170
     0
176
     0
171
     0
176
     0
290
     0
176
     0
 93
        1
176
     0
 44
0.0
176
     0
173
     0
176
     0
  0
VISUALSTYLE
  5
33
102
{ACAD_REACTORS
330
2A
102
}
102
{ACAD_XDICTIONARY
360
C9
102
}
330
2A
100
AcDbVisualStyle
  2
Realistic
 70
     8
177
     2
291
     0
 71
     2
176
     1
 72
     3
176
     1
 73
     0
176
     1
 90
        2
176
     1
 40
0.6
176
     1
 41
30.0
176
     1
 62
     5
 63
     7
421
 16777215
176
     1
 74
     0
176
     1
 91
        0
176
     1
 64
     7
176
     1
 65
   257
176
     1
 75
     1
176
     1
175
     1
176
     1
 42
1.0
176
     1
 92
        8
176
     1
 66
   257
176
     1
 43
1.0
176
     1
 76
     1
176
     1
 77
     6
176
     1
 78
     2
176
     1
 67
     7
176
     1
 79
     3
176
     1
170
     0
176
     1
171
     0
176
     1
290
     0
176
     1
 93
       13
176
     1
 44
0.0
176
     1
173
     0
176
     1
  0
VISUALSTYLE
  5
42
102
{ACAD_REACTORS
330
2A
102
}
102
{ACAD_XDICTIONARY
360
E7
102
}
330
2A
100
AcDbVisualStyle
  2
Shaded
 70
    27
177
     2
291
     0
 71
     2
176
     1
 72
     2
176
     1
 73
     1
176
     1
 90
        2
176
     1
 40
0.6
176
     1
 41
30.0
176
     1
 62
     5
 63
     7
421
 16777215
176
     1
 74
     0
176
     1
 91
        4
176
     1
 64
     7
176
     1
 65
   257
176
     1
 75
     1
176
     1
175
     1
176
     1
 42
1.0
176
     1
 92
        8
176
     1
 66
   257
176
     1
 43
1.0
176
     1
 76
     1
176
     1
 77
     6
176
     1
 78
     2
176
     1
 67
     8
425
  7895160
176
     1
 79
     3
176
     1
170
     0
176
     1
171
     0
176
     1
290
     0
176
     1
 93
        5
176
     1
 44
0.0
176
     1
173
     0
176
     1
  0
VISUALSTYLE
  5
41
102
{ACAD_REACTORS
330
2A
102
}
102
{ACAD_XDICTIONARY
360
E5
102
}
330
2A
100
AcDbVisualStyle
  2
Shaded with edges
 70
    26
177
     2
291
     0
 71
     2
176
     1
 72
     2
176
     1
 73
     1
176
     1
 90
        2
176
     1
 40
0.6
176
     1
 41
30.0
176
     1
 62
     5
 63
     7
421
 16777215
176
     1
 74
     1
176
     1
 91
       10
176
     1
 64
     7
176
     1
 65
   257
176
     1
 75
     2
176
     1
175
     1
176
     1
 42
1.0
176
     1
 92
        8
176
     1
 66
   257
176
     1
 43
1.0
176
     1
 76
     1
176
     1
 77
     6
176
     1
 78
     2
176
     1
 67
     7
176
     1
 79
     3
176
     1
170
     0
176
     1
171
     0
176
     1
290
     0
176
     1
 93
        5
176
     1
 44
0.0
176
     1
173
     0
176
     1
  0
VISUALSTYLE
  5
3E
102
{ACAD_REACTORS
330
2A
102
}
102
{ACAD_XDICTIONARY
360
DF
102
}
330
2A
100
AcDbVisualStyle
  2
Shades of Gray
 70
    23
177
     2
291
     0
 71
     2
176
     1
 72
     2
176
     1
 73
     3
176
     1
 90
        0
176
     1
 40
0.6
176
     1
 41
30.0
176
     1
 62
     5
 63
     7
421
 16777215
176
     1
 74
     2
176
     1
 91
        2
176
     1
 64
     7
176
     1
 65
     7
176
     1
 75
     1
176
     1
175
     1
176
     1
 42
40.0
176
     1
 92
        8
176
     1
 66
     7
176
     1
 43
1.0
176
     1
 76
     1
176
     1
 77
     6
176
     1
 78
     2
176
     1
 67
     7
176
     1
 79
     3
176
     1
170
     0
176
     1
171
     0
176
     1
290
     0
176
     1
 93
        1
176
     1
 44
0.0
176
     1
173
     0
176
     1
  0
VISUALSTYLE
  5
3F
102
{ACAD_REACTORS
330
2A
102
}
102
{ACAD_XDICTIONARY
360
E1
102
}
330
2A
100
AcDbVisualStyle
  2
Sketchy
 70
    24
177
     2
291
     0
 71
     1
176
     1
 72
     2
176
     1
 73
     2
176
     1
 90
        0
176
     1
 40
0.6
176
     1
 41
30.0
176
     1
 62
     5
 63
     7
421
 16777215
176
     1
 74
     2
176
     1
 91
        2
176
     1
 64
     7
176
     1
 65
     7
176
     1
 75
     1
176
     1
175
     1
176
     1
 42
40.0
176
     1
 92
       11
176
     1
 66
     7
176
     1
 43
1.0
176
     1
 76
     1
176
     1
 77
     6
176
     1
 78
     2
176
     1
 67
     7
176
     1
 79
     6
176
     1
170
     0
176
     1
171
     0
176
     1
290
     0
176
     1
 93
        1
176
     1
 44
0.0
176
     1
173
     0
176
     1
  0
VISUALSTYLE
  5
37
102
{ACAD_REACTORS
330
2A
102
}
102
{ACAD_XDICTIONARY
360
D1
102
}
330
2A
100
AcDbVisualStyle
  2
Thicken
 70
    13
177
     2
291
     1
 71
     2
176
     1
 72
     2
176
     1
 73
     0
176
     1
 90
        0
176
     1
 40
0.6
176
     1
 41
30.0
176
     1
 62
     5
 63
     7
421
 16777215
176
     1
 74
     1
176
     1
 91
        4
176
     1
 64
     7
176
     1
 65
   257
176
     1
 75
     1
176
     1
175
     1
176
     1
 42
1.0
176
     1
 92
       12
176
     1
 66
     7
176
     1
 43
1.0
176
     1
 76
     1
176
     1
 77
     6
176
     1
 78
     2
176
     1
 67
     7
176
     1
 79
     5
176
     1
170
     0
176
     1
171
     0
176
     1
290
     0
176
     1
 93
        1
176
     1
 44
0.0
176
     1
173
     0
176
     1
  0
VISUALSTYLE
  5
30
102
{ACAD_REACTORS
330
2A
102
}
102
{ACAD_XDICTIONARY
360
C3
102
}
330
2A
100
AcDbVisualStyle
  2
Wireframe
 70
     5
177
     2
291
     0
 71
     0
176
     1
 72
     2
176
     1
 73
     0
176
     1
 90
        0
176
     1
 40
0.6
176
     1
 41
30.0
176
     1
 62
     5
 63
     7
421
 16777215
176
     1
 74
     1
176
     1
 91
        4
176
     1
 64
     7
176
     1
 65
   257
176
     1
 75
     1
176
     1
175
     1
176
     1
 42
1.0
176
     1
 92
        0
176
     1
 66
   257
176
     1
 43
1.0
176
     1
 76
     1
176
     1
 77
     6
176
     1
 78
     2
176
     1
 67
     7
176
     1
 79
     3
176
     1
170
     0
176
     1
171
     0
176
     1
290
     0
176
     1
 93
        1
176
     1
 44
0.0
176
     1
173
     0
176
     1
  0
VISUALSTYLE
  5
40
102
{ACAD_REACTORS
330
2A
102
}
102
{ACAD_XDICTIONARY
360
E3
102
}
330
2A
100
AcDbVisualStyle
  2
X-Ray
 70
    25
177
     2
291
     0
 71
     2
176
     1
 72
     2
176
     1
 73
     1
176
     1
 90
        1
176
     1
 40
0.5
176
     1
 41
30.0
176
     1
 62
     5
 63
     7
421
 16777215
176
     1
 74
     1
176
     1
 91
        0
176
     1
 64
     7
176
     1
 65
   257
176
     1
 75
     1
176
     1
175
     1
176
     1
 42
1.0
176
     1
 92
        8
176
     1
 66
     7
176
     1
 43
1.0
176
     1
 76
     1
176
     1
 77
     6
176
     1
 78
     2
176
     1
 67
     7
176
     1
 79
     3
176
     1
170
     0
176
     1
171
     0
176
     1
290
     0
176
     1
 93
       13
176
     1
 44
0.0
176
     1
173
     0
176
     1
  0
DICTIONARYVAR
  5
B8
102
{ACAD_REACTORS
330
B7
102
}
330
B7
100
DictionaryVariables
280
     0
  1
1:1
  0
DICTIONARYVAR
  5
ED
102
{ACAD_REACTORS
330
B7
102
}
330
B7
100
DictionaryVariables
280
     0
  1
Standard
  0
DICTIONARYVAR
  5
EC
102
{ACAD_REACTORS
330
B7
102
}
330
B7
100
DictionaryVariables
280
     0
  1
Standard
  0
DICTIONARY
  5
E9
330
6A
100
AcDbDictionary
280
     1
281
     1
  3
ACAD_ROUNDTRIP_2008_TABLESTYLE_CELLSTYLEMAP
360
EA
  0
DICTIONARY
  5
C1
330
2F
100
AcDbDictionary
280
     1
281
     1
  3
ACAD_XREC_ROUNDTRIP
360
C2
  0
DICTIONARY
  5
C7
330
32
100
AcDbDictionary
280
     1
281
     1
  3
ACAD_XREC_ROUNDTRIP
360
C8
  0
DICTIONARY
  5
CF
330
36
100
AcDbDictionary
280
     1
281
     1
  3
ACAD_XREC_ROUNDTRIP
360
D0
  0
DICTIONARY
  5
D7
330
3A
100
AcDbDictionary
280
     1
281
     1
  3
ACAD_XREC_ROUNDTRIP
360
D8
  0
DICTIONARY
  5
CB
330
34
100
AcDbDictionary
280
     1
281
     1
  3
ACAD_XREC_ROUNDTRIP
360
CC
  0
DICTIONARY
  5
CD
330
35
100
AcDbDictionary
280
     1
281
     1
  3
ACAD_XREC_ROUNDTRIP
360
CE
  0
DICTIONARY
  5
DD
330
3D
100
AcDbDictionary
280
     1
281
     1
  3
ACAD_XREC_ROUNDTRIP
360
DE
  0
DICTIONARY
  5
D5
330
39
100
AcDbDictionary
280
     1
281
     1
  3
ACAD_XREC_ROUNDTRIP
360
D6
  0
DICTIONARY
  5
B9
330
2B
100
AcDbDictionary
280
     1
281
     1
  3
ACAD_XREC_ROUNDTRIP
360
BA
  0
DICTIONARY
  5
BB
330
2C
100
AcDbDictionary
280
     1
281
     1
  3
ACAD_XREC_ROUNDTRIP
360
BC
  0
DICTIONARY
  5
BD
330
2D
100
AcDbDictionary
280
     1
281
     1
  3
ACAD_XREC_ROUNDTRIP
360
BE
  0
DICTIONARY
  5
BF
330
2E
100
AcDbDictionary
280
     1
281
     1
  3
ACAD_XREC_ROUNDTRIP
360
C0
  0
DICTIONARY
  5
C5
330
31
100
AcDbDictionary
280
     1
281
     1
  3
ACAD_XREC_ROUNDTRIP
360
C6
  0
DICTIONARY
  5
D9
330
3B
100
AcDbDictionary
280
     1
281
     1
  3
ACAD_XREC_ROUNDTRIP
360
DA
  0
DICTIONARY
  5
D3
330
38
100
AcDbDictionary
280
     1
281
     1
  3
ACAD_XREC_ROUNDTRIP
360
D4
  0
DICTIONARY
  5
DB
330
3C
100
AcDbDictionary
280
     1
281
     1
  3
ACAD_XREC_ROUNDTRIP
360
DC
  0
DICTIONARY
  5
C9
330
33
100
AcDbDictionary
280
     1
281
     1
  3
ACAD_XREC_ROUNDTRIP
360
CA
  0
DICTIONARY
  5
E7
330
42
100
AcDbDictionary
280
     1
281
     1
  3
ACAD_XREC_ROUNDTRIP
360
E8
  0
DICTIONARY
  5
E5
330
41
100
AcDbDictionary
280
     1
281
     1
  3
ACAD_XREC_ROUNDTRIP
360
E6
  0
DICTIONARY
  5
DF
330
3E
100
AcDbDictionary
280
     1
281
     1
  3
ACAD_XREC_ROUNDTRIP
360
E0
  0
DICTIONARY
  5
E1
330
3F
100
AcDbDictionary
280
     1
281
     1
  3
ACAD_XREC_ROUNDTRIP
360
E2
  0
DICTIONARY
  5
D1
330
37
100
AcDbDictionary
280
     1
281
     1
  3
ACAD_XREC_ROUNDTRIP
360
D2
  0
DICTIONARY
  5
C3
330
30
100
AcDbDictionary
280
     1
281
     1
  3
ACAD_XREC_ROUNDTRIP
360
C4
  0
DICTIONARY
  5
E3
330
40
100
AcDbDictionary
280
     1
281
     1
  3
ACAD_XREC_ROUNDTRIP
360
E4
  0
CELLSTYLEMAP
  5
EA
102
{ACAD_REACTORS
330
E9
102
}
330
E9
100
AcDbCellStyleMap
 90
        3
300
CELLSTYLE
  1
TABLEFORMAT_BEGIN
 90
        5
170
     1
 91
        0
 92
    32768
 62
   257
 93
        1
300
CONTENTFORMAT
  1
CONTENTFORMAT_BEGIN
 90
        0
 91
        0
 92
        4
 93
        0
300

 40
0.0
140
1.0
 94
        5
 62
     0
340
11
144
0.25
309
CONTENTFORMAT_END
171
     1
301
MARGIN
  1
CELLMARGIN_BEGIN
 40
0.06
 40
0.06
 40
0.06
 40
0.06
 40
0.06
 40
0.06
309
CELLMARGIN_END
 94
        6
 95
        1
302
GRIDFORMAT
  1
GRIDFORMAT_BEGIN
 90
        0
 91
        1
 62
     0
 92
       -2
340
14
 93
        0
 40
0.045
309
GRIDFORMAT_END
 95
        2
302
GRIDFORMAT
  1
GRIDFORMAT_BEGIN
 90
        0
 91
        1
 62
     0
 92
       -2
340
14
 93
        0
 40
0.045
309
GRIDFORMAT_END
 95
        4
302
GRIDFORMAT
  1
GRIDFORMAT_BEGIN
 90
        0
 91
        1
 62
     0
 92
       -2
340
14
 93
        0
 40
0.045
309
GRIDFORMAT_END
 95
        8
302
GRIDFORMAT
  1
GRIDFORMAT_BEGIN
 90
        0
 91
        1
 62
     0
 92
       -2
340
14
 93
        0
 40
0.045
309
GRIDFORMAT_END
 95
       16
302
GRIDFORMAT
  1
GRIDFORMAT_BEGIN
 90
        0
 91
        1
 62
     0
 92
       -2
340
14
 93
        0
 40
0.045
309
GRIDFORMAT_END
 95
       32
302
GRIDFORMAT
  1
GRIDFORMAT_BEGIN
 90
        0
 91
        1
 62
     0
 92
       -2
340
14
 93
        0
 40
0.045
309
GRIDFORMAT_END
309
TABLEFORMAT_END
  1
CELLSTYLE_BEGIN
 90
        1
 91
        1
300
_TITLE
309
CELLSTYLE_END
300
CELLSTYLE
  1
TABLEFORMAT_BEGIN
 90
        5
170
     1
 91
        0
 92
        0
 62
   257
 93
        1
300
CONTENTFORMAT
  1
CONTENTFORMAT_BEGIN
 90
        0
 91
        0
 92
        4
 93
        0
300

 40
0.0
140
1.0
 94
        5
 62
     0
340
11
144
0.18
309
CONTENTFORMAT_END
171
     1
301
MARGIN
  1
CELLMARGIN_BEGIN
 40
0.06
 40
0.06
 40
0.06
 40
0.06
 40
0.06
 40
0.06
309
CELLMARGIN_END
 94
        6
 95
        1
302
GRIDFORMAT
  1
GRIDFORMAT_BEGIN
 90
        0
 91
        1
 62
     0
 92
       -2
340
14
 93
        0
 40
0.045
309
GRIDFORMAT_END
 95
        2
302
GRIDFORMAT
  1
GRIDFORMAT_BEGIN
 90
        0
 91
        1
 62
     0
 92
       -2
340
14
 93
        0
 40
0.045
309
GRIDFORMAT_END
 95
        4
302
GRIDFORMAT
  1
GRIDFORMAT_BEGIN
 90
        0
 91
        1
 62
     0
 92
       -2
340
14
 93
        0
 40
0.045
309
GRIDFORMAT_END
 95
        8
302
GRIDFORMAT
  1
GRIDFORMAT_BEGIN
 90
        0
 91
        1
 62
     0
 92
       -2
340
14
 93
        0
 40
0.045
309
GRIDFORMAT_END
 95
       16
302
GRIDFORMAT
  1
GRIDFORMAT_BEGIN
 90
        0
 91
        1
 62
     0
 92
       -2
340
14
 93
        0
 40
0.045
309
GRIDFORMAT_END
 95
       32
302
GRIDFORMAT
  1
GRIDFORMAT_BEGIN
 90
        0
 91
        1
 62
     0
 92
       -2
340
14
 93
        0
 40
0.045
309
GRIDFORMAT_END
309
TABLEFORMAT_END
  1
CELLSTYLE_BEGIN
 90
        2
 91
        1
300
_HEADER
309
CELLSTYLE_END
300
CELLSTYLE
  1
TABLEFORMAT_BEGIN
 90
        5
170
     1
 91
        0
 92
        0
 62
   257
 93
        1
300
CONTENTFORMAT
  1
CONTENTFORMAT_BEGIN
 90
        0
 91
        0
 92
        4
 93
        0
300

 40
0.0
140
1.0
 94
        2
 62
     0
340
11
144
0.18
309
CONTENTFORMAT_END
171
     1
301
MARGIN
  1
CELLMARGIN_BEGIN
 40
0.06
 40
0.06
 40
0.06
 40
0.06
 40
0.06
 40
0.06
309
CELLMARGIN_END
 94
        6
 95
        1
302
GRIDFORMAT
  1
GRIDFORMAT_BEGIN
 90
        0
 91
        1
 62
     0
 92
       -2
340
14
 93
        0
 40
0.045
309
GRIDFORMAT_END
 95
        2
302
GRIDFORMAT
  1
GRIDFORMAT_BEGIN
 90
        0
 91
        1
 62
     0
 92
       -2
340
14
 93
        0
 40
0.045
309
GRIDFORMAT_END
 95
        4
302
GRIDFORMAT
  1
GRIDFORMAT_BEGIN
 90
        0
 91
        1
 62
     0
 92
       -2
340
14
 93
        0
 40
0.045
309
GRIDFORMAT_END
 95
        8
302
GRIDFORMAT
  1
GRIDFORMAT_BEGIN
 90
        0
 91
        1
 62
     0
 92
       -2
340
14
 93
        0
 40
0.045
309
GRIDFORMAT_END
 95
       16
302
GRIDFORMAT
  1
GRIDFORMAT_BEGIN
 90
        0
 91
        1
 62
     0
 92
       -2
340
14
 93
        0
 40
0.045
309
GRIDFORMAT_END
 95
       32
302
GRIDFORMAT
  1
GRIDFORMAT_BEGIN
 90
        0
 91
        1
 62
     0
 92
       -2
340
14
 93
        0
 40
0.045
309
GRIDFORMAT_END
309
TABLEFORMAT_END
  1
CELLSTYLE_BEGIN
 90
        3
 91
        2
300
_DATA
309
CELLSTYLE_END
  0
XRECORD
  5
C2
102
{ACAD_REACTORS
330
C1
102
}
330
C1
100
AcDbXrecord
280
     1
102
RTVSPost2010Prop28
280
     1
102
RTVSPost2010PropOp28
 70
     1
102
RTVSPost2010Prop29
280
     1
102
RTVSPost2010PropOp29
 70
     1
102
RTVSPost2010Prop30
280
     0
102
RTVSPost2010PropOp30
 70
     1
102
RTVSPost2010Prop31
280
     0
102
RTVSPost2010PropOp31
 70
     1
102
RTVSPost2010Prop32
280
     0
102
RTVSPost2010PropOp32
 70
     1
102
RTVSPost2010Prop33
280
     0
102
RTVSPost2010PropOp33
 70
     1
102
RTVSPost2010Prop34
280
     0
102
RTVSPost2010PropOp34
 70
     1
102
RTVSPost2010Prop35
280
     0
102
RTVSPost2010PropOp35
 70
     1
102
RTVSPost2010Prop36
280
     0
102
RTVSPost2010PropOp36
 70
     1
102
RTVSPost2010Prop37
 90
       50
102
RTVSPost2010PropOp37
 70
     1
102
RTVSPost2010Prop38
140
0.0
102
RTVSPost2010PropOp38
 70
     1
102
RTVSPost2010Prop39
140
1.0
102
RTVSPost2010PropOp39
 70
     1
102
RTVSPost2010Prop40
 90
        0
102
RTVSPost2010PropOp40
 70
     1
102
RTVSPost2010Prop41ColorIndex
 90
       18
102
RTVSPost2010Prop41ColorRGB
 90
        0
102
RTVSPost2010PropOp41
 70
     1
102
RTVSPost2010Prop42
 90
       50
102
RTVSPost2010PropOp42
 70
     1
102
RTVSPost2010Prop43
 90
        3
102
RTVSPost2010PropOp43
 70
     1
102
RTVSPost2010Prop44ColorIndex
 90
        5
102
RTVSPost2010Prop44ColorRGB
 90
      255
102
RTVSPost2010PropOp44
 70
     1
102
RTVSPost2010Prop45
280
     0
102
RTVSPost2010PropOp45
 70
     1
102
RTVSPost2010Prop46
 90
       50
102
RTVSPost2010PropOp46
 70
     1
102
RTVSPost2010Prop47
 90
       50
102
RTVSPost2010PropOp47
 70
     1
102
RTVSPost2010Prop48
 90
       50
102
RTVSPost2010PropOp48
 70
     1
102
RTVSPost2010Prop49
280
     0
102
RTVSPost2010PropOp49
 70
     1
102
RTVSPost2010Prop50
 90
       50
102
RTVSPost2010PropOp50
 70
     1
102
RTVSPost2010Prop51ColorIndex
 90
      256
102
RTVSPost2010Prop51ColorRGB
 90
-16777216
102
RTVSPost2010PropOp51
 70
     0
102
RTVSPost2010Prop52
140
1.0
102
RTVSPost2010PropOp52
 70
     0
102
RTVSPost2010Prop53
 90
        2
102
RTVSPost2010PropOp53
 70
     1
102
RTVSPost2010Prop54
  1
strokes_ogs.tif
102
RTVSPost2010PropOp54
 70
     1
102
RTVSPost2010Prop55
280
     0
102
RTVSPost2010PropOp55
 70
     1
102
RTVSPost2010Prop56
140
1.0
102
RTVSPost2010PropOp56
 70
     1
102
RTVSPost2010Prop57
140
1.0
102
RTVSPost2010PropOp57
 70
     1
  0
XRECORD
  5
C8
102
{ACAD_REACTORS
330
C7
102
}
330
C7
100
AcDbXrecord
280
     1
102
RTVSPost2010Prop28
280
     0
102
RTVSPost2010PropOp28
 70
     1
102
RTVSPost2010Prop29
280
     1
102
RTVSPost2010PropOp29
 70
     1
102
RTVSPost2010Prop30
280
     1
102
RTVSPost2010PropOp30
 70
     1
102
RTVSPost2010Prop31
280
     0
102
RTVSPost2010PropOp31
 70
     1
102
RTVSPost2010Prop32
280
     0
102
RTVSPost2010PropOp32
 70
     1
102
RTVSPost2010Prop33
280
     0
102
RTVSPost2010PropOp33
 70
     1
102
RTVSPost2010Prop34
280
     0
102
RTVSPost2010PropOp34
 70
     1
102
RTVSPost2010Prop35
280
     0
102
RTVSPost2010PropOp35
 70
     1
102
RTVSPost2010Prop36
280
     0
102
RTVSPost2010PropOp36
 70
     1
102
RTVSPost2010Prop37
 90
       50
102
RTVSPost2010PropOp37
 70
     1
102
RTVSPost2010Prop38
140
0.0
102
RTVSPost2010PropOp38
 70
     1
102
RTVSPost2010Prop39
140
1.0
102
RTVSPost2010PropOp39
 70
     1
102
RTVSPost2010Prop40
 90
        0
102
RTVSPost2010PropOp40
 70
     1
102
RTVSPost2010Prop41ColorIndex
 90
       18
102
RTVSPost2010Prop41ColorRGB
 90
        0
102
RTVSPost2010PropOp41
 70
     1
102
RTVSPost2010Prop42
 90
       50
102
RTVSPost2010PropOp42
 70
     1
102
RTVSPost2010Prop43
 90
        3
102
RTVSPost2010PropOp43
 70
     1
102
RTVSPost2010Prop44ColorIndex
 90
        5
102
RTVSPost2010Prop44ColorRGB
 90
      255
102
RTVSPost2010PropOp44
 70
     1
102
RTVSPost2010Prop45
280
     0
102
RTVSPost2010PropOp45
 70
     1
102
RTVSPost2010Prop46
 90
       50
102
RTVSPost2010PropOp46
 70
     1
102
RTVSPost2010Prop47
 90
       50
102
RTVSPost2010PropOp47
 70
     1
102
RTVSPost2010Prop48
 90
       50
102
RTVSPost2010PropOp48
 70
     1
102
RTVSPost2010Prop49
280
     0
102
RTVSPost2010PropOp49
 70
     1
102
RTVSPost2010Prop50
 90
       50
102
RTVSPost2010PropOp50
 70
     1
102
RTVSPost2010Prop51ColorIndex
 90
      256
102
RTVSPost2010Prop51ColorRGB
 90
-16777216
102
RTVSPost2010PropOp51
 70
     0
102
RTVSPost2010Prop52
140
1.0
102
RTVSPost2010PropOp52
 70
     0
102
RTVSPost2010Prop53
 90
        2
102
RTVSPost2010PropOp53
 70
     1
102
RTVSPost2010Prop54
  1
strokes_ogs.tif
102
RTVSPost2010PropOp54
 70
     1
102
RTVSPost2010Prop55
280
     0
102
RTVSPost2010PropOp55
 70
     1
102
RTVSPost2010Prop56
140
1.0
102
RTVSPost2010PropOp56
 70
     1
102
RTVSPost2010Prop57
140
1.0
102
RTVSPost2010PropOp57
 70
     1
  0
XRECORD
  5
D0
102
{ACAD_REACTORS
330
CF
102
}
330
CF
100
AcDbXrecord
280
     1
102
RTVSPost2010Prop28
280
     0
102
RTVSPost2010PropOp28
 70
     1
102
RTVSPost2010Prop29
280
     1
102
RTVSPost2010PropOp29
 70
     1
102
RTVSPost2010Prop30
280
     1
102
RTVSPost2010PropOp30
 70
     1
102
RTVSPost2010Prop31
280
     0
102
RTVSPost2010PropOp31
 70
     1
102
RTVSPost2010Prop32
280
     0
102
RTVSPost2010PropOp32
 70
     1
102
RTVSPost2010Prop33
280
     0
102
RTVSPost2010PropOp33
 70
     1
102
RTVSPost2010Prop34
280
     0
102
RTVSPost2010PropOp34
 70
     1
102
RTVSPost2010Prop35
280
     0
102
RTVSPost2010PropOp35
 70
     1
102
RTVSPost2010Prop36
280
     0
102
RTVSPost2010PropOp36
 70
     1
102
RTVSPost2010Prop37
 90
       50
102
RTVSPost2010PropOp37
 70
     1
102
RTVSPost2010Prop38
140
0.0
102
RTVSPost2010PropOp38
 70
     1
102
RTVSPost2010Prop39
140
1.0
102
RTVSPost2010PropOp39
 70
     1
102
RTVSPost2010Prop40
 90
        0
102
RTVSPost2010PropOp40
 70
     1
102
RTVSPost2010Prop41ColorIndex
 90
       18
102
RTVSPost2010Prop41ColorRGB
 90
        0
102
RTVSPost2010PropOp41
 70
     1
102
RTVSPost2010Prop42
 90
       50
102
RTVSPost2010PropOp42
 70
     1
102
RTVSPost2010Prop43
 90
        3
102
RTVSPost2010PropOp43
 70
     1
102
RTVSPost2010Prop44ColorIndex
 90
        5
102
RTVSPost2010Prop44ColorRGB
 90
      255
102
RTVSPost2010PropOp44
 70
     1
102
RTVSPost2010Prop45
280
     0
102
RTVSPost2010PropOp45
 70
     1
102
RTVSPost2010Prop46
 90
       50
102
RTVSPost2010PropOp46
 70
     1
102
RTVSPost2010Prop47
 90
       50
102
RTVSPost2010PropOp47
 70
     1
102
RTVSPost2010Prop48
 90
       50
102
RTVSPost2010PropOp48
 70
     1
102
RTVSPost2010Prop49
280
     0
102
RTVSPost2010PropOp49
 70
     1
102
RTVSPost2010Prop50
 90
       50
102
RTVSPost2010PropOp50
 70
     1
102
RTVSPost2010Prop51ColorIndex
 90
      256
102
RTVSPost2010Prop51ColorRGB
 90
-16777216
102
RTVSPost2010PropOp51
 70
     0
102
RTVSPost2010Prop52
140
1.0
102
RTVSPost2010PropOp52
 70
     0
102
RTVSPost2010Prop53
 90
        2
102
RTVSPost2010PropOp53
 70
     1
102
RTVSPost2010Prop54
  1
strokes_ogs.tif
102
RTVSPost2010PropOp54
 70
     1
102
RTVSPost2010Prop55
280
     0
102
RTVSPost2010PropOp55
 70
     1
102
RTVSPost2010Prop56
140
1.0
102
RTVSPost2010PropOp56
 70
     1
102
RTVSPost2010Prop57
140
1.0
102
RTVSPost2010PropOp57
 70
     1
  0
XRECORD
  5
D8
102
{ACAD_REACTORS
330
D7
102
}
330
D7
100
AcDbXrecord
280
     1
102
RTVSPost2010Prop28
280
     0
102
RTVSPost2010PropOp28
 70
     1
102
RTVSPost2010Prop29
280
     1
102
RTVSPost2010PropOp29
 70
     1
102
RTVSPost2010Prop30
280
     1
102
RTVSPost2010PropOp30
 70
     1
102
RTVSPost2010Prop31
280
     0
102
RTVSPost2010PropOp31
 70
     1
102
RTVSPost2010Prop32
280
     0
102
RTVSPost2010PropOp32
 70
     1
102
RTVSPost2010Prop33
280
     0
102
RTVSPost2010PropOp33
 70
     1
102
RTVSPost2010Prop34
280
     0
102
RTVSPost2010PropOp34
 70
     1
102
RTVSPost2010Prop35
280
     0
102
RTVSPost2010PropOp35
 70
     1
102
RTVSPost2010Prop36
280
     0
102
RTVSPost2010PropOp36
 70
     1
102
RTVSPost2010Prop37
 90
       50
102
RTVSPost2010PropOp37
 70
     1
102
RTVSPost2010Prop38
140
0.0
102
RTVSPost2010PropOp38
 70
     1
102
RTVSPost2010Prop39
140
1.0
102
RTVSPost2010PropOp39
 70
     1
102
RTVSPost2010Prop40
 90
        0
102
RTVSPost2010PropOp40
 70
     1
102
RTVSPost2010Prop41ColorIndex
 90
       18
102
RTVSPost2010Prop41ColorRGB
 90
        0
102
RTVSPost2010PropOp41
 70
     1
102
RTVSPost2010Prop42
 90
       50
102
RTVSPost2010PropOp42
 70
     1
102
RTVSPost2010Prop43
 90
        3
102
RTVSPost2010PropOp43
 70
     1
102
RTVSPost2010Prop44ColorIndex
 90
        5
102
RTVSPost2010Prop44ColorRGB
 90
      255
102
RTVSPost2010PropOp44
 70
     1
102
RTVSPost2010Prop45
280
     0
102
RTVSPost2010PropOp45
 70
     1
102
RTVSPost2010Prop46
 90
       50
102
RTVSPost2010PropOp46
 70
     1
102
RTVSPost2010Prop47
 90
       50
102
RTVSPost2010PropOp47
 70
     1
102
RTVSPost2010Prop48
 90
       50
102
RTVSPost2010PropOp48
 70
     1
102
RTVSPost2010Prop49
280
     0
102
RTVSPost2010PropOp49
 70
     1
102
RTVSPost2010Prop50
 90
       50
102
RTVSPost2010PropOp50
 70
     1
102
RTVSPost2010Prop51ColorIndex
 90
      256
102
RTVSPost2010Prop51ColorRGB
 90
-16777216
102
RTVSPost2010PropOp51
 70
     0
102
RTVSPost2010Prop52
140
1.0
102
RTVSPost2010PropOp52
 70
     0
102
RTVSPost2010Prop53
 90
        2
102
RTVSPost2010PropOp53
 70
     1
102
RTVSPost2010Prop54
  1
strokes_ogs.tif
102
RTVSPost2010PropOp54
 70
     1
102
RTVSPost2010Prop55
280
     0
102
RTVSPost2010PropOp55
 70
     1
102
RTVSPost2010Prop56
140
1.0
102
RTVSPost2010PropOp56
 70
     1
102
RTVSPost2010Prop57
140
1.0
102
RTVSPost2010PropOp57
 70
     1
  0
XRECORD
  5
CC
102
{ACAD_REACTORS
330
CB
102
}
330
CB
100
AcDbXrecord
280
     1
102
RTVSPost2010Prop28
280
     0
102
RTVSPost2010PropOp28
 70
     1
102
RTVSPost2010Prop29
280
     1
102
RTVSPost2010PropOp29
 70
     1
102
RTVSPost2010Prop30
280
     1
102
RTVSPost2010PropOp30
 70
     1
102
RTVSPost2010Prop31
280
     0
102
RTVSPost2010PropOp31
 70
     1
102
RTVSPost2010Prop32
280
     0
102
RTVSPost2010PropOp32
 70
     1
102
RTVSPost2010Prop33
280
     0
102
RTVSPost2010PropOp33
 70
     1
102
RTVSPost2010Prop34
280
     0
102
RTVSPost2010PropOp34
 70
     1
102
RTVSPost2010Prop35
280
     0
102
RTVSPost2010PropOp35
 70
     1
102
RTVSPost2010Prop36
280
     0
102
RTVSPost2010PropOp36
 70
     1
102
RTVSPost2010Prop37
 90
       50
102
RTVSPost2010PropOp37
 70
     1
102
RTVSPost2010Prop38
140
0.0
102
RTVSPost2010PropOp38
 70
     1
102
RTVSPost2010Prop39
140
1.0
102
RTVSPost2010PropOp39
 70
     1
102
RTVSPost2010Prop40
 90
        0
102
RTVSPost2010PropOp40
 70
     1
102
RTVSPost2010Prop41ColorIndex
 90
       18
102
RTVSPost2010Prop41ColorRGB
 90
        0
102
RTVSPost2010PropOp41
 70
     1
102
RTVSPost2010Prop42
 90
       50
102
RTVSPost2010PropOp42
 70
     1
102
RTVSPost2010Prop43
 90
        3
102
RTVSPost2010PropOp43
 70
     1
102
RTVSPost2010Prop44ColorIndex
 90
        5
102
RTVSPost2010Prop44ColorRGB
 90
      255
102
RTVSPost2010PropOp44
 70
     1
102
RTVSPost2010Prop45
280
     0
102
RTVSPost2010PropOp45
 70
     1
102
RTVSPost2010Prop46
 90
       50
102
RTVSPost2010PropOp46
 70
     1
102
RTVSPost2010Prop47
 90
       50
102
RTVSPost2010PropOp47
 70
     1
102
RTVSPost2010Prop48
 90
       50
102
RTVSPost2010PropOp48
 70
     1
102
RTVSPost2010Prop49
280
     0
102
RTVSPost2010PropOp49
 70
     1
102
RTVSPost2010Prop50
 90
       50
102
RTVSPost2010PropOp50
 70
     1
102
RTVSPost2010Prop51ColorIndex
 90
      256
102
RTVSPost2010Prop51ColorRGB
 90
-16777216
102
RTVSPost2010PropOp51
 70
     0
102
RTVSPost2010Prop52
140
1.0
102
RTVSPost2010PropOp52
 70
     0
102
RTVSPost2010Prop53
 90
        2
102
RTVSPost2010PropOp53
 70
     1
102
RTVSPost2010Prop54
  1
strokes_ogs.tif
102
RTVSPost2010PropOp54
 70
     1
102
RTVSPost2010Prop55
280
     0
102
RTVSPost2010PropOp55
 70
     1
102
RTVSPost2010Prop56
140
1.0
102
RTVSPost2010PropOp56
 70
     1
102
RTVSPost2010Prop57
140
1.0
102
RTVSPost2010PropOp57
 70
     1
  0
XRECORD
  5
CE
102
{ACAD_REACTORS
330
CD
102
}
330
CD
100
AcDbXrecord
280
     1
102
RTVSPost2010Prop28
280
     0
102
RTVSPost2010PropOp28
 70
     1
102
RTVSPost2010Prop29
280
     1
102
RTVSPost2010PropOp29
 70
     1
102
RTVSPost2010Prop30
280
     1
102
RTVSPost2010PropOp30
 70
     1
102
RTVSPost2010Prop31
280
     0
102
RTVSPost2010PropOp31
 70
     1
102
RTVSPost2010Prop32
280
     0
102
RTVSPost2010PropOp32
 70
     1
102
RTVSPost2010Prop33
280
     0
102
RTVSPost2010PropOp33
 70
     1
102
RTVSPost2010Prop34
280
     0
102
RTVSPost2010PropOp34
 70
     1
102
RTVSPost2010Prop35
280
     0
102
RTVSPost2010PropOp35
 70
     1
102
RTVSPost2010Prop36
280
     0
102
RTVSPost2010PropOp36
 70
     1
102
RTVSPost2010Prop37
 90
       50
102
RTVSPost2010PropOp37
 70
     1
102
RTVSPost2010Prop38
140
0.0
102
RTVSPost2010PropOp38
 70
     1
102
RTVSPost2010Prop39
140
1.0
102
RTVSPost2010PropOp39
 70
     1
102
RTVSPost2010Prop40
 90
        0
102
RTVSPost2010PropOp40
 70
     1
102
RTVSPost2010Prop41ColorIndex
 90
       18
102
RTVSPost2010Prop41ColorRGB
 90
        0
102
RTVSPost2010PropOp41
 70
     1
102
RTVSPost2010Prop42
 90
       50
102
RTVSPost2010PropOp42
 70
     1
102
RTVSPost2010Prop43
 90
        3
102
RTVSPost2010PropOp43
 70
     1
102
RTVSPost2010Prop44ColorIndex
 90
        5
102
RTVSPost2010Prop44ColorRGB
 90
      255
102
RTVSPost2010PropOp44
 70
     1
102
RTVSPost2010Prop45
280
     0
102
RTVSPost2010PropOp45
 70
     1
102
RTVSPost2010Prop46
 90
       50
102
RTVSPost2010PropOp46
 70
     1
102
RTVSPost2010Prop47
 90
       50
102
RTVSPost2010PropOp47
 70
     1
102
RTVSPost2010Prop48
 90
       50
102
RTVSPost2010PropOp48
 70
     1
102
RTVSPost2010Prop49
280
     0
102
RTVSPost2010PropOp49
 70
     1
102
RTVSPost2010Prop50
 90
       50
102
RTVSPost2010PropOp50
 70
     1
102
RTVSPost2010Prop51ColorIndex
 90
      256
102
RTVSPost2010Prop51ColorRGB
 90
-16777216
102
RTVSPost2010PropOp51
 70
     0
102
RTVSPost2010Prop52
140
1.0
102
RTVSPost2010PropOp52
 70
     0
102
RTVSPost2010Prop53
 90
        2
102
RTVSPost2010PropOp53
 70
     1
102
RTVSPost2010Prop54
  1
strokes_ogs.tif
102
RTVSPost2010PropOp54
 70
     1
102
RTVSPost2010Prop55
280
     0
102
RTVSPost2010PropOp55
 70
     1
102
RTVSPost2010Prop56
140
1.0
102
RTVSPost2010PropOp56
 70
     1
102
RTVSPost2010Prop57
140
1.0
102
RTVSPost2010PropOp57
 70
     1
  0
XRECORD
  5
DE
102
{ACAD_REACTORS
330
DD
102
}
330
DD
100
AcDbXrecord
280
     1
102
RTVSPost2010Prop28
280
     0
102
RTVSPost2010PropOp28
 70
     0
102
RTVSPost2010Prop29
280
     1
102
RTVSPost2010PropOp29
 70
     0
102
RTVSPost2010Prop30
280
     1
102
RTVSPost2010PropOp30
 70
     0
102
RTVSPost2010Prop31
280
     0
102
RTVSPost2010PropOp31
 70
     0
102
RTVSPost2010Prop32
280
     0
102
RTVSPost2010PropOp32
 70
     0
102
RTVSPost2010Prop33
280
     0
102
RTVSPost2010PropOp33
 70
     0
102
RTVSPost2010Prop34
280
     0
102
RTVSPost2010PropOp34
 70
     0
102
RTVSPost2010Prop35
280
     0
102
RTVSPost2010PropOp35
 70
     0
102
RTVSPost2010Prop36
280
     0
102
RTVSPost2010PropOp36
 70
     0
102
RTVSPost2010Prop37
 90
       50
102
RTVSPost2010PropOp37
 70
     0
102
RTVSPost2010Prop38
140
0.0
102
RTVSPost2010PropOp38
 70
     0
102
RTVSPost2010Prop39
140
1.0
102
RTVSPost2010PropOp39
 70
     0
102
RTVSPost2010Prop40
 90
        0
102
RTVSPost2010PropOp40
 70
     0
102
RTVSPost2010Prop41ColorIndex
 90
       18
102
RTVSPost2010Prop41ColorRGB
 90
        0
102
RTVSPost2010PropOp41
 70
     0
102
RTVSPost2010Prop42
 90
       50
102
RTVSPost2010PropOp42
 70
     0
102
RTVSPost2010Prop43
 90
        3
102
RTVSPost2010PropOp43
 70
     0
102
RTVSPost2010Prop44ColorIndex
 90
        5
102
RTVSPost2010Prop44ColorRGB
 90
      255
102
RTVSPost2010PropOp44
 70
     0
102
RTVSPost2010Prop45
280
     0
102
RTVSPost2010PropOp45
 70
     0
102
RTVSPost2010Prop46
 90
       50
102
RTVSPost2010PropOp46
 70
     0
102
RTVSPost2010Prop47
 90
       50
102
RTVSPost2010PropOp47
 70
     0
102
RTVSPost2010Prop48
 90
       50
102
RTVSPost2010PropOp48
 70
     0
102
RTVSPost2010Prop49
280
     0
102
RTVSPost2010PropOp49
 70
     0
102
RTVSPost2010Prop50
 90
       50
102
RTVSPost2010PropOp50
 70
     0
102
RTVSPost2010Prop51ColorIndex
 90
      256
102
RTVSPost2010Prop51ColorRGB
 90
-16777216
102
RTVSPost2010PropOp51
 70
     0
102
RTVSPost2010Prop52
140
1.0
102
RTVSPost2010PropOp52
 70
     0
102
RTVSPost2010Prop53
 90
        2
102
RTVSPost2010PropOp53
 70
     0
102
RTVSPost2010Prop54
  1
strokes_ogs.tif
102
RTVSPost2010PropOp54
 70
     0
102
RTVSPost2010Prop55
280
     0
102
RTVSPost2010PropOp55
 70
     0
102
RTVSPost2010Prop56
140
1.0
102
RTVSPost2010PropOp56
 70
     0
102
RTVSPost2010Prop57
140
1.0
102
RTVSPost2010PropOp57
 70
     0
  0
XRECORD
  5
D6
102
{ACAD_REACTORS
330
D5
102
}
330
D5
100
AcDbXrecord
280
     1
102
RTVSPost2010Prop28
280
     0
102
RTVSPost2010PropOp28
 70
     1
102
RTVSPost2010Prop29
280
     1
102
RTVSPost2010PropOp29
 70
     1
102
RTVSPost2010Prop30
280
     1
102
RTVSPost2010PropOp30
 70
     1
102
RTVSPost2010Prop31
280
     0
102
RTVSPost2010PropOp31
 70
     1
102
RTVSPost2010Prop32
280
     0
102
RTVSPost2010PropOp32
 70
     1
102
RTVSPost2010Prop33
280
     0
102
RTVSPost2010PropOp33
 70
     1
102
RTVSPost2010Prop34
280
     0
102
RTVSPost2010PropOp34
 70
     1
102
RTVSPost2010Prop35
280
     0
102
RTVSPost2010PropOp35
 70
     1
102
RTVSPost2010Prop36
280
     0
102
RTVSPost2010PropOp36
 70
     1
102
RTVSPost2010Prop37
 90
       50
102
RTVSPost2010PropOp37
 70
     1
102
RTVSPost2010Prop38
140
0.0
102
RTVSPost2010PropOp38
 70
     1
102
RTVSPost2010Prop39
140
1.0
102
RTVSPost2010PropOp39
 70
     1
102
RTVSPost2010Prop40
 90
        0
102
RTVSPost2010PropOp40
 70
     1
102
RTVSPost2010Prop41ColorIndex
 90
       18
102
RTVSPost2010Prop41ColorRGB
 90
        0
102
RTVSPost2010PropOp41
 70
     1
102
RTVSPost2010Prop42
 90
       50
102
RTVSPost2010PropOp42
 70
     1
102
RTVSPost2010Prop43
 90
        3
102
RTVSPost2010PropOp43
 70
     1
102
RTVSPost2010Prop44ColorIndex
 90
        5
102
RTVSPost2010Prop44ColorRGB
 90
      255
102
RTVSPost2010PropOp44
 70
     1
102
RTVSPost2010Prop45
280
     0
102
RTVSPost2010PropOp45
 70
     1
102
RTVSPost2010Prop46
 90
       50
102
RTVSPost2010PropOp46
 70
     1
102
RTVSPost2010Prop47
 90
       50
102
RTVSPost2010PropOp47
 70
     1
102
RTVSPost2010Prop48
 90
       50
102
RTVSPost2010PropOp48
 70
     1
102
RTVSPost2010Prop49
280
     0
102
RTVSPost2010PropOp49
 70
     1
102
RTVSPost2010Prop50
 90
       50
102
RTVSPost2010PropOp50
 70
     1
102
RTVSPost2010Prop51ColorIndex
 90
      256
102
RTVSPost2010Prop51ColorRGB
 90
-16777216
102
RTVSPost2010PropOp51
 70
     0
102
RTVSPost2010Prop52
140
1.0
102
RTVSPost2010PropOp52
 70
     0
102
RTVSPost2010Prop53
 90
        2
102
RTVSPost2010PropOp53
 70
     1
102
RTVSPost2010Prop54
  1
strokes_ogs.tif
102
RTVSPost2010PropOp54
 70
     1
102
RTVSPost2010Prop55
280
     0
102
RTVSPost2010PropOp55
 70
     1
102
RTVSPost2010Prop56
140
1.0
102
RTVSPost2010PropOp56
 70
     1
102
RTVSPost2010Prop57
140
1.0
102
RTVSPost2010PropOp57
 70
     1
  0
XRECORD
  5
BA
102
{ACAD_REACTORS
330
B9
102
}
330
B9
100
AcDbXrecord
280
     1
102
RTVSPost2010Prop28
280
     0
102
RTVSPost2010PropOp28
 70
     1
102
RTVSPost2010Prop29
280
     1
102
RTVSPost2010PropOp29
 70
     1
102
RTVSPost2010Prop30
280
     1
102
RTVSPost2010PropOp30
 70
     1
102
RTVSPost2010Prop31
280
     0
102
RTVSPost2010PropOp31
 70
     1
102
RTVSPost2010Prop32
280
     0
102
RTVSPost2010PropOp32
 70
     1
102
RTVSPost2010Prop33
280
     0
102
RTVSPost2010PropOp33
 70
     1
102
RTVSPost2010Prop34
280
     0
102
RTVSPost2010PropOp34
 70
     1
102
RTVSPost2010Prop35
280
     0
102
RTVSPost2010PropOp35
 70
     1
102
RTVSPost2010Prop36
280
     0
102
RTVSPost2010PropOp36
 70
     1
102
RTVSPost2010Prop37
 90
       50
102
RTVSPost2010PropOp37
 70
     1
102
RTVSPost2010Prop38
140
0.0
102
RTVSPost2010PropOp38
 70
     1
102
RTVSPost2010Prop39
140
1.0
102
RTVSPost2010PropOp39
 70
     1
102
RTVSPost2010Prop40
 90
        0
102
RTVSPost2010PropOp40
 70
     1
102
RTVSPost2010Prop41ColorIndex
 90
       18
102
RTVSPost2010Prop41ColorRGB
 90
        0
102
RTVSPost2010PropOp41
 70
     1
102
RTVSPost2010Prop42
 90
       50
102
RTVSPost2010PropOp42
 70
     1
102
RTVSPost2010Prop43
 90
        3
102
RTVSPost2010PropOp43
 70
     1
102
RTVSPost2010Prop44ColorIndex
 90
        5
102
RTVSPost2010Prop44ColorRGB
 90
      255
102
RTVSPost2010PropOp44
 70
     1
102
RTVSPost2010Prop45
280
     0
102
RTVSPost2010PropOp45
 70
     1
102
RTVSPost2010Prop46
 90
       50
102
RTVSPost2010PropOp46
 70
     1
102
RTVSPost2010Prop47
 90
       50
102
RTVSPost2010PropOp47
 70
     1
102
RTVSPost2010Prop48
 90
       50
102
RTVSPost2010PropOp48
 70
     1
102
RTVSPost2010Prop49
280
     0
102
RTVSPost2010PropOp49
 70
     1
102
RTVSPost2010Prop50
 90
       50
102
RTVSPost2010PropOp50
 70
     1
102
RTVSPost2010Prop51ColorIndex
 90
      256
102
RTVSPost2010Prop51ColorRGB
 90
-16777216
102
RTVSPost2010PropOp51
 70
     0
102
RTVSPost2010Prop52
140
1.0
102
RTVSPost2010PropOp52
 70
     0
102
RTVSPost2010Prop53
 90
        2
102
RTVSPost2010PropOp53
 70
     1
102
RTVSPost2010Prop54
  1
strokes_ogs.tif
102
RTVSPost2010PropOp54
 70
     1
102
RTVSPost2010Prop55
280
     0
102
RTVSPost2010PropOp55
 70
     1
102
RTVSPost2010Prop56
140
1.0
102
RTVSPost2010PropOp56
 70
     1
102
RTVSPost2010Prop57
140
1.0
102
RTVSPost2010PropOp57
 70
     1
  0
XRECORD
  5
BC
102
{ACAD_REACTORS
330
BB
102
}
330
BB
100
AcDbXrecord
280
     1
102
RTVSPost2010Prop28
280
     0
102
RTVSPost2010PropOp28
 70
     1
102
RTVSPost2010Prop29
280
     1
102
RTVSPost2010PropOp29
 70
     1
102
RTVSPost2010Prop30
280
     1
102
RTVSPost2010PropOp30
 70
     1
102
RTVSPost2010Prop31
280
     0
102
RTVSPost2010PropOp31
 70
     1
102
RTVSPost2010Prop32
280
     0
102
RTVSPost2010PropOp32
 70
     1
102
RTVSPost2010Prop33
280
     0
102
RTVSPost2010PropOp33
 70
     1
102
RTVSPost2010Prop34
280
     0
102
RTVSPost2010PropOp34
 70
     1
102
RTVSPost2010Prop35
280
     0
102
RTVSPost2010PropOp35
 70
     1
102
RTVSPost2010Prop36
280
     0
102
RTVSPost2010PropOp36
 70
     1
102
RTVSPost2010Prop37
 90
       50
102
RTVSPost2010PropOp37
 70
     1
102
RTVSPost2010Prop38
140
0.0
102
RTVSPost2010PropOp38
 70
     1
102
RTVSPost2010Prop39
140
1.0
102
RTVSPost2010PropOp39
 70
     1
102
RTVSPost2010Prop40
 90
        0
102
RTVSPost2010PropOp40
 70
     1
102
RTVSPost2010Prop41ColorIndex
 90
       18
102
RTVSPost2010Prop41ColorRGB
 90
        0
102
RTVSPost2010PropOp41
 70
     1
102
RTVSPost2010Prop42
 90
       50
102
RTVSPost2010PropOp42
 70
     1
102
RTVSPost2010Prop43
 90
        3
102
RTVSPost2010PropOp43
 70
     1
102
RTVSPost2010Prop44ColorIndex
 90
        5
102
RTVSPost2010Prop44ColorRGB
 90
      255
102
RTVSPost2010PropOp44
 70
     1
102
RTVSPost2010Prop45
280
     0
102
RTVSPost2010PropOp45
 70
     1
102
RTVSPost2010Prop46
 90
       50
102
RTVSPost2010PropOp46
 70
     1
102
RTVSPost2010Prop47
 90
       50
102
RTVSPost2010PropOp47
 70
     1
102
RTVSPost2010Prop48
 90
       50
102
RTVSPost2010PropOp48
 70
     1
102
RTVSPost2010Prop49
280
     0
102
RTVSPost2010PropOp49
 70
     1
102
RTVSPost2010Prop50
 90
       50
102
RTVSPost2010PropOp50
 70
     1
102
RTVSPost2010Prop51ColorIndex
 90
      256
102
RTVSPost2010Prop51ColorRGB
 90
-16777216
102
RTVSPost2010PropOp51
 70
     0
102
RTVSPost2010Prop52
140
1.0
102
RTVSPost2010PropOp52
 70
     0
102
RTVSPost2010Prop53
 90
        2
102
RTVSPost2010PropOp53
 70
     1
102
RTVSPost2010Prop54
  1
strokes_ogs.tif
102
RTVSPost2010PropOp54
 70
     1
102
RTVSPost2010Prop55
280
     0
102
RTVSPost2010PropOp55
 70
     1
102
RTVSPost2010Prop56
140
1.0
102
RTVSPost2010PropOp56
 70
     1
102
RTVSPost2010Prop57
140
1.0
102
RTVSPost2010PropOp57
 70
     1
  0
XRECORD
  5
BE
102
{ACAD_REACTORS
330
BD
102
}
330
BD
100
AcDbXrecord
280
     1
102
RTVSPost2010Prop28
280
     0
102
RTVSPost2010PropOp28
 70
     1
102
RTVSPost2010Prop29
280
     1
102
RTVSPost2010PropOp29
 70
     1
102
RTVSPost2010Prop30
280
     1
102
RTVSPost2010PropOp30
 70
     1
102
RTVSPost2010Prop31
280
     0
102
RTVSPost2010PropOp31
 70
     1
102
RTVSPost2010Prop32
280
     0
102
RTVSPost2010PropOp32
 70
     1
102
RTVSPost2010Prop33
280
     0
102
RTVSPost2010PropOp33
 70
     1
102
RTVSPost2010Prop34
280
     0
102
RTVSPost2010PropOp34
 70
     1
102
RTVSPost2010Prop35
280
     0
102
RTVSPost2010PropOp35
 70
     1
102
RTVSPost2010Prop36
280
     0
102
RTVSPost2010PropOp36
 70
     1
102
RTVSPost2010Prop37
 90
       50
102
RTVSPost2010PropOp37
 70
     1
102
RTVSPost2010Prop38
140
0.0
102
RTVSPost2010PropOp38
 70
     1
102
RTVSPost2010Prop39
140
1.0
102
RTVSPost2010PropOp39
 70
     1
102
RTVSPost2010Prop40
 90
        0
102
RTVSPost2010PropOp40
 70
     1
102
RTVSPost2010Prop41ColorIndex
 90
       18
102
RTVSPost2010Prop41ColorRGB
 90
        0
102
RTVSPost2010PropOp41
 70
     1
102
RTVSPost2010Prop42
 90
       50
102
RTVSPost2010PropOp42
 70
     1
102
RTVSPost2010Prop43
 90
        3
102
RTVSPost2010PropOp43
 70
     1
102
RTVSPost2010Prop44ColorIndex
 90
        5
102
RTVSPost2010Prop44ColorRGB
 90
      255
102
RTVSPost2010PropOp44
 70
     1
102
RTVSPost2010Prop45
280
     0
102
RTVSPost2010PropOp45
 70
     1
102
RTVSPost2010Prop46
 90
       50
102
RTVSPost2010PropOp46
 70
     1
102
RTVSPost2010Prop47
 90
       50
102
RTVSPost2010PropOp47
 70
     1
102
RTVSPost2010Prop48
 90
       50
102
RTVSPost2010PropOp48
 70
     1
102
RTVSPost2010Prop49
280
     0
102
RTVSPost2010PropOp49
 70
     1
102
RTVSPost2010Prop50
 90
       50
102
RTVSPost2010PropOp50
 70
     1
102
RTVSPost2010Prop51ColorIndex
 90
      256
102
RTVSPost2010Prop51ColorRGB
 90
-16777216
102
RTVSPost2010PropOp51
 70
     0
102
RTVSPost2010Prop52
140
1.0
102
RTVSPost2010PropOp52
 70
     0
102
RTVSPost2010Prop53
 90
        2
102
RTVSPost2010PropOp53
 70
     1
102
RTVSPost2010Prop54
  1
strokes_ogs.tif
102
RTVSPost2010PropOp54
 70
     1
102
RTVSPost2010Prop55
280
     0
102
RTVSPost2010PropOp55
 70
     1
102
RTVSPost2010Prop56
140
1.0
102
RTVSPost2010PropOp56
 70
     1
102
RTVSPost2010Prop57
140
1.0
102
RTVSPost2010PropOp57
 70
     1
  0
XRECORD
  5
C0
102
{ACAD_REACTORS
330
BF
102
}
330
BF
100
AcDbXrecord
280
     1
102
RTVSPost2010Prop28
280
     0
102
RTVSPost2010PropOp28
 70
     1
102
RTVSPost2010Prop29
280
     1
102
RTVSPost2010PropOp29
 70
     1
102
RTVSPost2010Prop30
280
     1
102
RTVSPost2010PropOp30
 70
     1
102
RTVSPost2010Prop31
280
     0
102
RTVSPost2010PropOp31
 70
     1
102
RTVSPost2010Prop32
280
     0
102
RTVSPost2010PropOp32
 70
     1
102
RTVSPost2010Prop33
280
     0
102
RTVSPost2010PropOp33
 70
     1
102
RTVSPost2010Prop34
280
     0
102
RTVSPost2010PropOp34
 70
     1
102
RTVSPost2010Prop35
280
     0
102
RTVSPost2010PropOp35
 70
     1
102
RTVSPost2010Prop36
280
     0
102
RTVSPost2010PropOp36
 70
     1
102
RTVSPost2010Prop37
 90
       50
102
RTVSPost2010PropOp37
 70
     1
102
RTVSPost2010Prop38
140
0.0
102
RTVSPost2010PropOp38
 70
     1
102
RTVSPost2010Prop39
140
1.0
102
RTVSPost2010PropOp39
 70
     1
102
RTVSPost2010Prop40
 90
        0
102
RTVSPost2010PropOp40
 70
     1
102
RTVSPost2010Prop41ColorIndex
 90
       18
102
RTVSPost2010Prop41ColorRGB
 90
        0
102
RTVSPost2010PropOp41
 70
     1
102
RTVSPost2010Prop42
 90
       50
102
RTVSPost2010PropOp42
 70
     1
102
RTVSPost2010Prop43
 90
        3
102
RTVSPost2010PropOp43
 70
     1
102
RTVSPost2010Prop44ColorIndex
 90
        5
102
RTVSPost2010Prop44ColorRGB
 90
      255
102
RTVSPost2010PropOp44
 70
     1
102
RTVSPost2010Prop45
280
     0
102
RTVSPost2010PropOp45
 70
     1
102
RTVSPost2010Prop46
 90
       50
102
RTVSPost2010PropOp46
 70
     1
102
RTVSPost2010Prop47
 90
       50
102
RTVSPost2010PropOp47
 70
     1
102
RTVSPost2010Prop48
 90
       50
102
RTVSPost2010PropOp48
 70
     1
102
RTVSPost2010Prop49
280
     0
102
RTVSPost2010PropOp49
 70
     1
102
RTVSPost2010Prop50
 90
       50
102
RTVSPost2010PropOp50
 70
     1
102
RTVSPost2010Prop51ColorIndex
 90
      256
102
RTVSPost2010Prop51ColorRGB
 90
-16777216
102
RTVSPost2010PropOp51
 70
     0
102
RTVSPost2010Prop52
140
1.0
102
RTVSPost2010PropOp52
 70
     0
102
RTVSPost2010Prop53
 90
        2
102
RTVSPost2010PropOp53
 70
     1
102
RTVSPost2010Prop54
  1
strokes_ogs.tif
102
RTVSPost2010PropOp54
 70
     1
102
RTVSPost2010Prop55
280
     0
102
RTVSPost2010PropOp55
 70
     1
102
RTVSPost2010Prop56
140
1.0
102
RTVSPost2010PropOp56
 70
     1
102
RTVSPost2010Prop57
140
1.0
102
RTVSPost2010PropOp57
 70
     1
  0
XRECORD
  5
C6
102
{ACAD_REACTORS
330
C5
102
}
330
C5
100
AcDbXrecord
280
     1
102
RTVSPost2010Prop28
280
     0
102
RTVSPost2010PropOp28
 70
     1
102
RTVSPost2010Prop29
280
     1
102
RTVSPost2010PropOp29
 70
     1
102
RTVSPost2010Prop30
280
     1
102
RTVSPost2010PropOp30
 70
     1
102
RTVSPost2010Prop31
280
     0
102
RTVSPost2010PropOp31
 70
     1
102
RTVSPost2010Prop32
280
     0
102
RTVSPost2010PropOp32
 70
     1
102
RTVSPost2010Prop33
280
     0
102
RTVSPost2010PropOp33
 70
     1
102
RTVSPost2010Prop34
280
     0
102
RTVSPost2010PropOp34
 70
     1
102
RTVSPost2010Prop35
280
     0
102
RTVSPost2010PropOp35
 70
     1
102
RTVSPost2010Prop36
280
     0
102
RTVSPost2010PropOp36
 70
     1
102
RTVSPost2010Prop37
 90
       50
102
RTVSPost2010PropOp37
 70
     1
102
RTVSPost2010Prop38
140
0.0
102
RTVSPost2010PropOp38
 70
     1
102
RTVSPost2010Prop39
140
1.0
102
RTVSPost2010PropOp39
 70
     1
102
RTVSPost2010Prop40
 90
        0
102
RTVSPost2010PropOp40
 70
     1
102
RTVSPost2010Prop41ColorIndex
 90
       18
102
RTVSPost2010Prop41ColorRGB
 90
        0
102
RTVSPost2010PropOp41
 70
     1
102
RTVSPost2010Prop42
 90
       50
102
RTVSPost2010PropOp42
 70
     1
102
RTVSPost2010Prop43
 90
        3
102
RTVSPost2010PropOp43
 70
     1
102
RTVSPost2010Prop44ColorIndex
 90
        5
102
RTVSPost2010Prop44ColorRGB
 90
      255
102
RTVSPost2010PropOp44
 70
     1
102
RTVSPost2010Prop45
280
     0
102
RTVSPost2010PropOp45
 70
     1
102
RTVSPost2010Prop46
 90
       50
102
RTVSPost2010PropOp46
 70
     1
102
RTVSPost2010Prop47
 90
       50
102
RTVSPost2010PropOp47
 70
     1
102
RTVSPost2010Prop48
 90
       50
102
RTVSPost2010PropOp48
 70
     1
102
RTVSPost2010Prop49
280
     0
102
RTVSPost2010PropOp49
 70
     1
102
RTVSPost2010Prop50
 90
       50
102
RTVSPost2010PropOp50
 70
     1
102
RTVSPost2010Prop51ColorIndex
 90
      256
102
RTVSPost2010Prop51ColorRGB
 90
-16777216
102
RTVSPost2010PropOp51
 70
     0
102
RTVSPost2010Prop52
140
1.0
102
RTVSPost2010PropOp52
 70
     0
102
RTVSPost2010Prop53
 90
        2
102
RTVSPost2010PropOp53
 70
     1
102
RTVSPost2010Prop54
  1
strokes_ogs.tif
102
RTVSPost2010PropOp54
 70
     1
102
RTVSPost2010Prop55
280
     0
102
RTVSPost2010PropOp55
 70
     1
102
RTVSPost2010Prop56
140
1.0
102
RTVSPost2010PropOp56
 70
     1
102
RTVSPost2010Prop57
140
1.0
102
RTVSPost2010PropOp57
 70
     1
  0
XRECORD
  5
DA
102
{ACAD_REACTORS
330
D9
102
}
330
D9
100
AcDbXrecord
280
     1
102
RTVSPost2010Prop28
280
     0
102
RTVSPost2010PropOp28
 70
     0
102
RTVSPost2010Prop29
280
     1
102
RTVSPost2010PropOp29
 70
     0
102
RTVSPost2010Prop30
280
     1
102
RTVSPost2010PropOp30
 70
     0
102
RTVSPost2010Prop31
280
     0
102
RTVSPost2010PropOp31
 70
     0
102
RTVSPost2010Prop32
280
     0
102
RTVSPost2010PropOp32
 70
     0
102
RTVSPost2010Prop33
280
     0
102
RTVSPost2010PropOp33
 70
     0
102
RTVSPost2010Prop34
280
     0
102
RTVSPost2010PropOp34
 70
     0
102
RTVSPost2010Prop35
280
     0
102
RTVSPost2010PropOp35
 70
     0
102
RTVSPost2010Prop36
280
     0
102
RTVSPost2010PropOp36
 70
     0
102
RTVSPost2010Prop37
 90
       50
102
RTVSPost2010PropOp37
 70
     0
102
RTVSPost2010Prop38
140
0.0
102
RTVSPost2010PropOp38
 70
     0
102
RTVSPost2010Prop39
140
1.0
102
RTVSPost2010PropOp39
 70
     0
102
RTVSPost2010Prop40
 90
        0
102
RTVSPost2010PropOp40
 70
     0
102
RTVSPost2010Prop41ColorIndex
 90
       18
102
RTVSPost2010Prop41ColorRGB
 90
        0
102
RTVSPost2010PropOp41
 70
     0
102
RTVSPost2010Prop42
 90
       50
102
RTVSPost2010PropOp42
 70
     0
102
RTVSPost2010Prop43
 90
        3
102
RTVSPost2010PropOp43
 70
     0
102
RTVSPost2010Prop44ColorIndex
 90
        5
102
RTVSPost2010Prop44ColorRGB
 90
      255
102
RTVSPost2010PropOp44
 70
     0
102
RTVSPost2010Prop45
280
     0
102
RTVSPost2010PropOp45
 70
     0
102
RTVSPost2010Prop46
 90
       50
102
RTVSPost2010PropOp46
 70
     0
102
RTVSPost2010Prop47
 90
       50
102
RTVSPost2010PropOp47
 70
     0
102
RTVSPost2010Prop48
 90
       50
102
RTVSPost2010PropOp48
 70
     0
102
RTVSPost2010Prop49
280
     0
102
RTVSPost2010PropOp49
 70
     0
102
RTVSPost2010Prop50
 90
       50
102
RTVSPost2010PropOp50
 70
     0
102
RTVSPost2010Prop51ColorIndex
 90
      256
102
RTVSPost2010Prop51ColorRGB
 90
-16777216
102
RTVSPost2010PropOp51
 70
     0
102
RTVSPost2010Prop52
140
1.0
102
RTVSPost2010PropOp52
 70
     0
102
RTVSPost2010Prop53
 90
        2
102
RTVSPost2010PropOp53
 70
     0
102
RTVSPost2010Prop54
  1
strokes_ogs.tif
102
RTVSPost2010PropOp54
 70
     0
102
RTVSPost2010Prop55
280
     0
102
RTVSPost2010PropOp55
 70
     0
102
RTVSPost2010Prop56
140
1.0
102
RTVSPost2010PropOp56
 70
     0
102
RTVSPost2010Prop57
140
1.0
102
RTVSPost2010PropOp57
 70
     0
  0
XRECORD
  5
D4
102
{ACAD_REACTORS
330
D3
102
}
330
D3
100
AcDbXrecord
280
     1
102
RTVSPost2010Prop28
280
     0
102
RTVSPost2010PropOp28
 70
     1
102
RTVSPost2010Prop29
280
     1
102
RTVSPost2010PropOp29
 70
     1
102
RTVSPost2010Prop30
280
     1
102
RTVSPost2010PropOp30
 70
     1
102
RTVSPost2010Prop31
280
     0
102
RTVSPost2010PropOp31
 70
     1
102
RTVSPost2010Prop32
280
     0
102
RTVSPost2010PropOp32
 70
     1
102
RTVSPost2010Prop33
280
     0
102
RTVSPost2010PropOp33
 70
     1
102
RTVSPost2010Prop34
280
     0
102
RTVSPost2010PropOp34
 70
     1
102
RTVSPost2010Prop35
280
     0
102
RTVSPost2010PropOp35
 70
     1
102
RTVSPost2010Prop36
280
     0
102
RTVSPost2010PropOp36
 70
     1
102
RTVSPost2010Prop37
 90
       50
102
RTVSPost2010PropOp37
 70
     1
102
RTVSPost2010Prop38
140
0.0
102
RTVSPost2010PropOp38
 70
     1
102
RTVSPost2010Prop39
140
1.0
102
RTVSPost2010PropOp39
 70
     1
102
RTVSPost2010Prop40
 90
        0
102
RTVSPost2010PropOp40
 70
     1
102
RTVSPost2010Prop41ColorIndex
 90
       18
102
RTVSPost2010Prop41ColorRGB
 90
        0
102
RTVSPost2010PropOp41
 70
     1
102
RTVSPost2010Prop42
 90
       50
102
RTVSPost2010PropOp42
 70
     1
102
RTVSPost2010Prop43
 90
        3
102
RTVSPost2010PropOp43
 70
     1
102
RTVSPost2010Prop44ColorIndex
 90
        5
102
RTVSPost2010Prop44ColorRGB
 90
      255
102
RTVSPost2010PropOp44
 70
     1
102
RTVSPost2010Prop45
280
     0
102
RTVSPost2010PropOp45
 70
     1
102
RTVSPost2010Prop46
 90
       50
102
RTVSPost2010PropOp46
 70
     1
102
RTVSPost2010Prop47
 90
       50
102
RTVSPost2010PropOp47
 70
     1
102
RTVSPost2010Prop48
 90
       50
102
RTVSPost2010PropOp48
 70
     1
102
RTVSPost2010Prop49
280
     0
102
RTVSPost2010PropOp49
 70
     1
102
RTVSPost2010Prop50
 90
       50
102
RTVSPost2010PropOp50
 70
     1
102
RTVSPost2010Prop51ColorIndex
 90
      256
102
RTVSPost2010Prop51ColorRGB
 90
-16777216
102
RTVSPost2010PropOp51
 70
     0
102
RTVSPost2010Prop52
140
1.0
102
RTVSPost2010PropOp52
 70
     0
102
RTVSPost2010Prop53
 90
        2
102
RTVSPost2010PropOp53
 70
     1
102
RTVSPost2010Prop54
  1
strokes_ogs.tif
102
RTVSPost2010PropOp54
 70
     1
102
RTVSPost2010Prop55
280
     0
102
RTVSPost2010PropOp55
 70
     1
102
RTVSPost2010Prop56
140
1.0
102
RTVSPost2010PropOp56
 70
     1
102
RTVSPost2010Prop57
140
1.0
102
RTVSPost2010PropOp57
 70
     1
  0
XRECORD
  5
DC
102
{ACAD_REACTORS
330
DB
102
}
330
DB
100
AcDbXrecord
280
     1
102
RTVSPost2010Prop28
280
     0
102
RTVSPost2010PropOp28
 70
     0
102
RTVSPost2010Prop29
280
     1
102
RTVSPost2010PropOp29
 70
     0
102
RTVSPost2010Prop30
280
     1
102
RTVSPost2010PropOp30
 70
     0
102
RTVSPost2010Prop31
280
     0
102
RTVSPost2010PropOp31
 70
     0
102
RTVSPost2010Prop32
280
     0
102
RTVSPost2010PropOp32
 70
     0
102
RTVSPost2010Prop33
280
     0
102
RTVSPost2010PropOp33
 70
     0
102
RTVSPost2010Prop34
280
     0
102
RTVSPost2010PropOp34
 70
     0
102
RTVSPost2010Prop35
280
     0
102
RTVSPost2010PropOp35
 70
     0
102
RTVSPost2010Prop36
280
     0
102
RTVSPost2010PropOp36
 70
     0
102
RTVSPost2010Prop37
 90
       50
102
RTVSPost2010PropOp37
 70
     0
102
RTVSPost2010Prop38
140
0.0
102
RTVSPost2010PropOp38
 70
     0
102
RTVSPost2010Prop39
140
1.0
102
RTVSPost2010PropOp39
 70
     0
102
RTVSPost2010Prop40
 90
        0
102
RTVSPost2010PropOp40
 70
     0
102
RTVSPost2010Prop41ColorIndex
 90
       18
102
RTVSPost2010Prop41ColorRGB
 90
        0
102
RTVSPost2010PropOp41
 70
     0
102
RTVSPost2010Prop42
 90
       50
102
RTVSPost2010PropOp42
 70
     0
102
RTVSPost2010Prop43
 90
        3
102
RTVSPost2010PropOp43
 70
     0
102
RTVSPost2010Prop44ColorIndex
 90
        5
102
RTVSPost2010Prop44ColorRGB
 90
      255
102
RTVSPost2010PropOp44
 70
     0
102
RTVSPost2010Prop45
280
     0
102
RTVSPost2010PropOp45
 70
     0
102
RTVSPost2010Prop46
 90
       50
102
RTVSPost2010PropOp46
 70
     0
102
RTVSPost2010Prop47
 90
       50
102
RTVSPost2010PropOp47
 70
     0
102
RTVSPost2010Prop48
 90
       50
102
RTVSPost2010PropOp48
 70
     0
102
RTVSPost2010Prop49
280
     0
102
RTVSPost2010PropOp49
 70
     0
102
RTVSPost2010Prop50
 90
       50
102
RTVSPost2010PropOp50
 70
     0
102
RTVSPost2010Prop51ColorIndex
 90
      256
102
RTVSPost2010Prop51ColorRGB
 90
-16777216
102
RTVSPost2010PropOp51
 70
     0
102
RTVSPost2010Prop52
140
1.0
102
RTVSPost2010PropOp52
 70
     0
102
RTVSPost2010Prop53
 90
        2
102
RTVSPost2010PropOp53
 70
     0
102
RTVSPost2010Prop54
  1
strokes_ogs.tif
102
RTVSPost2010PropOp54
 70
     0
102
RTVSPost2010Prop55
280
     0
102
RTVSPost2010PropOp55
 70
     0
102
RTVSPost2010Prop56
140
1.0
102
RTVSPost2010PropOp56
 70
     0
102
RTVSPost2010Prop57
140
1.0
102
RTVSPost2010PropOp57
 70
     0
  0
XRECORD
  5
CA
102
{ACAD_REACTORS
330
C9
102
}
330
C9
100
AcDbXrecord
280
     1
102
RTVSPost2010Prop28
280
     0
102
RTVSPost2010PropOp28
 70
     1
102
RTVSPost2010Prop29
280
     1
102
RTVSPost2010PropOp29
 70
     1
102
RTVSPost2010Prop30
280
     1
102
RTVSPost2010PropOp30
 70
     1
102
RTVSPost2010Prop31
280
     0
102
RTVSPost2010PropOp31
 70
     1
102
RTVSPost2010Prop32
280
     0
102
RTVSPost2010PropOp32
 70
     1
102
RTVSPost2010Prop33
280
     0
102
RTVSPost2010PropOp33
 70
     1
102
RTVSPost2010Prop34
280
     0
102
RTVSPost2010PropOp34
 70
     1
102
RTVSPost2010Prop35
280
     0
102
RTVSPost2010PropOp35
 70
     1
102
RTVSPost2010Prop36
280
     0
102
RTVSPost2010PropOp36
 70
     1
102
RTVSPost2010Prop37
 90
       50
102
RTVSPost2010PropOp37
 70
     1
102
RTVSPost2010Prop38
140
0.0
102
RTVSPost2010PropOp38
 70
     1
102
RTVSPost2010Prop39
140
1.0
102
RTVSPost2010PropOp39
 70
     1
102
RTVSPost2010Prop40
 90
        0
102
RTVSPost2010PropOp40
 70
     1
102
RTVSPost2010Prop41ColorIndex
 90
       18
102
RTVSPost2010Prop41ColorRGB
 90
        0
102
RTVSPost2010PropOp41
 70
     1
102
RTVSPost2010Prop42
 90
       50
102
RTVSPost2010PropOp42
 70
     1
102
RTVSPost2010Prop43
 90
        3
102
RTVSPost2010PropOp43
 70
     1
102
RTVSPost2010Prop44ColorIndex
 90
        5
102
RTVSPost2010Prop44ColorRGB
 90
      255
102
RTVSPost2010PropOp44
 70
     1
102
RTVSPost2010Prop45
280
     0
102
RTVSPost2010PropOp45
 70
     1
102
RTVSPost2010Prop46
 90
       50
102
RTVSPost2010PropOp46
 70
     1
102
RTVSPost2010Prop47
 90
       50
102
RTVSPost2010PropOp47
 70
     1
102
RTVSPost2010Prop48
 90
       50
102
RTVSPost2010PropOp48
 70
     1
102
RTVSPost2010Prop49
280
     0
102
RTVSPost2010PropOp49
 70
     1
102
RTVSPost2010Prop50
 90
       50
102
RTVSPost2010PropOp50
 70
     1
102
RTVSPost2010Prop51ColorIndex
 90
      256
102
RTVSPost2010Prop51ColorRGB
 90
-16777216
102
RTVSPost2010PropOp51
 70
     0
102
RTVSPost2010Prop52
140
1.0
102
RTVSPost2010PropOp52
 70
     0
102
RTVSPost2010Prop53
 90
        2
102
RTVSPost2010PropOp53
 70
     1
102
RTVSPost2010Prop54
  1
strokes_ogs.tif
102
RTVSPost2010PropOp54
 70
     1
102
RTVSPost2010Prop55
280
     0
102
RTVSPost2010PropOp55
 70
     1
102
RTVSPost2010Prop56
140
1.0
102
RTVSPost2010PropOp56
 70
     1
102
RTVSPost2010Prop57
140
1.0
102
RTVSPost2010PropOp57
 70
     1
  0
XRECORD
  5
E8
102
{ACAD_REACTORS
330
E7
102
}
330
E7
100
AcDbXrecord
280
     1
102
RTVSPost2010Prop28
280
     0
102
RTVSPost2010PropOp28
 70
     1
102
RTVSPost2010Prop29
280
     1
102
RTVSPost2010PropOp29
 70
     1
102
RTVSPost2010Prop30
280
     1
102
RTVSPost2010PropOp30
 70
     1
102
RTVSPost2010Prop31
280
     0
102
RTVSPost2010PropOp31
 70
     1
102
RTVSPost2010Prop32
280
     0
102
RTVSPost2010PropOp32
 70
     1
102
RTVSPost2010Prop33
280
     0
102
RTVSPost2010PropOp33
 70
     1
102
RTVSPost2010Prop34
280
     0
102
RTVSPost2010PropOp34
 70
     1
102
RTVSPost2010Prop35
280
     0
102
RTVSPost2010PropOp35
 70
     1
102
RTVSPost2010Prop36
280
     0
102
RTVSPost2010PropOp36
 70
     1
102
RTVSPost2010Prop37
 90
       50
102
RTVSPost2010PropOp37
 70
     1
102
RTVSPost2010Prop38
140
0.0
102
RTVSPost2010PropOp38
 70
     1
102
RTVSPost2010Prop39
140
1.0
102
RTVSPost2010PropOp39
 70
     1
102
RTVSPost2010Prop40
 90
        0
102
RTVSPost2010PropOp40
 70
     1
102
RTVSPost2010Prop41ColorIndex
 90
       18
102
RTVSPost2010Prop41ColorRGB
 90
        0
102
RTVSPost2010PropOp41
 70
     1
102
RTVSPost2010Prop42
 90
       50
102
RTVSPost2010PropOp42
 70
     1
102
RTVSPost2010Prop43
 90
        3
102
RTVSPost2010PropOp43
 70
     1
102
RTVSPost2010Prop44ColorIndex
 90
        5
102
RTVSPost2010Prop44ColorRGB
 90
      255
102
RTVSPost2010PropOp44
 70
     1
102
RTVSPost2010Prop45
280
     0
102
RTVSPost2010PropOp45
 70
     1
102
RTVSPost2010Prop46
 90
       50
102
RTVSPost2010PropOp46
 70
     1
102
RTVSPost2010Prop47
 90
       50
102
RTVSPost2010PropOp47
 70
     1
102
RTVSPost2010Prop48
 90
       50
102
RTVSPost2010PropOp48
 70
     1
102
RTVSPost2010Prop49
280
     0
102
RTVSPost2010PropOp49
 70
     1
102
RTVSPost2010Prop50
 90
       50
102
RTVSPost2010PropOp50
 70
     1
102
RTVSPost2010Prop51ColorIndex
 90
      256
102
RTVSPost2010Prop51ColorRGB
 90
-16777216
102
RTVSPost2010PropOp51
 70
     0
102
RTVSPost2010Prop52
140
1.0
102
RTVSPost2010PropOp52
 70
     0
102
RTVSPost2010Prop53
 90
        2
102
RTVSPost2010PropOp53
 70
     1
102
RTVSPost2010Prop54
  1
strokes_ogs.tif
102
RTVSPost2010PropOp54
 70
     1
102
RTVSPost2010Prop55
280
     0
102
RTVSPost2010PropOp55
 70
     1
102
RTVSPost2010Prop56
140
1.0
102
RTVSPost2010PropOp56
 70
     1
102
RTVSPost2010Prop57
140
1.0
102
RTVSPost2010PropOp57
 70
     1
  0
XRECORD
  5
E6
102
{ACAD_REACTORS
330
E5
102
}
330
E5
100
AcDbXrecord
280
     1
102
RTVSPost2010Prop28
280
     0
102
RTVSPost2010PropOp28
 70
     1
102
RTVSPost2010Prop29
280
     1
102
RTVSPost2010PropOp29
 70
     1
102
RTVSPost2010Prop30
280
     1
102
RTVSPost2010PropOp30
 70
     1
102
RTVSPost2010Prop31
280
     0
102
RTVSPost2010PropOp31
 70
     1
102
RTVSPost2010Prop32
280
     0
102
RTVSPost2010PropOp32
 70
     1
102
RTVSPost2010Prop33
280
     0
102
RTVSPost2010PropOp33
 70
     1
102
RTVSPost2010Prop34
280
     0
102
RTVSPost2010PropOp34
 70
     1
102
RTVSPost2010Prop35
280
     0
102
RTVSPost2010PropOp35
 70
     1
102
RTVSPost2010Prop36
280
     0
102
RTVSPost2010PropOp36
 70
     1
102
RTVSPost2010Prop37
 90
       50
102
RTVSPost2010PropOp37
 70
     1
102
RTVSPost2010Prop38
140
0.0
102
RTVSPost2010PropOp38
 70
     1
102
RTVSPost2010Prop39
140
1.0
102
RTVSPost2010PropOp39
 70
     1
102
RTVSPost2010Prop40
 90
        0
102
RTVSPost2010PropOp40
 70
     1
102
RTVSPost2010Prop41ColorIndex
 90
       18
102
RTVSPost2010Prop41ColorRGB
 90
        0
102
RTVSPost2010PropOp41
 70
     1
102
RTVSPost2010Prop42
 90
       50
102
RTVSPost2010PropOp42
 70
     1
102
RTVSPost2010Prop43
 90
        3
102
RTVSPost2010PropOp43
 70
     1
102
RTVSPost2010Prop44ColorIndex
 90
        5
102
RTVSPost2010Prop44ColorRGB
 90
      255
102
RTVSPost2010PropOp44
 70
     1
102
RTVSPost2010Prop45
280
     0
102
RTVSPost2010PropOp45
 70
     1
102
RTVSPost2010Prop46
 90
       50
102
RTVSPost2010PropOp46
 70
     1
102
RTVSPost2010Prop47
 90
       50
102
RTVSPost2010PropOp47
 70
     1
102
RTVSPost2010Prop48
 90
       50
102
RTVSPost2010PropOp48
 70
     1
102
RTVSPost2010Prop49
280
     0
102
RTVSPost2010PropOp49
 70
     1
102
RTVSPost2010Prop50
 90
       50
102
RTVSPost2010PropOp50
 70
     1
102
RTVSPost2010Prop51ColorIndex
 90
      256
102
RTVSPost2010Prop51ColorRGB
 90
-16777216
102
RTVSPost2010PropOp51
 70
     0
102
RTVSPost2010Prop52
140
1.0
102
RTVSPost2010PropOp52
 70
     0
102
RTVSPost2010Prop53
 90
        2
102
RTVSPost2010PropOp53
 70
     1
102
RTVSPost2010Prop54
  1
strokes_ogs.tif
102
RTVSPost2010PropOp54
 70
     1
102
RTVSPost2010Prop55
280
     0
102
RTVSPost2010PropOp55
 70
     1
102
RTVSPost2010Prop56
140
1.0
102
RTVSPost2010PropOp56
 70
     1
102
RTVSPost2010Prop57
140
1.0
102
RTVSPost2010PropOp57
 70
     1
  0
XRECORD
  5
E0
102
{ACAD_REACTORS
330
DF
102
}
330
DF
100
AcDbXrecord
280
     1
102
RTVSPost2010Prop28
280
     0
102
RTVSPost2010PropOp28
 70
     1
102
RTVSPost2010Prop29
280
     1
102
RTVSPost2010PropOp29
 70
     1
102
RTVSPost2010Prop30
280
     1
102
RTVSPost2010PropOp30
 70
     1
102
RTVSPost2010Prop31
280
     0
102
RTVSPost2010PropOp31
 70
     1
102
RTVSPost2010Prop32
280
     0
102
RTVSPost2010PropOp32
 70
     1
102
RTVSPost2010Prop33
280
     0
102
RTVSPost2010PropOp33
 70
     1
102
RTVSPost2010Prop34
280
     0
102
RTVSPost2010PropOp34
 70
     1
102
RTVSPost2010Prop35
280
     0
102
RTVSPost2010PropOp35
 70
     1
102
RTVSPost2010Prop36
280
     0
102
RTVSPost2010PropOp36
 70
     1
102
RTVSPost2010Prop37
 90
       50
102
RTVSPost2010PropOp37
 70
     1
102
RTVSPost2010Prop38
140
0.0
102
RTVSPost2010PropOp38
 70
     1
102
RTVSPost2010Prop39
140
1.0
102
RTVSPost2010PropOp39
 70
     1
102
RTVSPost2010Prop40
 90
        0
102
RTVSPost2010PropOp40
 70
     1
102
RTVSPost2010Prop41ColorIndex
 90
       18
102
RTVSPost2010Prop41ColorRGB
 90
        0
102
RTVSPost2010PropOp41
 70
     1
102
RTVSPost2010Prop42
 90
       50
102
RTVSPost2010PropOp42
 70
     1
102
RTVSPost2010Prop43
 90
        3
102
RTVSPost2010PropOp43
 70
     1
102
RTVSPost2010Prop44ColorIndex
 90
        5
102
RTVSPost2010Prop44ColorRGB
 90
      255
102
RTVSPost2010PropOp44
 70
     1
102
RTVSPost2010Prop45
280
     0
102
RTVSPost2010PropOp45
 70
     1
102
RTVSPost2010Prop46
 90
       50
102
RTVSPost2010PropOp46
 70
     1
102
RTVSPost2010Prop47
 90
       50
102
RTVSPost2010PropOp47
 70
     1
102
RTVSPost2010Prop48
 90
       50
102
RTVSPost2010PropOp48
 70
     1
102
RTVSPost2010Prop49
280
     0
102
RTVSPost2010PropOp49
 70
     1
102
RTVSPost2010Prop50
 90
       50
102
RTVSPost2010PropOp50
 70
     1
102
RTVSPost2010Prop51ColorIndex
 90
      256
102
RTVSPost2010Prop51ColorRGB
 90
-16777216
102
RTVSPost2010PropOp51
 70
     0
102
RTVSPost2010Prop52
140
1.0
102
RTVSPost2010PropOp52
 70
     0
102
RTVSPost2010Prop53
 90
        2
102
RTVSPost2010PropOp53
 70
     1
102
RTVSPost2010Prop54
  1
strokes_ogs.tif
102
RTVSPost2010PropOp54
 70
     1
102
RTVSPost2010Prop55
280
     0
102
RTVSPost2010PropOp55
 70
     1
102
RTVSPost2010Prop56
140
1.0
102
RTVSPost2010PropOp56
 70
     1
102
RTVSPost2010Prop57
140
1.0
102
RTVSPost2010PropOp57
 70
     1
  0
XRECORD
  5
E2
102
{ACAD_REACTORS
330
E1
102
}
330
E1
100
AcDbXrecord
280
     1
102
RTVSPost2010Prop28
280
     0
102
RTVSPost2010PropOp28
 70
     1
102
RTVSPost2010Prop29
280
     1
102
RTVSPost2010PropOp29
 70
     1
102
RTVSPost2010Prop30
280
     1
102
RTVSPost2010PropOp30
 70
     1
102
RTVSPost2010Prop31
280
     0
102
RTVSPost2010PropOp31
 70
     1
102
RTVSPost2010Prop32
280
     0
102
RTVSPost2010PropOp32
 70
     1
102
RTVSPost2010Prop33
280
     0
102
RTVSPost2010PropOp33
 70
     1
102
RTVSPost2010Prop34
280
     0
102
RTVSPost2010PropOp34
 70
     1
102
RTVSPost2010Prop35
280
     0
102
RTVSPost2010PropOp35
 70
     1
102
RTVSPost2010Prop36
280
     0
102
RTVSPost2010PropOp36
 70
     1
102
RTVSPost2010Prop37
 90
       50
102
RTVSPost2010PropOp37
 70
     1
102
RTVSPost2010Prop38
140
0.0
102
RTVSPost2010PropOp38
 70
     1
102
RTVSPost2010Prop39
140
1.0
102
RTVSPost2010PropOp39
 70
     1
102
RTVSPost2010Prop40
 90
        0
102
RTVSPost2010PropOp40
 70
     1
102
RTVSPost2010Prop41ColorIndex
 90
       18
102
RTVSPost2010Prop41ColorRGB
 90
        0
102
RTVSPost2010PropOp41
 70
     1
102
RTVSPost2010Prop42
 90
       50
102
RTVSPost2010PropOp42
 70
     1
102
RTVSPost2010Prop43
 90
        3
102
RTVSPost2010PropOp43
 70
     1
102
RTVSPost2010Prop44ColorIndex
 90
        5
102
RTVSPost2010Prop44ColorRGB
 90
      255
102
RTVSPost2010PropOp44
 70
     1
102
RTVSPost2010Prop45
280
     0
102
RTVSPost2010PropOp45
 70
     1
102
RTVSPost2010Prop46
 90
       50
102
RTVSPost2010PropOp46
 70
     1
102
RTVSPost2010Prop47
 90
       50
102
RTVSPost2010PropOp47
 70
     1
102
RTVSPost2010Prop48
 90
       50
102
RTVSPost2010PropOp48
 70
     1
102
RTVSPost2010Prop49
280
     0
102
RTVSPost2010PropOp49
 70
     1
102
RTVSPost2010Prop50
 90
       50
102
RTVSPost2010PropOp50
 70
     1
102
RTVSPost2010Prop51ColorIndex
 90
      256
102
RTVSPost2010Prop51ColorRGB
 90
-16777216
102
RTVSPost2010PropOp51
 70
     0
102
RTVSPost2010Prop52
140
1.0
102
RTVSPost2010PropOp52
 70
     0
102
RTVSPost2010Prop53
 90
        2
102
RTVSPost2010PropOp53
 70
     1
102
RTVSPost2010Prop54
  1
strokes_ogs.tif
102
RTVSPost2010PropOp54
 70
     1
102
RTVSPost2010Prop55
280
     0
102
RTVSPost2010PropOp55
 70
     1
102
RTVSPost2010Prop56
140
1.0
102
RTVSPost2010PropOp56
 70
     1
102
RTVSPost2010Prop57
140
1.0
102
RTVSPost2010PropOp57
 70
     1
  0
XRECORD
  5
D2
102
{ACAD_REACTORS
330
D1
102
}
330
D1
100
AcDbXrecord
280
     1
102
RTVSPost2010Prop28
280
     0
102
RTVSPost2010PropOp28
 70
     1
102
RTVSPost2010Prop29
280
     1
102
RTVSPost2010PropOp29
 70
     1
102
RTVSPost2010Prop30
280
     1
102
RTVSPost2010PropOp30
 70
     1
102
RTVSPost2010Prop31
280
     0
102
RTVSPost2010PropOp31
 70
     1
102
RTVSPost2010Prop32
280
     0
102
RTVSPost2010PropOp32
 70
     1
102
RTVSPost2010Prop33
280
     0
102
RTVSPost2010PropOp33
 70
     1
102
RTVSPost2010Prop34
280
     0
102
RTVSPost2010PropOp34
 70
     1
102
RTVSPost2010Prop35
280
     0
102
RTVSPost2010PropOp35
 70
     1
102
RTVSPost2010Prop36
280
     0
102
RTVSPost2010PropOp36
 70
     1
102
RTVSPost2010Prop37
 90
       50
102
RTVSPost2010PropOp37
 70
     1
102
RTVSPost2010Prop38
140
0.0
102
RTVSPost2010PropOp38
 70
     1
102
RTVSPost2010Prop39
140
1.0
102
RTVSPost2010PropOp39
 70
     1
102
RTVSPost2010Prop40
 90
        0
102
RTVSPost2010PropOp40
 70
     1
102
RTVSPost2010Prop41ColorIndex
 90
       18
102
RTVSPost2010Prop41ColorRGB
 90
        0
102
RTVSPost2010PropOp41
 70
     1
102
RTVSPost2010Prop42
 90
       50
102
RTVSPost2010PropOp42
 70
     1
102
RTVSPost2010Prop43
 90
        3
102
RTVSPost2010PropOp43
 70
     1
102
RTVSPost2010Prop44ColorIndex
 90
        5
102
RTVSPost2010Prop44ColorRGB
 90
      255
102
RTVSPost2010PropOp44
 70
     1
102
RTVSPost2010Prop45
280
     0
102
RTVSPost2010PropOp45
 70
     1
102
RTVSPost2010Prop46
 90
       50
102
RTVSPost2010PropOp46
 70
     1
102
RTVSPost2010Prop47
 90
       50
102
RTVSPost2010PropOp47
 70
     1
102
RTVSPost2010Prop48
 90
       50
102
RTVSPost2010PropOp48
 70
     1
102
RTVSPost2010Prop49
280
     0
102
RTVSPost2010PropOp49
 70
     1
102
RTVSPost2010Prop50
 90
       50
102
RTVSPost2010PropOp50
 70
     1
102
RTVSPost2010Prop51ColorIndex
 90
      256
102
RTVSPost2010Prop51ColorRGB
 90
-16777216
102
RTVSPost2010PropOp51
 70
     0
102
RTVSPost2010Prop52
140
1.0
102
RTVSPost2010PropOp52
 70
     0
102
RTVSPost2010Prop53
 90
        2
102
RTVSPost2010PropOp53
 70
     1
102
RTVSPost2010Prop54
  1
strokes_ogs.tif
102
RTVSPost2010PropOp54
 70
     1
102
RTVSPost2010Prop55
280
     0
102
RTVSPost2010PropOp55
 70
     1
102
RTVSPost2010Prop56
140
1.0
102
RTVSPost2010PropOp56
 70
     1
102
RTVSPost2010Prop57
140
1.0
102
RTVSPost2010PropOp57
 70
     1
  0
XRECORD
  5
C4
102
{ACAD_REACTORS
330
C3
102
}
330
C3
100
AcDbXrecord
280
     1
102
RTVSPost2010Prop28
280
     0
102
RTVSPost2010PropOp28
 70
     1
102
RTVSPost2010Prop29
280
     1
102
RTVSPost2010PropOp29
 70
     1
102
RTVSPost2010Prop30
280
     1
102
RTVSPost2010PropOp30
 70
     1
102
RTVSPost2010Prop31
280
     0
102
RTVSPost2010PropOp31
 70
     1
102
RTVSPost2010Prop32
280
     0
102
RTVSPost2010PropOp32
 70
     1
102
RTVSPost2010Prop33
280
     0
102
RTVSPost2010PropOp33
 70
     1
102
RTVSPost2010Prop34
280
     0
102
RTVSPost2010PropOp34
 70
     1
102
RTVSPost2010Prop35
280
     0
102
RTVSPost2010PropOp35
 70
     1
102
RTVSPost2010Prop36
280
     0
102
RTVSPost2010PropOp36
 70
     1
102
RTVSPost2010Prop37
 90
       50
102
RTVSPost2010PropOp37
 70
     1
102
RTVSPost2010Prop38
140
0.0
102
RTVSPost2010PropOp38
 70
     1
102
RTVSPost2010Prop39
140
1.0
102
RTVSPost2010PropOp39
 70
     1
102
RTVSPost2010Prop40
 90
        0
102
RTVSPost2010PropOp40
 70
     1
102
RTVSPost2010Prop41ColorIndex
 90
       18
102
RTVSPost2010Prop41ColorRGB
 90
        0
102
RTVSPost2010PropOp41
 70
     1
102
RTVSPost2010Prop42
 90
       50
102
RTVSPost2010PropOp42
 70
     1
102
RTVSPost2010Prop43
 90
        3
102
RTVSPost2010PropOp43
 70
     1
102
RTVSPost2010Prop44ColorIndex
 90
        5
102
RTVSPost2010Prop44ColorRGB
 90
      255
102
RTVSPost2010PropOp44
 70
     1
102
RTVSPost2010Prop45
280
     0
102
RTVSPost2010PropOp45
 70
     1
102
RTVSPost2010Prop46
 90
       50
102
RTVSPost2010PropOp46
 70
     1
102
RTVSPost2010Prop47
 90
       50
102
RTVSPost2010PropOp47
 70
     1
102
RTVSPost2010Prop48
 90
       50
102
RTVSPost2010PropOp48
 70
     1
102
RTVSPost2010Prop49
280
     0
102
RTVSPost2010PropOp49
 70
     1
102
RTVSPost2010Prop50
 90
       50
102
RTVSPost2010PropOp50
 70
     1
102
RTVSPost2010Prop51ColorIndex
 90
      256
102
RTVSPost2010Prop51ColorRGB
 90
-16777216
102
RTVSPost2010PropOp51
 70
     0
102
RTVSPost2010Prop52
140
1.0
102
RTVSPost2010PropOp52
 70
     0
102
RTVSPost2010Prop53
 90
        2
102
RTVSPost2010PropOp53
 70
     1
102
RTVSPost2010Prop54
  1
strokes_ogs.tif
102
RTVSPost2010PropOp54
 70
     1
102
RTVSPost2010Prop55
280
     0
102
RTVSPost2010PropOp55
 70
     1
102
RTVSPost2010Prop56
140
1.0
102
RTVSPost2010PropOp56
 70
     1
102
RTVSPost2010Prop57
140
1.0
102
RTVSPost2010PropOp57
 70
     1
  0
XRECORD
  5
E4
102
{ACAD_REACTORS
330
E3
102
}
330
E3
100
AcDbXrecord
280
     1
102
RTVSPost2010Prop28
280
     0
102
RTVSPost2010PropOp28
 70
     1
102
RTVSPost2010Prop29
280
     1
102
RTVSPost2010PropOp29
 70
     1
102
RTVSPost2010Prop30
280
     1
102
RTVSPost2010PropOp30
 70
     1
102
RTVSPost2010Prop31
280
     0
102
RTVSPost2010PropOp31
 70
     1
102
RTVSPost2010Prop32
280
     0
102
RTVSPost2010PropOp32
 70
     1
102
RTVSPost2010Prop33
280
     0
102
RTVSPost2010PropOp33
 70
     1
102
RTVSPost2010Prop34
280
     0
102
RTVSPost2010PropOp34
 70
     1
102
RTVSPost2010Prop35
280
     0
102
RTVSPost2010PropOp35
 70
     1
102
RTVSPost2010Prop36
280
     0
102
RTVSPost2010PropOp36
 70
     1
102
RTVSPost2010Prop37
 90
       50
102
RTVSPost2010PropOp37
 70
     1
102
RTVSPost2010Prop38
140
0.0
102
RTVSPost2010PropOp38
 70
     1
102
RTVSPost2010Prop39
140
1.0
102
RTVSPost2010PropOp39
 70
     1
102
RTVSPost2010Prop40
 90
        0
102
RTVSPost2010PropOp40
 70
     1
102
RTVSPost2010Prop41ColorIndex
 90
       18
102
RTVSPost2010Prop41ColorRGB
 90
        0
102
RTVSPost2010PropOp41
 70
     1
102
RTVSPost2010Prop42
 90
       50
102
RTVSPost2010PropOp42
 70
     1
102
RTVSPost2010Prop43
 90
        3
102
RTVSPost2010PropOp43
 70
     1
102
RTVSPost2010Prop44ColorIndex
 90
        5
102
RTVSPost2010Prop44ColorRGB
 90
      255
102
RTVSPost2010PropOp44
 70
     1
102
RTVSPost2010Prop45
280
     0
102
RTVSPost2010PropOp45
 70
     1
102
RTVSPost2010Prop46
 90
       50
102
RTVSPost2010PropOp46
 70
     1
102
RTVSPost2010Prop47
 90
       50
102
RTVSPost2010PropOp47
 70
     1
102
RTVSPost2010Prop48
 90
       50
102
RTVSPost2010PropOp48
 70
     1
102
RTVSPost2010Prop49
280
     0
102
RTVSPost2010PropOp49
 70
     1
102
RTVSPost2010Prop50
 90
       50
102
RTVSPost2010PropOp50
 70
     1
102
RTVSPost2010Prop51ColorIndex
 90
      256
102
RTVSPost2010Prop51ColorRGB
 90
-16777216
102
RTVSPost2010PropOp51
 70
     0
102
RTVSPost2010Prop52
140
1.0
102
RTVSPost2010PropOp52
 70
     0
102
RTVSPost2010Prop53
 90
        2
102
RTVSPost2010PropOp53
 70
     1
102
RTVSPost2010Prop54
  1
strokes_ogs.tif
102
RTVSPost2010PropOp54
 70
     1
102
RTVSPost2010Prop55
280
     0
102
RTVSPost2010PropOp55
 70
     1
102
RTVSPost2010Prop56
140
1.0
102
RTVSPost2010PropOp56
 70
     1
102
RTVSPost2010Prop57
140
1.0
102
RTVSPost2010PropOp57
 70
     1
  0
ENDSEC
  0
EOF
