  0
SECTION
  2
HEADER
  9
$ACADVER
  1
AC1024
  9
$ACADMAINTVER
 70
     6
  9
$DWGCODEPAGE
  3
ANSI_1252
  9
$LASTSAVEDBY
  1
BirnerR
  9
$INSBASE
 10
0.0
 20
0.0
 30
0.0
  9
$EXTMIN
 10
2.574006
 20
0.718091
 30
2.574006
  9
$EXTMAX
 10
3.624016
 20
2.203076
 30
3.624016
  9
$LIMMIN
 10
2.574006
 20
0.718091
  9
$LIMMAX
 10
3.624016
 20
2.203076
  9
$ORTHOMODE
 70
     0
  9
$REGENMODE
 70
     1
  9
$FILLMODE
 70
     1
  9
$QTEXTMODE
 70
     0
  9
$MIRRTEXT
 70
     1
  9
$LTSCALE
 40
1.0
  9
$ATTMODE
 70
     1
  9
$TEXTSIZE
 40
0.2
  9
$TRACEWID
 40
0.05
  9
$TEXTSTYLE
  7
Standard
  9
$CLAYER
  8
0
  9
$CELTYPE
  6
ByLayer
  9
$CECOLOR
 62
   256
  9
$CELTSCALE
 40
1.0
  9
$DISPSILH
 70
     0
  9
$DIMSCALE
 40
1.0
  9
$DIMASZ
 40
0.18
  9
$DIMEXO
 40
0.0625
  9
$DIMDLI
 40
0.38
  9
$DIMRND
 40
0.0
  9
$DIMDLE
 40
0.0
  9
$DIMEXE
 40
0.18
  9
$DIMTP
 40
0.0
  9
$DIMTM
 40
0.0
  9
$DIMTXT
 40
0.18
  9
$DIMCEN
 40
0.09
  9
$DIMTSZ
 40
0.0
  9
$DIMTOL
 70
     0
  9
$DIMLIM
 70
     0
  9
$DIMTIH
 70
     1
  9
$DIMTOH
 70
     1
  9
$DIMSE1
 70
     0
  9
$DIMSE2
 70
     0
  9
$DIMTAD
 70
     0
  9
$DIMZIN
 70
     0
  9
$DIMBLK
  1

  9
$DIMASO
 70
     1
  9
$DIMSHO
 70
     1
  9
$DIMPOST
  1

  9
$DIMAPOST
  1

  9
$DIMALT
 70
     0
  9
$DIMALTD
 70
     2
  9
$DIMALTF
 40
25.4
  9
$DIMLFAC
 40
1.0
  9
$DIMTOFL
 70
     0
  9
$DIMTVP
 40
0.0
  9
$DIMTIX
 70
     0
  9
$DIMSOXD
 70
     0
  9
$DIMSAH
 70
     0
  9
$DIMBLK1
  1

  9
$DIMBLK2
  1

  9
$DIMSTYLE
  2
Standard
  9
$DIMCLRD
 70
     0
  9
$DIMCLRE
 70
     0
  9
$DIMCLRT
 70
     0
  9
$DIMTFAC
 40
1.0
  9
$DIMGAP
 40
0.09
  9
$DIMJUST
 70
     0
  9
$DIMSD1
 70
     0
  9
$DIMSD2
 70
     0
  9
$DIMTOLJ
 70
     1
  9
$DIMTZIN
 70
     0
  9
$DIMALTZ
 70
     0
  9
$DIMALTTZ
 70
     0
  9
$DIMUPT
 70
     0
  9
$DIMDEC
 70
     4
  9
$DIMTDEC
 70
     4
  9
$DIMALTU
 70
     2
  9
$DIMALTTD
 70
     2
  9
$DIMTXSTY
  7
Standard
  9
$DIMAUNIT
 70
     0
  9
$DIMADEC
 70
     0
  9
$DIMALTRND
 40
0.0
  9
$DIMAZIN
 70
     0
  9
$DIMDSEP
 70
    46
  9
$DIMATFIT
 70
     3
  9
$DIMFRAC
 70
     0
  9
$DIMLDRBLK
  1

  9
$DIMLUNIT
 70
     2
  9
$DIMLWD
 70
    -2
  9
$DIMLWE
 70
    -2
  9
$DIMTMOVE
 70
     0
  9
$DIMFXL
 40
1.0
  9
$DIMFXLON
 70
     0
  9
$DIMJOGANG
 40
0.785398
  9
$DIMTFILL
 70
     0
  9
$DIMTFILLCLR
 70
     0
  9
$DIMARCSYM
 70
     0
  9
$DIMLTYPE
  6

  9
$DIMLTEX1
  6

  9
$DIMLTEX2
  6

  9
$DIMTXTDIRECTION
 70
     0
  9
$LUNITS
 70
     2
  9
$LUPREC
 70
     4
  9
$SKETCHINC
 40
0.1
  9
$FILLETRAD
 40
0.5
  9
$AUNITS
 70
     0
  9
$AUPREC
 70
     0
  9
$MENU
  1
.
  9
$ELEVATION
 40
0.0
  9
$PELEVATION
 40
0.0
  9
$THICKNESS
 40
0.0
  9
$LIMCHECK
 70
     0
  9
$CHAMFERA
 40
0.0
  9
$CHAMFERB
 40
0.0
  9
$CHAMFERC
 40
0.0
  9
$CHAMFERD
 40
0.0
  9
$SKPOLY
 70
     0
  9
$TDCREATE
 40
2459144.551608067
  9
$TDUCREATE
 40
2459144.468274734
  9
$TDUPDATE
 40
2459144.551619282
  9
$TDUUPDATE
 40
2459144.468285949
  9
$TDINDWG
 40
0.0000000116
  9
$TDUSRTIMER
 40
0.0000000116
  9
$USRTIMER
 70
     1
  9
$ANGBASE
 50
0.0
  9
$ANGDIR
 70
     0
  9
$PDMODE
 70
    65
  9
$PDSIZE
 40
0.0
  9
$PLINEWID
 40
0.0
  9
$SPLFRAME
 70
     0
  9
$SPLINETYPE
 70
     6
  9
$SPLINESEGS
 70
     8
  9
$HANDSEED
  5
190
  9
$SURFTAB1
 70
     6
  9
$SURFTAB2
 70
     6
  9
$SURFTYPE
 70
     6
  9
$SURFU
 70
     6
  9
$SURFV
 70
     6
  9
$UCSBASE
  2

  9
$UCSNAME
  2

  9
$UCSORG
 10
0.0
 20
0.0
 30
0.0
  9
$UCSXDIR
 10
1.0
 20
0.0
 30
0.0
  9
$UCSYDIR
 10
0.0
 20
1.0
 30
0.0
  9
$UCSORTHOREF
  2

  9
$UCSORTHOVIEW
 70
     0
  9
$UCSORGTOP
 10
0.0
 20
0.0
 30
0.0
  9
$UCSORGBOTTOM
 10
0.0
 20
0.0
 30
0.0
  9
$UCSORGLEFT
 10
0.0
 20
0.0
 30
0.0
  9
$UCSORGRIGHT
 10
0.0
 20
0.0
 30
0.0
  9
$UCSORGFRONT
 10
0.0
 20
0.0
 30
0.0
  9
$UCSORGBACK
 10
0.0
 20
0.0
 30
0.0
  9
$PUCSBASE
  2

  9
$PUCSNAME
  2

  9
$PUCSORG
 10
0.0
 20
0.0
 30
0.0
  9
$PUCSXDIR
 10
1.0
 20
0.0
 30
0.0
  9
$PUCSYDIR
 10
0.0
 20
1.0
 30
0.0
  9
$PUCSORTHOREF
  2

  9
$PUCSORTHOVIEW
 70
     0
  9
$PUCSORGTOP
 10
0.0
 20
0.0
 30
0.0
  9
$PUCSORGBOTTOM
 10
0.0
 20
0.0
 30
0.0
  9
$PUCSORGLEFT
 10
0.0
 20
0.0
 30
0.0
  9
$PUCSORGRIGHT
 10
0.0
 20
0.0
 30
0.0
  9
$PUCSORGFRONT
 10
0.0
 20
0.0
 30
0.0
  9
$PUCSORGBACK
 10
0.0
 20
0.0
 30
0.0
  9
$USERI1
 70
     0
  9
$USERI2
 70
     0
  9
$USERI3
 70
     0
  9
$USERI4
 70
     0
  9
$USERI5
 70
     0
  9
$USERR1
 40
0.0
  9
$USERR2
 40
0.0
  9
$USERR3
 40
0.0
  9
$USERR4
 40
0.0
  9
$USERR5
 40
0.0
  9
$WORLDVIEW
 70
     1
  9
$SHADEDGE
 70
     3
  9
$SHADEDIF
 70
    70
  9
$TILEMODE
 70
     0
  9
$MAXACTVP
 70
    64
  9
$PINSBASE
 10
0.0
 20
0.0
 30
0.0
  9
$PLIMCHECK
 70
     0
  9
$PEXTMIN
 10
-0.0001
 20
-0.0001
 30
0.0
  9
$PEXTMAX
 10
0.210102
 20
0.297097
 30
0.0
  9
$PLIMMIN
 10
-0.0001
 20
-0.0001
  9
$PLIMMAX
 10
0.210102
 20
0.297097
  9
$UNITMODE
 70
     0
  9
$VISRETAIN
 70
     1
  9
$PLINEGEN
 70
     0
  9
$PSLTSCALE
 70
     0
  9
$TREEDEPTH
 70
  3020
  9
$CMLSTYLE
  2
Standard
  9
$CMLJUST
 70
     0
  9
$CMLSCALE
 40
1.0
  9
$PROXYGRAPHICS
 70
     1
  9
$MEASUREMENT
 70
     1
  9
$CELWEIGHT
370
    -1
  9
$ENDCAPS
280
     0
  9
$JOINSTYLE
280
     0
  9
$LWDISPLAY
290
     0
  9
$INSUNITS
 70
     6
  9
$HYPERLINKBASE
  1

  9
$STYLESHEET
  1

  9
$XEDIT
290
     1
  9
$CEPSNTYPE
380
     0
  9
$PSTYLEMODE
290
     1
  9
$FINGERPRINTGUID
  2
{3849aacd-d5b1-413c-b6db-f73ce91ee24b}
  9
$VERSIONGUID
  2
{FAEB1C32-E019-11D5-929B-00C0DF256EC4}
  9
$EXTNAMES
290
     1
  9
$PSVPSCALE
 40
0.0
  9
$OLESTARTUP
290
     0
  9
$SORTENTS
280
   127
  9
$INDEXCTL
280
     0
  9
$HIDETEXT
280
     1
  9
$XCLIPFRAME
280
     2
  9
$HALOGAP
280
     0
  9
$OBSCOLOR
 70
   257
  9
$OBSLTYPE
280
     0
  9
$INTERSECTIONDISPLAY
280
     0
  9
$INTERSECTIONCOLOR
 70
   257
  9
$DIMASSOC
280
     2
  9
$PROJECTNAME
  1

  9
$CAMERADISPLAY
290
     0
  9
$LENSLENGTH
 40
50.0
  9
$CAMERAHEIGHT
 40
0.0
  9
$STEPSPERSEC
 40
2.0
  9
$STEPSIZE
 40
6.0
  9
$3DDWFPREC
 40
2.0
  9
$PSOLWIDTH
 40
0.25
  9
$PSOLHEIGHT
 40
4.0
  9
$LOFTANG1
 40
1.570796
  9
$LOFTANG2
 40
1.570796
  9
$LOFTMAG1
 40
0.0
  9
$LOFTMAG2
 40
0.0
  9
$LOFTPARAM
 70
     7
  9
$LOFTNORMALS
280
     1
  9
$LATITUDE
 40
37.795
  9
$LONGITUDE
 40
-122.394
  9
$NORTHDIRECTION
 40
0.0
  9
$TIMEZONE
 70
 -8000
  9
$LIGHTGLYPHDISPLAY
280
     1
  9
$TILEMODELIGHTSYNCH
280
     1
  9
$CMATERIAL
347
44
  9
$SOLIDHIST
280
     0
  9
$SHOWHIST
280
     1
  9
$DWFFRAME
280
     2
  9
$DGNFRAME
280
     2
  9
$REALWORLDSCALE
290
     1
  9
$INTERFERECOLOR
 62
   256
  9
$CSHADOW
280
     0
  9
$SHADOWPLANELOCATION
 40
0.0
  0
ENDSEC
  0
SECTION
  2
CLASSES
  0
CLASS
  1
ACDBDICTIONARYWDFLT
  2
AcDbDictionaryWithDefault
  3
ObjectDBX Classes
 90
        0
 91
        3
280
     0
281
     0
  0
CLASS
  1
VISUALSTYLE
  2
AcDbVisualStyle
  3
ObjectDBX Classes
 90
     4095
 91
        3
280
     0
281
     0
  0
CLASS
  1
MATERIAL
  2
AcDbMaterial
  3
ObjectDBX Classes
 90
     1153
 91
        3
280
     0
281
     0
  0
CLASS
  1
SCALE
  2
AcDbScale
  3
ObjectDBX Classes
 90
     1153
 91
        3
280
     0
281
     0
  0
CLASS
  1
TABLESTYLE
  2
AcDbTableStyle
  3
ObjectDBX Classes
 90
     4095
 91
        3
280
     0
281
     0
  0
CLASS
  1
MLEADERSTYLE
  2
AcDbMLeaderStyle
  3
ACDB_MLEADERSTYLE_CLASS
 90
     4095
 91
        3
280
     0
281
     0
  0
CLASS
  1
SUN
  2
AcDbSun
  3
SCENEOE
 90
     1153
 91
        3
280
     0
281
     0
  0
CLASS
  1
SORTENTSTABLE
  2
AcDbSortentsTable
  3
ObjectDBX Classes
 90
        0
 91
        3
280
     0
281
     0
  0
CLASS
  1
DICTIONARYVAR
  2
AcDbDictionaryVar
  3
ObjectDBX Classes
 90
        0
 91
        3
280
     0
281
     0
  0
CLASS
  1
CELLSTYLEMAP
  2
AcDbCellStyleMap
  3
ObjectDBX Classes
 90
     1152
 91
        3
280
     0
281
     0
  0
ENDSEC
  0
SECTION
  2
TABLES
  0
TABLE
  2
VPORT
  5
8
330
0
100
AcDbSymbolTable
 70
     1
  0
VPORT
  5
29
330
8
100
AcDbSymbolTableRecord
100
AcDbViewportTableRecord
  2
*Active
 70
     0
 10
0.0
 20
0.0
 11
1.0
 21
1.0
 12
3.099011
 22
1.460583
 13
0.0
 23
0.0
 14
0.5
 24
0.5
 15
0.5
 25
0.5
 16
0.0
 26
0.0
 36
1.0
 17
0.0
 27
0.0
 37
0.0
 40
1.781982
 41
0.848502
 42
50.0
 43
0.0
 44
0.0
 50
0.0
 51
0.0
 71
     0
 72
   100
 73
     1
 74
     3
 75
     0
 76
     0
 77
     0
 78
     0
281
     0
 65
     1
110
0.0
120
0.0
130
0.0
111
1.0
121
0.0
131
0.0
112
0.0
122
1.0
132
0.0
 79
     0
146
0.0
348
2F
 60
     3
 61
     5
292
     1
282
     1
141
0.0
142
0.0
 63
   250
361
6D
  0
ENDTAB
  0
TABLE
  2
LTYPE
  5
5
330
0
100
AcDbSymbolTable
 70
     4
  0
LTYPE
  5
14
330
5
100
AcDbSymbolTableRecord
100
AcDbLinetypeTableRecord
  2
ByBlock
 70
     0
  3

 72
    65
 73
     0
 40
0.0
  0
LTYPE
  5
15
330
5
100
AcDbSymbolTableRecord
100
AcDbLinetypeTableRecord
  2
ByLayer
 70
     0
  3

 72
    65
 73
     0
 40
0.0
  0
LTYPE
  5
16
330
5
100
AcDbSymbolTableRecord
100
AcDbLinetypeTableRecord
  2
Continuous
 70
     0
  3
Solid line
 72
    65
 73
     0
 40
0.0
  0
LTYPE
  5
74
330
5
100
AcDbSymbolTableRecord
100
AcDbLinetypeTableRecord
  2
AUSGEZOGEN
 70
     0
  3
durchgezogene Linie
 72
    65
 73
     0
 40
0.0
  0
LTYPE
  5
7A
330
5
100
AcDbSymbolTableRecord
100
AcDbLinetypeTableRecord
  2
STRICHPUNKT2_S5
 70
     0
  3
Lang eng gestrichelt bzw. punktiert
 72
    65
 73
     4
 40
0.05
 49
0.035
 74
     0
 49
-0.005
 74
     0
 49
0.005
 74
     0
 49
-0.005
 74
     0
  0
LTYPE
  5
7B
330
5
100
AcDbSymbolTableRecord
100
AcDbLinetypeTableRecord
  2
VERDECKT2_S2
 70
     0
  3
Kurzgestrichelt
 72
    65
 73
     2
 40
0.015
 49
0.01
 74
     0
 49
-0.005
 74
     0
  0
ENDTAB
  0
TABLE
  2
LAYER
  5
2
330
0
100
AcDbSymbolTable
 70
     4
  0
LAYER
  5
10
330
2
100
AcDbSymbolTableRecord
100
AcDbLayerTableRecord
  2
0
 70
     0
 62
     7
  6
Continuous
370
    -3
390
F
347
46
  0
LAYER
  5
76
330
2
100
AcDbSymbolTableRecord
100
AcDbLayerTableRecord
  2
PLAN_1110
 70
     0
 62
     7
  6
AUSGEZOGEN
370
    -3
390
F
347
46
1001
AcCmTransparency
1071
 33554687
1001
AcAecLayerStandard
1000

1000
Dokument-Layer
  0
LAYER
  5
78
330
2
100
AcDbSymbolTableRecord
100
AcDbLayerTableRecord
  2
TB_1110
 70
     0
 62
     7
  6
AUSGEZOGEN
370
    -3
390
F
347
46
1001
AcCmTransparency
1071
 33554687
1001
AcAecLayerStandard
1000

1000
Dokument-Layer
  0
LAYER
  5
7C
330
2
100
AcDbSymbolTableRecord
100
AcDbLayerTableRecord
  2
XR$1$TB_1110_1
 70
     0
 62
     7
  6
AUSGEZOGEN
370
    -3
390
F
347
46
1001
AcCmTransparency
1071
 33554687
1001
AcAecLayerStandard
1000

1000
Dokument-Layer
  0
ENDTAB
  0
TABLE
  2
STYLE
  5
3
330
0
100
AcDbSymbolTable
 70
     2
  0
STYLE
  5
11
330
3
100
AcDbSymbolTableRecord
100
AcDbTextStyleTableRecord
  2
Standard
 70
     0
 40
0.0
 41
1.0
 50
0.0
 71
     0
 42
0.2
  3
txt
  4

  0
STYLE
  5
79
330
3
100
AcDbSymbolTableRecord
100
AcDbTextStyleTableRecord
  2
ARIAL
 70
     0
 40
0.0
 41
1.0
 50
0.0
 71
     0
 42
0.2
  3
ARIAL.TTF
  4

1001
ACAD
1000
Arial
1071
       34
  0
ENDTAB
  0
TABLE
  2
VIEW
  5
6
330
0
100
AcDbSymbolTable
 70
     0
  0
ENDTAB
  0
TABLE
  2
UCS
  5
7
330
0
100
AcDbSymbolTable
 70
     0
  0
ENDTAB
  0
TABLE
  2
APPID
  5
9
330
0
100
AcDbSymbolTable
 70
     4
  0
APPID
  5
12
330
9
100
AcDbSymbolTableRecord
100
AcDbRegAppTableRecord
  2
ACAD
 70
     0
  0
APPID
  5
75
330
9
100
AcDbSymbolTableRecord
100
AcDbRegAppTableRecord
  2
AcCmTransparency
 70
     0
  0
APPID
  5
77
330
9
100
AcDbSymbolTableRecord
100
AcDbRegAppTableRecord
  2
AcAecLayerStandard
 70
     0
  0
APPID
  5
7D
330
9
100
AcDbSymbolTableRecord
100
AcDbRegAppTableRecord
  2
NEM_ODX
 70
     0
  0
ENDTAB
  0
TABLE
  2
DIMSTYLE
  5
A
330
0
100
AcDbSymbolTable
 70
     1
100
AcDbDimStyleTable
  0
DIMSTYLE
105
27
330
A
100
AcDbSymbolTableRecord
100
AcDbDimStyleTableRecord
  2
Standard
 70
     0
178
     0
340
11
  0
ENDTAB
  0
TABLE
  2
BLOCK_RECORD
  5
1
330
0
100
AcDbSymbolTable
 70
     0
  0
BLOCK_RECORD
  5
1F
102
{ACAD_XDICTIONARY
360
153
102
}
330
1
100
AcDbSymbolTableRecord
100
AcDbBlockTableRecord
  2
*Model_Space
340
22
 70
     0
280
     1
281
     0
  0
BLOCK_RECORD
  5
6E
330
1
100
AcDbSymbolTableRecord
100
AcDbBlockTableRecord
  2
*Paper_Space
340
6F
 70
     0
280
     1
281
     0
  0
ENDTAB
  0
ENDSEC
  0
SECTION
  2
BLOCKS
  0
BLOCK
  5
20
330
1F
100
AcDbEntity
  8
0
100
AcDbBlockBegin
  2
*Model_Space
 70
     0
 10
0.0
 20
0.0
 30
0.0
  3
*Model_Space
  1

  0
ENDBLK
  5
21
330
1F
100
AcDbEntity
  8
0
100
AcDbBlockEnd
  0
BLOCK
  5
70
330
6E
100
AcDbEntity
 67
     1
  8
0
100
AcDbBlockBegin
  2
*Paper_Space
 70
     0
 10
0.0
 20
0.0
 30
0.0
  3
*Paper_Space
  1

  0
ENDBLK
  5
71
330
6E
100
AcDbEntity
 67
     1
  8
0
100
AcDbBlockEnd
  0
ENDSEC
  0
SECTION
  2
ENTITIES
  0
HATCH
  5
7E
330
1F
100
AcDbEntity
  8
XR$1$TB_1110_1
  6
STRICHPUNKT2_S5
 62
     7
440
 33554687
370
    -3
100
AcDbHatch
 10
0.0
 20
0.0
 30
0.0
210
0.0
220
0.0
230
1.0
  2
SCHRAFFUR_35
 70
     0
 71
     0
 91
        1
 92
        0
 93
        4
 72
     1
 10
3.320595461970401
 20
1.034194613094563
 11
3.320595664709715
 21
1.582943495891608
 72
     1
 10
3.320595664709715
 20
1.582943495891609
 11
3.021595562012976
 21
1.582943601939448
 72
     1
 10
3.021595562012976
 20
1.582943601939448
 11
3.021595359273661
 21
1.034194719142403
 72
     1
 10
3.021595359273661
 20
1.034194719142403
 11
3.320595461970401
 21
1.034194613094563
 97
        0
 75
     0
 76
     2
 52
315.0
 41
0.005
 77
     0
 78
     2
 53
44.99999999999999
 43
0.0
 44
0.0
 45
-0.0353553390593274
 46
0.0353553390593274
 79
     0
 53
44.99999999999999
 43
-0.0176776695296637
 44
0.0176776695296637
 45
-0.0353553390593274
 46
0.0353553390593274
 79
     0
 98
        0
1001
ACAD
1010
0.0
1020
0.0
1030
0.0
1001
NEM_ODX
1002
{
1000
BZM_DEPEND
1070
     1
1000
BZM_SCALE
1040
5.0
1000
SCHRAFFUR_35
1002
}
  0
HATCH
  5
7F
330
1F
100
AcDbEntity
  8
XR$1$TB_1110_1
  6
AUSGEZOGEN
 62
     7
440
 33554687
370
    -3
100
AcDbHatch
 10
0.0
 20
0.0
 30
0.0
210
0.0
220
0.0
230
1.0
  2
SCHRAFFUR_28
 70
     0
 71
     0
 91
        1
 92
        0
 93
        4
 72
     1
 10
3.320595569802782
 20
1.59294352553338
 11
3.320595576884994
 21
1.612943466249904
 72
     1
 10
3.320595576884994
 20
1.612943466249904
 11
3.204595567056058
 21
1.612943507326859
 72
     1
 10
3.204595567056058
 20
1.612943507326859
 11
3.204595559973846
 21
1.592943566610335
 72
     1
 10
3.204595559973846
 20
1.592943566610335
 11
3.320595569802782
 21
1.59294352553338
 97
        0
 75
     0
 76
     2
 52
45.0
 41
0.005
 77
     0
 78
     2
 53
135.0
 43
0.0
 44
0.0
 45
-0.0106066017177982
 46
-0.0106066017177982
 79
     0
 53
135.0
 43
-0.0053033008588991
 44
-0.0053033008588991
 45
-0.0106066017177982
 46
-0.0106066017177982
 79
     0
 98
        0
1001
ACAD
1010
0.0
1020
0.0
1030
0.0
1001
NEM_ODX
1002
{
1000
BZM_DEPEND
1070
     1
1000
BZM_SCALE
1040
5.0
1000
SCHRAFFUR_28
1002
}
  0
HATCH
  5
80
330
1F
100
AcDbEntity
  8
XR$1$TB_1110_1
  6
AUSGEZOGEN
 62
    18
420
        0
440
 33554687
370
    35
100
AcDbHatch
 10
0.0
 20
0.0
 30
0.0
210
0.0
220
0.0
230
1.0
  2
SOLID
 70
     1
 71
     0
 91
       18
 92
        3
 72
     0
 73
     1
 93
       27
 10
2.693272097691875
 20
0.8560925111723237
 10
2.697265841152817
 20
0.8560925111723237
 10
2.697842967543369
 20
0.8561199075531358
 10
2.698373952660979
 20
0.8562024571742705
 10
2.698868889909092
 20
0.8563307875896581
 10
2.699317685884256
 20
0.8565139107666774
 10
2.699729713032542
 20
0.8567338027705764
 10
2.700095959386574
 20
0.857008487536098
 10
2.700728239017448
 20
0.8576587911017132
 10
2.700975527402163
 20
0.8580344099018157
 10
2.701195419406049
 20
0.8584464370500983
 10
2.70153426937927
 20
0.8593443894791244
 10
2.701726404523659
 20
0.8603425549853446
 10
2.701790569731351
 20
0.8614142581453152
 10
2.701726404523659
 20
0.8625594989590545
 10
2.70153426937927
 20
0.8635944332921472
 10
2.701378542583072
 20
0.8640616136807521
 10
2.701195419406049
 20
0.864501037209854
 10
2.700975527402163
 20
0.8649044128694595
 10
2.700728239017448
 20
0.8652706592234872
 10
2.700095959386574
 20
0.8658935664082974
 10
2.699729713032542
 20
0.8661408547930051
 10
2.699317685884256
 20
0.8663513743508274
 10
2.698868889909092
 20
0.8665164735931076
 10
2.698373952660979
 20
0.8666354315624294
 10
2.697265841152817
 20
0.8667363655970066
 10
2.693272097691875
 20
0.8667363655970066
 97
        0
 92
        3
 72
     0
 73
     1
 93
       12
 10
2.704978282830467
 20
0.8560925111723237
 10
2.712700096954181
 20
0.8560925111723237
 10
2.712700096954181
 20
0.8574208751630767
 10
2.706581331586738
 20
0.8574208751630767
 10
2.706581331586738
 20
0.8608832730277108
 10
2.711628393794206
 20
0.8608832730277108
 10
2.711628393794206
 20
0.8622112765397678
 10
2.706581331586738
 20
0.8622112765397678
 10
2.706581331586738
 20
0.8654080016062481
 10
2.712434424156029
 20
0.8654080016062481
 10
2.712434424156029
 20
0.8667363655970066
 10
2.704978282830467
 20
0.8667363655970066
 97
        0
 92
        3
 72
     0
 73
     1
 93
       38
 10
2.722271887740193
 20
0.8667363655970066
 10
2.722271887740193
 20
0.8598205818351062
 10
2.722235118913308
 20
0.8591702782694892
 10
2.722125533390062
 20
0.8586205482597443
 10
2.721923665320912
 20
0.8581533678711376
 10
2.721639968588006
 20
0.8577871215171008
 10
2.721273361755284
 20
0.8575124367515792
 10
2.720815553812743
 20
0.8573109291611263
 10
2.720265823803005
 20
0.8571916107131065
 10
2.719615520237385
 20
0.8571552023649247
 10
2.718965216671761
 20
0.8571916107131065
 10
2.718415486662023
 20
0.8573109291611263
 10
2.717957678719478
 20
0.8575124367515792
 10
2.717582059919383
 20
0.8577871215171008
 10
2.717307375153854
 20
0.8581533678711376
 10
2.717105867563401
 20
0.8586205482597443
 10
2.716995921561455
 20
0.8591702782694892
 10
2.7169501407672
 20
0.8598205818351062
 10
2.7169501407672
 20
0.8667363655970066
 10
2.715621776776454
 20
0.8667363655970066
 10
2.715621776776454
 20
0.8595549090369595
 10
2.715695314430221
 20
0.8587030978808807
 10
2.715905833988043
 20
0.8579612327267523
 10
2.716254056407321
 20
0.8573199411285032
 10
2.716721236795929
 20
0.8567885955321953
 10
2.717298002707786
 20
0.8563765683839165
 10
2.717985075100292
 20
0.8560741267588865
 10
2.718754697113935
 20
0.8558910035818672
 10
2.719615520237385
 20
0.8558268383741715
 10
2.720476703839533
 20
0.8558910035818672
 10
2.721245965374466
 20
0.8560741267588865
 10
2.721933037766976
 20
0.8563765683839165
 10
2.722510164157527
 20
0.8567885955321953
 10
2.72297734454614
 20
0.8573199411285032
 10
2.723316194519361
 20
0.8579612327267523
 10
2.723536086523251
 20
0.8587030978808807
 10
2.723609263698316
 20
0.8595549090369595
 10
2.723609263698316
 20
0.8667363655970066
 97
        0
 92
        3
 72
     0
 73
     1
 93
        8
 10
2.726265631201128
 20
0.8667363655970066
 10
2.726265631201128
 20
0.8654080016062481
 10
2.72946235626761
 20
0.8654080016062481
 10
2.72946235626761
 20
0.8560925111723237
 10
2.730790359779665
 20
0.8560925111723237
 10
2.730790359779665
 20
0.8654080016062481
 10
2.733978072878777
 20
0.8654080016062481
 10
2.733978072878777
 20
0.8667363655970066
 97
        0
 92
        3
 72
     0
 73
     1
 93
       96
 10
2.73698266280087
 20
0.863173033697799
 10
2.737193182358693
 20
0.8626510605475606
 10
2.737523020364541
 20
0.8622386729205782
 10
2.737944419958902
 20
0.8618998229473628
 10
2.73844800869569
 20
0.861634150149218
 10
2.739016123118876
 20
0.8614326425587561
 10
2.740234180628988
 20
0.8611121769989777
 10
2.741452598617783
 20
0.860837131754769
 10
2.742020352562271
 20
0.8606817654372507
 10
2.742524301777765
 20
0.8604802578467962
 10
2.742945340893417
 20
0.8602326089833959
 10
2.743275178899264
 20
0.8599121434236177
 10
2.743486058935789
 20
0.8595181402100726
 10
2.743559236110857
 20
0.8590235634406536
 10
2.743504082870528
 20
0.8585563830520486
 10
2.743330332139587
 20
0.8581717522845784
 10
2.743064659341428
 20
0.8578419142787325
 10
2.742725809368221
 20
0.8575856139266517
 10
2.742322794187305
 20
0.8573931183035648
 10
2.741873637733447
 20
0.8572651483668715
 10
2.741397445377464
 20
0.8571825987457405
 10
2.740902868608049
 20
0.8571552023649247
 10
2.740234180628988
 20
0.8571916107131065
 10
2.739648042271056
 20
0.8573109291611263
 10
2.739144093055569
 20
0.8575124367515792
 10
2.738704669526469
 20
0.8577871215171008
 10
2.738347435139811
 20
0.8581533678711376
 10
2.738054005482154
 20
0.8586205482597443
 10
2.737843485924325
 20
0.8591702782694892
 10
2.73770614354156
 20
0.8598205818351062
 10
2.736377779550811
 20
0.8595549090369595
 10
2.736469701618011
 20
0.85862992070581
 10
2.736588659587342
 20
0.858217533078835
 10
2.73674438638354
 20
0.8578512867248
 10
2.736945893973993
 20
0.8575124367515792
 10
2.737174797945259
 20
0.8572009831591777
 10
2.737742912368445
 20
0.8566880219763161
 10
2.738411239868816
 20
0.8563033912088495
 10
2.739180861882454
 20
0.8560377184106974
 10
2.74001428862509
 20
0.855881991614494
 10
2.740902868608049
 20
0.8558268383741715
 10
2.741681502589054
 20
0.855881991614494
 10
2.742423367743191
 20
0.8560283459646298
 10
2.743101067689626
 20
0.8562940187627764
 10
2.743696578493618
 20
0.8566606255955039
 10
2.744191155263034
 20
0.8571368179514839
 10
2.744566774063136
 20
0.8577323287554782
 10
2.744704116445904
 20
0.8580801906960706
 10
2.744805050480467
 20
0.8584464370500983
 10
2.744887239622916
 20
0.8592892362388075
 10
2.744814062447851
 20
0.8600130774581894
 10
2.744603542890022
 20
0.8606082277834912
 10
2.744273704884174
 20
0.861084780618171
 10
2.743852305289812
 20
0.8614600389395719
 10
2.743348356074334
 20
0.8617531081185361
 10
2.742789614097219
 20
0.8619823725684919
 10
2.74156254461973
 20
0.862312210574345
 10
2.740344126630931
 20
0.8625775228937992
 10
2.739785384653824
 20
0.862733249689999
 10
2.739281435438333
 20
0.8629167333457126
 10
2.738851023876607
 20
0.8631546492843564
 10
2.738521185870766
 20
0.8634570909093846
 10
2.73831066631293
 20
0.863850733644228
 10
2.738237489137868
 20
0.8643456708923432
 10
2.73830165434556
 20
0.8647029052790013
 10
2.738466393109127
 20
0.8649959744579655
 10
2.738713681493842
 20
0.8652338903966075
 10
2.739034147053619
 20
0.8654080016062481
 10
2.739409765853721
 20
0.8655269595755753
 10
2.739812781034627
 20
0.8656095091967082
 10
2.740637195809897
 20
0.8656736744044019
 10
2.741205310233079
 20
0.8656462780235897
 10
2.741717910937245
 20
0.8655637284024551
 10
2.74217607935848
 20
0.8654170135736285
 10
2.742560710125941
 20
0.8652064940157916
 10
2.742872163718352
 20
0.8649134248368291
 10
2.743101067689626
 20
0.8645471784827996
 10
2.743247782518447
 20
0.8640890100615644
 10
2.743293563312705
 20
0.8635392800518267
 10
2.744887239622916
 20
0.8635392800518267
 10
2.744639951238201
 20
0.8643820792405322
 10
2.744301101264988
 20
0.8650965480138484
 10
2.743870689703253
 20
0.865692058817841
 10
2.743357728520397
 20
0.8661682511738227
 10
2.742771590162473
 20
0.8665348580065484
 10
2.742121286596848
 20
0.8668001703260024
 10
2.741406817823536
 20
0.8669468851548272
 10
2.740637195809897
 20
0.8670016779164571
 10
2.739941111450026
 20
0.8669558971222078
 10
2.739263411503583
 20
0.8668001703260024
 10
2.738640504318773
 20
0.8665528819412893
 10
2.738072389895591
 20
0.8662050200007024
 10
2.737596197539617
 20
0.8657562240255348
 10
2.737229951185578
 20
0.8652064940157916
 10
2.736991674768247
 20
0.8645561904501656
 10
2.736909125147107
 20
0.8638049528499733
 97
        0
 92
        3
 72
     0
 73
     1
 93
       78
 10
2.749210821089695
 20
0.8622844537148366
 10
2.749393944266707
 20
0.8630904840766589
 10
2.749705397859114
 20
0.8638143252960463
 10
2.750145181866905
 20
0.8644372324808547
 10
2.750703923844023
 20
0.864959205631084
 10
2.751390635757827
 20
0.8653438363985524
 10
2.752206038565724
 20
0.8655821128158959
 10
2.753140399342934
 20
0.8656736744044019
 10
2.753643988079722
 20
0.8656369055775185
 10
2.754156949262589
 20
0.8655179476081967
 10
2.754660898478076
 20
0.8653348244311865
 10
2.755137090834047
 20
0.8650691516330271
 10
2.755558490428408
 20
0.8647393136271867
 10
2.755906712847696
 20
0.8643272864789006
 10
2.75617202516715
 20
0.8638417216768548
 10
2.756327751963356
 20
0.8632739677323634
 10
2.757665127921471
 20
0.8635392800518267
 10
2.757399455123323
 20
0.8643820792405322
 10
2.757033208769291
 20
0.8650965480138484
 10
2.75655701641331
 20
0.865692058817841
 10
2.755998274436195
 20
0.8661682511738227
 10
2.755365994805321
 20
0.8665348580065484
 10
2.754669910445442
 20
0.8668001703260024
 10
2.753919033323939
 20
0.8669468851548272
 10
2.753140399342934
 20
0.8670016779164571
 10
2.752508119712064
 20
0.8669742815356504
 10
2.751912969386762
 20
0.8668920923932083
 10
2.751363239377017
 20
0.8667637619778225
 10
2.75085027819415
 20
0.8665806388008032
 10
2.750374085838183
 20
0.8663513743508274
 10
2.74993430183037
 20
0.8660766895853094
 10
2.749540659095536
 20
0.8657562240255348
 10
2.749183424708884
 20
0.8654080016062481
 10
2.74886259867041
 20
0.8650139983927083
 10
2.748587913904885
 20
0.8645835868309887
 10
2.748359009933614
 20
0.8641257788884441
 10
2.748166514310531
 20
0.863631202119027
 10
2.74790084151239
 20
0.8625685109264205
 10
2.747818652369944
 20
0.8614142581453152
 10
2.74790084151239
 20
0.8602603658429043
 10
2.748166514310531
 20
0.8591976746502961
 10
2.748359009933614
 20
0.8587030978808807
 10
2.748587913904885
 20
0.858244929459649
 10
2.74886259867041
 20
0.8578145178979166
 10
2.749183424708884
 20
0.8574208751630767
 10
2.749540659095536
 20
0.8570726527437974
 10
2.74993430183037
 20
0.8567521871840081
 10
2.750374085838183
 20
0.8564771419397975
 10
2.75085027819415
 20
0.8562482379685252
 10
2.751363239377017
 20
0.8560651147915096
 10
2.751912969386762
 20
0.8559367843761239
 10
2.752508119712064
 20
0.8558542347549873
 10
2.753140399342934
 20
0.8558268383741715
 10
2.753937057258685
 20
0.8559003760279311
 10
2.754706679272327
 20
0.8561199075531358
 10
2.755448544426458
 20
0.8564681299724188
 10
2.756135616818956
 20
0.8569536947744628
 10
2.756740139590322
 20
0.8575672295132108
 10
2.757253100773189
 20
0.8583000826999733
 10
2.757656115954102
 20
0.8591335094426058
 10
2.757930800719619
 20
0.8600862546332583
 10
2.756327751963356
 20
0.8600862546332583
 10
2.756181397613215
 20
0.8594265786215665
 10
2.75594312119588
 20
0.8588404402636416
 10
2.755622655636103
 20
0.8583368515268458
 10
2.755238024868635
 20
0.8579244638998725
 10
2.754779856447393
 20
0.8575946258940176
 10
2.7542762677106
 20
0.8573567099553738
 10
2.753726537700862
 20
0.8572099951265564
 10
2.753140399342934
 20
0.8571552023649247
 10
2.752206038565724
 20
0.8572373915073668
 10
2.751390635757827
 20
0.857484679892078
 10
2.750703923844023
 20
0.8578696711382409
 10
2.750145181866905
 20
0.8583916442884738
 10
2.749705397859114
 20
0.8590145514732876
 10
2.749393944266707
 20
0.8597380322139753
 10
2.749210821089695
 20
0.8605440625757937
 10
2.749146655881999
 20
0.8614142581453152
 97
        0
 92
        3
 72
     0
 73
     1
 93
       12
 10
2.761118513818739
 20
0.8560925111723237
 10
2.762446517330798
 20
0.8560925111723237
 10
2.762446517330798
 20
0.8608832730277108
 10
2.768033937101936
 20
0.8608832730277108
 10
2.768033937101936
 20
0.8560925111723237
 10
2.769636985858215
 20
0.8560925111723237
 10
2.769636985858215
 20
0.8667363655970066
 10
2.768033937101936
 20
0.8667363655970066
 10
2.768033937101936
 20
0.8622112765397678
 10
2.762446517330798
 20
0.8622112765397678
 10
2.762446517330798
 20
0.8667363655970066
 10
2.761118513818739
 20
0.8667363655970066
 97
        0
 92
        3
 72
     0
 73
     1
 93
       12
 10
2.773090371755476
 20
0.8560925111723237
 10
2.780546152602346
 20
0.8560925111723237
 10
2.780546152602346
 20
0.8574208751630767
 10
2.774427747713588
 20
0.8574208751630767
 10
2.774427747713588
 20
0.8608832730277108
 10
2.779740122240517
 20
0.8608832730277108
 10
2.779740122240517
 20
0.8622112765397678
 10
2.774427747713588
 20
0.8622112765397678
 10
2.774427747713588
 20
0.8654080016062481
 10
2.780546152602346
 20
0.8654080016062481
 10
2.780546152602346
 20
0.8667363655970066
 10
2.773090371755476
 20
0.8667363655970066
 97
        0
 92
        3
 72
     0
 73
     1
 93
       90
 10
2.695800134779303
 20
0.8485264238448063
 10
2.695498053632957
 20
0.848819853502463
 10
2.695424515979201
 20
0.848984592266038
 10
2.695406492044451
 20
0.8491770878891212
 10
2.695452272838706
 20
0.8494517726546483
 10
2.695580242775406
 20
0.849680676625917
 10
2.695763726431109
 20
0.8498637998029289
 10
2.696001642369752
 20
0.8500105146317647
 10
2.696523975998684
 20
0.850184625841398
 10
2.697000168354658
 20
0.850239418603037
 10
2.697787814303043
 20
0.850147857014531
 10
2.698172445070519
 20
0.8500288990451964
 10
2.69852967945718
 20
0.849873172249002
 10
2.699170971055421
 20
0.8494517726546483
 10
2.699656535857466
 20
0.8489114150909746
 10
2.701790569731351
 20
0.850239418603037
 10
2.701277608548495
 20
0.8507156109590096
 10
2.700746623430889
 20
0.8511370105533652
 10
2.700196893421147
 20
0.851494244940016
 10
2.699629139476663
 20
0.8518056985324265
 10
2.699042640640033
 20
0.8520439749497628
 10
2.698456502282112
 20
0.8522270981267784
 10
2.697860991478119
 20
0.8523280321613574
 10
2.697265841152817
 20
0.8523644405095411
 10
2.696395645583303
 20
0.8523186597152826
 10
2.695589615221474
 20
0.8521629329190792
 10
2.69486577400209
 20
0.8519066325669983
 10
2.694242866817273
 20
0.8515400257342745
 10
2.69372089366705
 20
0.851054821410923
 10
2.693336262899579
 20
0.8504593106069233
 10
2.693198920516818
 20
0.8501204606337115
 10
2.693088974514863
 20
0.8497448418336125
 10
2.693006424893738
 20
0.8489114150909746
 10
2.693061578134053
 20
0.8483342887004119
 10
2.693217304930255
 20
0.8478119550714919
 10
2.69346459331497
 20
0.8473451351615777
 10
2.693803443288172
 20
0.8469327475346008
 10
2.694224842882533
 20
0.8465848855940085
 10
2.694728431619322
 20
0.8463098403497925
 10
2.695314569977254
 20
0.8460993207919574
 10
2.695955861575498
 20
0.8459619784091983
 10
2.698090255928077
 20
0.8455221944014093
 10
2.698557436316682
 20
0.8454122483994588
 10
2.698877901876462
 20
0.8452381371898182
 10
2.699070397499545
 20
0.8450002212511709
 10
2.699125190261173
 20
0.8446519988318878
 10
2.699079409466914
 20
0.8443679416202986
 10
2.698951079051534
 20
0.8441116412682159
 10
2.698749571461067
 20
0.8438827372969508
 10
2.698493271108986
 20
0.8436902416738585
 10
2.698209213897397
 20
0.8435345148776551
 10
2.69788874833762
 20
0.8434155569083424
 10
2.697265841152817
 20
0.8433239953198272
 10
2.696358876756411
 20
0.8434155569083424
 10
2.695965234021573
 20
0.8435345148776551
 10
2.695598627188843
 20
0.8436902416738585
 10
2.69494832362323
 20
0.8441116412682159
 10
2.69433478888448
 20
0.8446519988318878
 10
2.692209406499278
 20
0.8435893076392867
 10
2.692795905335897
 20
0.8430399381082416
 10
2.693373031726445
 20
0.8425817696870099
 10
2.693931773703567
 20
0.8422155233329731
 10
2.694508539615421
 20
0.8419224541540052
 10
2.69508566600598
 20
0.8417115741174849
 10
2.695690188777349
 20
0.8415652197673525
 10
2.696322468408227
 20
0.8414826701462198
 10
2.697000168354658
 20
0.841455273765404
 10
2.697742033508799
 20
0.8414920425922837
 10
2.69852967945718
 20
0.8415926161481666
 10
2.699335709818996
 20
0.8417941237386249
 10
2.700095959386574
 20
0.8421239617444671
 10
2.700444181805858
 20
0.8423438537483662
 10
2.700764647365635
 20
0.8426001541004471
 10
2.701048704577224
 20
0.842902595725479
 10
2.701305365408003
 20
0.8432598301121316
 10
2.701506872998456
 20
0.8436534728469806
 10
2.701662599794654
 20
0.8441116412682159
 10
2.701754161383171
 20
0.844615230005008
 10
2.701790569731351
 20
0.8451833444281883
 10
2.701754161383171
 20
0.8456137559899135
 10
2.70165322734859
 20
0.845998386757391
 10
2.701497500552381
 20
0.8463282247632351
 10
2.701295992961932
 20
0.8466212939421903
 10
2.701039692609844
 20
0.8468779547729728
 10
2.700755635398262
 20
0.8470974862981738
 10
2.700077935451827
 20
0.8474457087174606
 10
2.699317685884256
 20
0.8476839851347986
 10
2.698511655522423
 20
0.8478580963444446
 10
2.697000168354658
 20
0.8481143966965256
 10
2.69630408399479
 20
0.8482975198735376
 97
        0
 92
        3
 72
     0
 73
     1
 93
        8
 10
2.708175007896946
 20
0.8499737458048813
 10
2.710831375399754
 20
0.8499737458048813
 10
2.710831375399754
 20
0.8520987677113926
 10
2.702853260923959
 20
0.8520987677113926
 10
2.702853260923959
 20
0.8499737458048813
 10
2.70550962842676
 20
0.8499737458048813
 10
2.70550962842676
 20
0.8417299585309275
 10
2.708175007896946
 20
0.8417299585309275
 97
        0
 92
        3
 72
     0
 73
     1
 93
       12
 10
2.712700096954181
 20
0.8417299585309275
 10
2.720678211429982
 20
0.8417299585309275
 10
2.720678211429982
 20
0.8435893076392867
 10
2.715090791658844
 20
0.8435893076392867
 10
2.715090791658844
 20
0.8459800023439502
 10
2.719881193035533
 20
0.8459800023439502
 10
2.719881193035533
 20
0.8481143966965256
 10
2.715090791658844
 20
0.8481143966965256
 10
2.715090791658844
 20
0.8499737458048813
 10
2.720146865833685
 20
0.8499737458048813
 10
2.720146865833685
 20
0.8520987677113926
 10
2.712700096954181
 20
0.8520987677113926
 97
        0
 92
        3
 72
     0
 73
     1
 93
        4
 10
2.722537560538342
 20
0.8417299585309275
 10
2.725202940008523
 20
0.8417299585309275
 10
2.725202940008523
 20
0.8520987677113926
 10
2.722537560538342
 20
0.8520987677113926
 97
        0
 92
        3
 72
     0
 73
     1
 93
       10
 10
2.729993701863914
 20
0.8417299585309275
 10
2.729993701863914
 20
0.8481143966965256
 10
2.733712400080625
 20
0.8417299585309275
 10
2.736377779550811
 20
0.8417299585309275
 10
2.736377779550811
 20
0.8520987677113926
 10
2.733978072878777
 20
0.8520987677113926
 10
2.733978072878777
 20
0.8454490172263349
 10
2.730259374662066
 20
0.8520987677113926
 10
2.727593634713187
 20
0.8520987677113926
 10
2.727593634713187
 20
0.8417299585309275
 97
        0
 92
        3
 72
     0
 73
     1
 93
       10
 10
2.747287306773644
 20
0.8499737458048813
 10
2.747287306773644
 20
0.8520987677113926
 10
2.738768474255474
 20
0.8520987677113926
 10
2.738768474255474
 20
0.8499737458048813
 10
2.744090581707154
 20
0.8499737458048813
 10
2.738503161936013
 20
0.8435893076392867
 10
2.738503161936013
 20
0.8417299585309275
 10
2.747287306773644
 20
0.8417299585309275
 10
2.747287306773644
 20
0.8435893076392867
 10
2.741699887002491
 20
0.8435893076392867
 97
        0
 92
        3
 72
     0
 73
     1
 93
       12
 10
2.749412328680148
 20
0.8417299585309275
 10
2.757399455123323
 20
0.8417299585309275
 10
2.757399455123323
 20
0.8435893076392867
 10
2.752077708150336
 20
0.8435893076392867
 10
2.752077708150336
 20
0.8459800023439502
 10
2.756593424761497
 20
0.8459800023439502
 10
2.756593424761497
 20
0.8481143966965256
 10
2.752077708150336
 20
0.8481143966965256
 10
2.752077708150336
 20
0.8499737458048813
 10
2.757124770357801
 20
0.8499737458048813
 10
2.757124770357801
 20
0.8520987677113926
 10
2.749412328680148
 20
0.8520987677113926
 97
        0
 92
        3
 72
     0
 73
     1
 93
       42
 10
2.761915532213192
 20
0.8520987677113926
 10
2.759259164710384
 20
0.8520987677113926
 10
2.759259164710384
 20
0.8451833444281883
 10
2.759286561091187
 20
0.8447067915935177
 10
2.75936911071232
 20
0.8442579956183499
 10
2.75949708064902
 20
0.8438549804374352
 10
2.759662179891285
 20
0.8434797221160306
 10
2.76012936027989
 20
0.8428384305177833
 10
2.7607245106052
 20
0.8423254693349255
 10
2.761411582997706
 20
0.8419408385674552
 10
2.762171832565273
 20
0.8416657933232319
 10
2.762977862927091
 20
0.8415100665270356
 10
2.763783893288917
 20
0.841455273765404
 10
2.764498362062226
 20
0.8415100665270356
 10
2.765231215248994
 20
0.8416657933232319
 10
2.76594568402231
 20
0.8419408385674552
 10
2.766604999555297
 20
0.8423254693349255
 10
2.767182125945863
 20
0.8428384305177833
 10
2.767630921921024
 20
0.8434797221160306
 10
2.767805033130669
 20
0.8438549804374352
 10
2.76793336354605
 20
0.8442579956183499
 10
2.76800654072113
 20
0.8447067915935177
 10
2.768033937101936
 20
0.8451833444281883
 10
2.768033937101936
 20
0.8520987677113926
 10
2.765643242397273
 20
0.8520987677113926
 10
2.765643242397273
 20
0.8454490172263349
 10
2.765615846016463
 20
0.8450550140128007
 10
2.765542668841394
 20
0.844670383245325
 10
2.765405326458633
 20
0.8443131488586741
 10
2.765212830835553
 20
0.8439833108528301
 10
2.764956530483465
 20
0.843717638054678
 10
2.764635704444994
 20
0.8435071184968447
 10
2.764242061710152
 20
0.8433697761140875
 10
2.763783893288917
 20
0.8433239953198272
 10
2.763316712900309
 20
0.8433697761140875
 10
2.762932082132844
 20
0.8435071184968447
 10
2.76261161657306
 20
0.843717638054678
 10
2.762354955742285
 20
0.8439833108528301
 10
2.762153448151832
 20
0.8443131488586741
 10
2.762025117736437
 20
0.844670383245325
 10
2.761942928593995
 20
0.8450550140128007
 10
2.761915532213192
 20
0.8454490172263349
 97
        0
 92
        3
 72
     0
 73
     1
 93
       75
 10
2.770241508629581
 20
0.8456321404033561
 10
2.770461400633478
 20
0.8446062180376366
 10
2.770635511843117
 20
0.8441300256816548
 10
2.770837019433573
 20
0.8436902416738585
 10
2.771084307818288
 20
0.8432872264929511
 10
2.771368365029874
 20
0.8429209801389197
 10
2.772037053008942
 20
0.8422980729541132
 10
2.772430695743784
 20
0.8420507845694037
 10
2.772861107305511
 20
0.8418399045328779
 10
2.773328287694108
 20
0.841675165769303
 10
2.773832236909602
 20
0.8415558473212832
 10
2.774958732831197
 20
0.841455273765404
 10
2.775902466054478
 20
0.8415100665270356
 10
2.776717508383674
 20
0.8416935501827456
 10
2.777074742770343
 20
0.8418399045328779
 10
2.777386196362742
 20
0.842023027709899
 10
2.777660881128268
 20
0.8422522921598548
 10
2.777880773132169
 20
0.84252697692538
 10
2.777880773132169
 20
0.8417299585309275
 10
2.780015167484737
 20
0.8417299585309275
 10
2.780015167484737
 20
0.847317378302073
 10
2.775490078427505
 20
0.847317378302073
 10
2.775490078427505
 20
0.8454490172263349
 10
2.777615100334009
 20
0.8454490172263349
 10
2.777560307572385
 20
0.8449908488051033
 10
2.777395208330116
 20
0.8445972060702635
 10
2.777157292391465
 20
0.8442763800317925
 10
2.776854850766445
 20
0.8440200796797044
 10
2.776516000793225
 20
0.8438275840566285
 10
2.776158766406574
 20
0.8436902416738585
 10
2.775490078427505
 20
0.8435893076392867
 10
2.774839774861877
 20
0.8436444608796092
 10
2.774290044852136
 20
0.8438275840566285
 10
2.773823224942233
 20
0.8441116412682159
 10
2.773456618109507
 20
0.8444872600683111
 10
2.773181933343982
 20
0.8449544404569215
 10
2.772980425753518
 20
0.8454947980205916
 10
2.772861107305511
 20
0.8461083327593378
 10
2.77282469895732
 20
0.8467770207383938
 10
2.772879491718948
 20
0.847619819927103
 10
2.773016834101709
 20
0.8483342887004119
 10
2.773246098551684
 20
0.8489294390257174
 10
2.773557552144077
 20
0.8494059918603971
 10
2.773942182911549
 20
0.8497722382144229
 10
2.774399990854087
 20
0.8500379110125751
 10
2.774912952036943
 20
0.8501936378087767
 10
2.775490078427505
 20
0.850239418603037
 10
2.776231943581632
 20
0.850147857014531
 10
2.77657115403355
 20
0.8500288990451964
 10
2.776882247147256
 20
0.849873172249002
 10
2.777431977156994
 20
0.8494517726546483
 10
2.777880773132169
 20
0.8489114150909746
 10
2.780015167484737
 20
0.8497080730067291
 10
2.779584395444322
 20
0.8503583765723516
 10
2.779108203088337
 20
0.8509081065820965
 10
2.778586229938104
 20
0.8513662750033282
 10
2.778018115514918
 20
0.8517325213573577
 10
2.777395208330116
 20
0.8520165785689433
 10
2.776717508383674
 20
0.8522180861594034
 10
2.775994027642999
 20
0.8523280321613574
 10
2.775224405629356
 20
0.8523644405095411
 10
2.77459248647717
 20
0.8523370441287252
 10
2.774015360086614
 20
0.8522544945075852
 10
2.773475002522944
 20
0.8521265245708973
 10
2.772971053307454
 20
0.8519430409151928
 10
2.772513245364913
 20
0.8517141369439151
 10
2.772100857737936
 20
0.851439452178397
 10
2.771725599416539
 20
0.8511279985859846
 10
2.771395761410699
 20
0.8507707641993338
 10
2.771102692231725
 20
0.8503767609857942
 10
2.77085540384701
 20
0.8499553613914441
 10
2.77064452381049
 20
0.8494885414815262
 10
2.770470412600847
 20
0.8490029766794805
 10
2.770241508629581
 20
0.8479402854868795
 10
2.770168331454512
 20
0.8467770207383938
 97
        0
 92
       18
 72
     0
 73
     1
 93
       19
 10
2.697000168354658
 20
0.8654080016062481
 10
2.697833595097298
 20
0.8653348244311865
 10
2.698548063870618
 20
0.8651149324272855
 10
2.699143574674618
 20
0.8647760824540683
 10
2.699629139476663
 20
0.8643089020654597
 10
2.699995385830694
 20
0.8637317756749117
 10
2.700251686182768
 20
0.8630447032824022
 10
2.700407412978973
 20
0.8622754417474653
 10
2.700453193773232
 20
0.8614142581453152
 10
2.700407412978973
 20
0.8605534350218704
 10
2.700251686182768
 20
0.8597838130082209
 10
2.699995385830694
 20
0.8590971010944132
 10
2.699629139476663
 20
0.8585199747038651
 10
2.699143574674618
 20
0.8580527943152584
 10
2.698548063870618
 20
0.8577139443420392
 10
2.697833595097298
 20
0.8574940523381456
 10
2.697000168354658
 20
0.8574208751630767
 10
2.694600101203942
 20
0.8574208751630767
 10
2.694600101203942
 20
0.8654080016062481
 97
        0
 75
     0
 76
     1
 98
        0
  0
HATCH
  5
81
330
1F
100
AcDbEntity
  8
XR$1$TB_1110_1
  6
AUSGEZOGEN
 62
    18
420
        0
440
 33554687
370
    35
100
AcDbHatch
 10
0.0
 20
0.0
 30
0.0
210
0.0
220
0.0
230
1.0
  2
SOLID
 70
     1
 71
     0
 91
       20
 92
        3
 72
     0
 73
     1
 93
        8
 10
2.826308562442784
 20
0.8664706927988491
 10
2.816461726412552
 20
0.8417299585309275
 10
2.818852421117208
 20
0.8417299585309275
 10
2.821783473385545
 20
0.8491770878891212
 10
2.832693000608375
 20
0.8491770878891212
 10
2.835349368111183
 20
0.8417299585309275
 10
2.838014747581368
 20
0.8417299585309275
 10
2.828433584349288
 20
0.8664706927988491
 97
        0
 92
        3
 72
     0
 73
     1
 93
      116
 10
2.840936787882332
 20
0.8539674892658196
 10
2.840973196230516
 20
0.8549202344564701
 10
2.841064757819026
 20
0.855881991614494
 10
2.841220484615224
 20
0.8568527607398982
 10
2.841449749065185
 20
0.8578055059305507
 10
2.841742818244151
 20
0.8587304942616948
 10
2.842100052630809
 20
0.8596374586580942
 10
2.842530464192536
 20
0.8604982817815481
 10
2.84303441340803
 20
0.8613136845894378
 10
2.84361117931988
 20
0.8620645617109322
 10
2.844252470918131
 20
0.8627516341034379
 10
2.84496693969144
 20
0.8633655293208731
 10
2.845763958085903
 20
0.8638784905037328
 10
2.846634153655421
 20
0.8642995296193922
 10
2.847586538367381
 20
0.8646109832117973
 10
2.848612460733097
 20
0.8648034788348805
 10
2.849720932719956
 20
0.8648766560099493
 10
2.851039924264635
 20
0.8647944668675073
 10
2.852221573426559
 20
0.8645652024175406
 10
2.852761930990237
 20
0.8643914516865998
 10
2.853265519727032
 20
0.8641715596826989
 10
2.85373270011563
 20
0.8639148988519237
 10
2.854172484123428
 20
0.863612817705588
 10
2.854960130071817
 20
0.8628709525514578
 10
2.855628818050867
 20
0.861954976187687
 10
2.856187560027989
 20
0.8608465042008329
 10
2.856636356003153
 20
0.8595549090369595
 10
2.859027050707809
 20
0.8608832730277108
 10
2.858285185553687
 20
0.8622938261609042
 10
2.857424362430229
 20
0.8635212561170783
 10
2.856462605272205
 20
0.8645745748636154
 10
2.855931259675901
 20
0.8650323828061528
 10
2.855372517698783
 20
0.8654353979870694
 10
2.854786379340869
 20
0.8658020048197914
 10
2.854163472156048
 20
0.8661134584121873
 10
2.85350379614436
 20
0.86638814317772
 10
2.852816723751857
 20
0.8666080351816136
 10
2.851342005410974
 20
0.866901104360576
 10
2.849720932719956
 20
0.8670016779164571
 10
2.84831939155413
 20
0.86692850074139
 10
2.847027796390263
 20
0.866717981183564
 10
2.845818750847524
 20
0.8663697587642774
 10
2.844719651306743
 20
0.8659025783756706
 10
2.843712113354461
 20
0.8653164400177402
 10
2.842796136990684
 20
0.8646293676252399
 10
2.841971722215425
 20
0.863850733644228
 10
2.841238869028664
 20
0.8629805380747102
 10
2.84059757743041
 20
0.8620281533627504
 10
2.84004820789937
 20
0.8610112429644005
 10
2.839581027510762
 20
0.859939539804428
 10
2.839205408710666
 20
0.8588036714367636
 10
2.838912339531711
 20
0.8576404066882797
 10
2.838710831941244
 20
0.8564313611455373
 10
2.838582501525863
 20
0.8552039311893613
 10
2.838546093177669
 20
0.8539674892658196
 10
2.838582501525863
 20
0.8526301133076931
 10
2.838710831941244
 20
0.8513385181438252
 10
2.838912339531711
 20
0.8500930642528957
 10
2.839196396743286
 20
0.8488930306775337
 10
2.839562643097317
 20
0.8477571623098639
 10
2.840020811518556
 20
0.8466854591498877
 10
2.840551796636155
 20
0.8456779211976128
 10
2.841174703820972
 20
0.8447529328664614
 10
2.841870788180848
 20
0.8439101336777539
 10
2.84265879460792
 20
0.8431588960775598
 10
2.843538002144815
 20
0.8425085925119357
 10
2.844490747335465
 20
0.8419498505348283
 10
2.845534693635931
 20
0.8415194389730978
 10
2.846670562003605
 20
0.8411896009672574
 10
2.84787960754634
 20
0.8409971053441723
 10
2.849189587123659
 20
0.8409239281691052
 10
2.850288686664444
 20
0.8409880933768009
 10
2.851397158651296
 20
0.8411805889998805
 10
2.852477873778644
 20
0.8415010545596606
 10
2.853513168590427
 20
0.8419588625021907
 10
2.854465553302387
 20
0.8425543733061904
 10
2.855326736904539
 20
0.8432872264929511
 10
2.856059590091296
 20
0.8441574220624616
 10
2.856361671237635
 20
0.8446519988318878
 10
2.856636356003153
 20
0.8451833444281883
 10
2.856636356003153
 20
0.8417299585309275
 10
2.858761377909668
 20
0.8417299585309275
 10
2.858761377909668
 20
0.8544988348621164
 10
2.847586538367381
 20
0.8544988348621164
 10
2.847586538367381
 20
0.8523644405095411
 10
2.856636356003153
 20
0.8523644405095411
 10
2.856636356003153
 20
0.8510364369974859
 10
2.856535782447274
 20
0.8496990610393559
 10
2.856224328854867
 20
0.8483342887004119
 10
2.855977040470156
 20
0.8476565887539828
 10
2.855683971291197
 20
0.8469969127422928
 10
2.855326736904539
 20
0.8463556211440455
 10
2.854905337310185
 20
0.8457510983726797
 10
2.8544291449542
 20
0.8451833444281883
 10
2.853879414944466
 20
0.844670383245325
 10
2.853274892173093
 20
0.8442122148240933
 10
2.852597192226662
 20
0.8438185720892516
 10
2.851854966593834
 20
0.8434977460507808
 10
2.851030551818567
 20
0.8432598301121316
 10
2.850151344281676
 20
0.8431041033159354
 10
2.849189587123659
 20
0.8430583225216806
 10
2.848126895931055
 20
0.8431224877293726
 10
2.847156126805654
 20
0.8433146228737632
 10
2.846249162409244
 20
0.8436260764661684
 10
2.845425108112682
 20
0.8440474760605167
 10
2.844682882479865
 20
0.844569449210755
 10
2.844005182533416
 20
0.8451739719821244
 10
2.843400659762057
 20
0.845861044374623
 10
2.842869314165757
 20
0.8466122819748189
 10
2.842402133777148
 20
0.8474273243040198
 10
2.842008491042303
 20
0.8482885079061679
 10
2.841669280590384
 20
0.8491951118238749
 10
2.84140396827093
 20
0.8501294726010865
 10
2.841202460680484
 20
0.8510822177917299
 10
2.841055745851652
 20
0.8520439749497628
 10
2.840964184263135
 20
0.8530057321077884
 97
        0
 92
        3
 72
     0
 73
     1
 93
       37
 10
2.862223775774295
 20
0.8417299585309275
 10
2.864614470478958
 20
0.8417299585309275
 10
2.864614470478958
 20
0.8526301133076931
 10
2.870202250728795
 20
0.8526301133076931
 10
2.878189377171962
 20
0.8417299585309275
 10
2.881111417472934
 20
0.8417299585309275
 10
2.873133302997128
 20
0.8526301133076931
 10
2.8747363517534
 20
0.8528316208981478
 10
2.875478216907533
 20
0.8530057321077884
 10
2.876164928821341
 20
0.8532256241116857
 10
2.876806220419589
 20
0.853500308877211
 10
2.877392358777525
 20
0.8538207744369875
 10
2.877933076819889
 20
0.8541873812697113
 10
2.878418281143233
 20
0.8545994084179956
 10
2.878858065151027
 20
0.8550575768392291
 10
2.87923368395113
 20
0.8555611655760231
 10
2.879563521956978
 20
0.8561108955857663
 10
2.879828834276432
 20
0.8567154183571338
 10
2.880039714312952
 20
0.8573567099553738
 10
2.880195441109154
 20
0.8580434218691908
 10
2.88028700269766
 20
0.8587762750559478
 10
2.88031439907847
 20
0.8595549090369595
 10
2.880213825522591
 20
0.8608465042008329
 10
2.879902371930191
 20
0.862092318570446
 10
2.879664095512857
 20
0.8626874688957514
 10
2.87938003830126
 20
0.8632645952862995
 10
2.879022803914606
 20
0.8638049528499733
 10
2.878619788733697
 20
0.8643089020654597
 10
2.878152608345092
 20
0.8647760824540683
 10
2.877630635194852
 20
0.8651881096023545
 10
2.877035124390859
 20
0.8655637284024551
 10
2.876384820825235
 20
0.8658751819948548
 10
2.875670352051919
 20
0.8661314823469412
 10
2.874891718070911
 20
0.8663149660026492
 10
2.874049279360904
 20
0.8664339239719675
 10
2.873133302997128
 20
0.8664706927988491
 10
2.862223775774295
 20
0.8664706927988491
 97
        0
 92
        3
 72
     0
 73
     1
 93
       64
 10
2.882073174630957
 20
0.851494244940016
 10
2.88228369418878
 20
0.8502945718433539
 10
2.88256775140038
 20
0.8491219346488006
 10
2.882943370200468
 20
0.8479954387272037
 10
2.883401178143009
 20
0.8469143631211582
 10
2.883941896185381
 20
0.8458978132015027
 10
2.884573815337557
 20
0.8449544404569215
 10
2.885288284110877
 20
0.8440842448874036
 10
2.886094314472702
 20
0.8432962384603224
 10
2.886991906423031
 20
0.8426095265465147
 10
2.887972047994503
 20
0.8420324001559611
 10
2.889052763121858
 20
0.8415652197673525
 10
2.890216027870331
 20
0.8412169973480713
 10
2.891471214686015
 20
0.8409971053441723
 10
2.892807869686752
 20
0.8409239281691052
 10
2.894117849264061
 20
0.8409971053441723
 10
2.895336267252864
 20
0.8412169973480713
 10
2.89646276317447
 20
0.8415652197673525
 10
2.897507069953627
 20
0.8420324001559611
 10
2.898459454665594
 20
0.8426095265465147
 10
2.899339022681171
 20
0.8432962384603224
 10
2.90012666862956
 20
0.8440842448874036
 10
2.900822752989436
 20
0.8449544404569215
 10
2.901445660174235
 20
0.8458978132015027
 10
2.901977005770546
 20
0.8469143631211582
 10
2.902434813713084
 20
0.8479954387272037
 10
2.902801420545809
 20
0.8491219346488006
 10
2.903085117278704
 20
0.8502945718433539
 10
2.903295997315225
 20
0.851494244940016
 10
2.903414955284545
 20
0.8527216748961919
 10
2.903451724111426
 20
0.8539674892658196
 10
2.903414955284545
 20
0.8552039311893613
 10
2.903295997315225
 20
0.8564313611455373
 10
2.903085117278704
 20
0.8576404066882797
 10
2.902801420545809
 20
0.8588036714367636
 10
2.902434813713084
 20
0.859939539804428
 10
2.901977005770546
 20
0.8610112429644005
 10
2.901445660174235
 20
0.8620281533627504
 10
2.900822752989436
 20
0.8629805380747102
 10
2.90012666862956
 20
0.863850733644228
 10
2.899339022681171
 20
0.8646293676252399
 10
2.898459454665594
 20
0.8653164400177402
 10
2.897507069953627
 20
0.8659025783756706
 10
2.89646276317447
 20
0.8663697587642774
 10
2.895336267252864
 20
0.866717981183564
 10
2.894117849264061
 20
0.86692850074139
 10
2.892807869686752
 20
0.8670016779164571
 10
2.891471214686015
 20
0.86692850074139
 10
2.890216027870331
 20
0.866717981183564
 10
2.889052763121858
 20
0.8663697587642774
 10
2.887972047994503
 20
0.8659025783756706
 10
2.886991906423031
 20
0.8653164400177402
 10
2.886094314472702
 20
0.8646293676252399
 10
2.885288284110877
 20
0.863850733644228
 10
2.884573815337557
 20
0.8629805380747102
 10
2.883941896185381
 20
0.8620281533627504
 10
2.883401178143009
 20
0.8610112429644005
 10
2.882943370200468
 20
0.859939539804428
 10
2.88256775140038
 20
0.8588036714367636
 10
2.88228369418878
 20
0.8576404066882797
 10
2.882073174630957
 20
0.8564313611455373
 10
2.881954216661634
 20
0.8552039311893613
 10
2.881917447834748
 20
0.8539674892658196
 10
2.881954216661634
 20
0.8527216748961919
 97
        0
 92
        3
 72
     0
 73
     1
 93
       57
 10
2.917291943123895
 20
0.8417299585309275
 10
2.918299481076174
 20
0.841766727357809
 10
2.919233841853387
 20
0.8418673009136883
 10
2.920104037422909
 20
0.8420414121233344
 10
2.920892043849995
 20
0.8422796885406724
 10
2.921615524590674
 20
0.8425727577196349
 10
2.922274840123675
 20
0.8429209801389197
 10
2.922861338960291
 20
0.8433146228737632
 10
2.923374300143158
 20
0.8437544068815541
 10
2.923832108085695
 20
0.8442399716836017
 10
2.924216738853171
 20
0.8447529328664614
 10
2.924546576859011
 20
0.845302302397512
 10
2.924812249657167
 20
0.8458794287880619
 10
2.925013757247616
 20
0.8464749395920599
 10
2.925160472076445
 20
0.8470974862981738
 10
2.925242661218879
 20
0.847729765929048
 10
2.925270057599704
 20
0.8483800694946704
 10
2.925196880424632
 20
0.849634895831664
 10
2.924967976453361
 20
0.8507981605801442
 10
2.924784853276353
 20
0.851347890589891
 10
2.924573973239818
 20
0.8518608517727507
 10
2.92430830044167
 20
0.8523460560960966
 10
2.924006219295337
 20
0.852804224517332
 10
2.923657996876056
 20
0.8532162516656163
 10
2.923273366108584
 20
0.853601242911781
 10
2.922833582100786
 20
0.8539491048523751
 10
2.922357389744808
 20
0.8542515464774088
 10
2.9218260441485
 20
0.8545172192755536
 10
2.921248917757948
 20
0.8547277388333905
 10
2.92062637105184
 20
0.8549018500430239
 10
2.919948310626704
 20
0.8550301804584206
 10
2.921065794580933
 20
0.8552864808105014
 10
2.921551359382978
 20
0.8554696039875189
 10
2.922000155358146
 20
0.8556804840240447
 10
2.922787801306527
 20
0.8561840727608296
 10
2.923410708491341
 20
0.8568253643590824
 10
2.92388726132601
 20
0.8575856139266517
 10
2.924070384503029
 20
0.8580160254883785
 10
2.924216738853171
 20
0.8584741939096066
 10
2.924409234476254
 20
0.8594817318618907
 10
2.924473399683946
 20
0.8606176002295606
 10
2.924427618889691
 20
0.8612495193817403
 10
2.924244495712679
 20
0.862092318570446
 10
2.92408876891647
 20
0.8625594989590545
 10
2.923868876912569
 20
0.8630540757284771
 10
2.923593831668361
 20
0.8635486524978906
 10
2.923245969727759
 20
0.8640432292673149
 10
2.92281555816604
 20
0.8645194216232931
 10
2.92230259698318
 20
0.8649682175984608
 10
2.921698074211818
 20
0.8653806052254377
 10
2.920992617405867
 20
0.8657378396120957
 10
2.920177575076675
 20
0.8660399207584351
 10
2.919252226266832
 20
0.8662691852083999
 10
2.918207919487668
 20
0.8664155395585267
 10
2.917026270325751
 20
0.8664706927988491
 10
2.906382776379763
 20
0.8664706927988491
 10
2.906382776379763
 20
0.8417299585309275
 97
        0
 92
        3
 72
     0
 73
     1
 93
       56
 10
2.93325754452157
 20
0.8417299585309275
 10
2.94443238406385
 20
0.8417299585309275
 10
2.946694748353126
 20
0.8418125081520621
 10
2.94773004316492
 20
0.8419314661213876
 10
2.948700812290303
 20
0.8420965653636531
 10
2.949598404240642
 20
0.842316096888856
 10
2.950432191461976
 20
0.8425817696870099
 10
2.951192441029543
 20
0.842902595725479
 10
2.951879513422046
 20
0.8432872264929511
 10
2.952493048160792
 20
0.843727010500742
 10
2.953024393757092
 20
0.8442305992375377
 10
2.95348220169963
 20
0.8447987136607199
 10
2.953857820499728
 20
0.8454306328129032
 10
2.954150889678691
 20
0.8461267171727769
 10
2.954361769715222
 20
0.846895978707721
 10
2.95449911209798
 20
0.847729765929048
 10
2.954535520446159
 20
0.8486457422928261
 10
2.954508124065349
 20
0.8493144302718856
 10
2.954416562476843
 20
0.8499463494240709
 10
2.954270208126702
 20
0.850523475814619
 10
2.954068700536256
 20
0.851054821410923
 10
2.95382105167285
 20
0.8515400257342745
 10
2.953527982493881
 20
0.8519798097420634
 10
2.953189132520667
 20
0.852373812955605
 10
2.952813513720565
 20
0.8527310473422668
 10
2.952392114126211
 20
0.8530515129020377
 10
2.951943318151054
 20
0.8533261976675686
 10
2.951458113827699
 20
0.8535644740849011
 10
2.950945152644836
 20
0.8537659816753594
 10
2.949855065071421
 20
0.8540684233003858
 10
2.948682427876865
 20
0.8542331620639679
 10
2.948682427876865
 20
0.8544988348621164
 10
2.949818296244539
 20
0.8548376848353337
 10
2.950825834196821
 20
0.8552590844296819
 10
2.951687017798966
 20
0.8557720456125453
 10
2.952410498539648
 20
0.8563949527973554
 10
2.952978612962834
 20
0.85712744550542
 10
2.953207516934104
 20
0.8575304606863274
 10
2.953400012557188
 20
0.8579796171401877
 10
2.953656312909275
 20
0.8589593982329652
 10
2.953738862530408
 20
0.8600862546332583
 10
2.953702093703534
 20
0.8609012969624555
 10
2.953583135734207
 20
0.8616525345626515
 10
2.953390640111123
 20
0.8623486189225305
 10
2.953124967312971
 20
0.8629899105207778
 10
2.952795489785822
 20
0.8635670369113314
 10
2.952392114126211
 20
0.8640890100615644
 10
2.951934306183674
 20
0.8645561904501656
 10
2.951412333033448
 20
0.8649682175984608
 10
2.950835206642885
 20
0.8653348244311865
 10
2.950203287490709
 20
0.8656462780235897
 10
2.949525227065573
 20
0.8659025783756706
 10
2.948801746324891
 20
0.8661040859661252
 10
2.94722609394943
 20
0.8663791312103449
 10
2.945495075256451
 20
0.8664706927988491
 10
2.93325754452157
 20
0.8664706927988491
 97
        0
 92
        3
 72
     0
 73
     1
 93
       58
 10
2.958794936705246
 20
0.850239418603037
 10
2.958859101912942
 20
0.8490393850276642
 10
2.959042225089961
 20
0.8479312735195063
 10
2.959344666714987
 20
0.8469143631211582
 10
2.959747681895908
 20
0.8459800023439502
 10
2.960242258665323
 20
0.8451281911878695
 10
2.960819385055878
 20
0.8443679416202986
 10
2.961469688621503
 20
0.8436902416738585
 10
2.962184157394815
 20
0.8430857189024983
 10
2.962962791375827
 20
0.842563745752258
 10
2.96378720615109
 20
0.8421239617444671
 10
2.96463901730716
 20
0.8417483429443646
 10
2.965527236811431
 20
0.841446261798038
 10
2.966434201207838
 20
0.8412169973480713
 10
2.96735017757161
 20
0.8410522585844928
 10
2.968266153935379
 20
0.8409606969959869
 10
2.969173118331779
 20
0.8409239281691052
 10
2.97007972224948
 20
0.8409606969959869
 10
2.970995698613256
 20
0.8410522585844928
 10
2.971911674977026
 20
0.8412169973480713
 10
2.972809266927357
 20
0.841446261798038
 10
2.973697846910316
 20
0.8417483429443646
 10
2.974559030512468
 20
0.8421239617444671
 10
2.975383445287738
 20
0.842563745752258
 10
2.976152706822668
 20
0.8430857189024983
 10
2.976876187563365
 20
0.8436902416738585
 10
2.977526851607683
 20
0.8443679416202986
 10
2.978103617519537
 20
0.8451281911878695
 10
2.97859855476765
 20
0.8459800023439502
 10
2.979001569948567
 20
0.8469143631211582
 10
2.979303651094906
 20
0.8479312735195063
 10
2.979486774271918
 20
0.8490393850276642
 10
2.97955093947961
 20
0.850239418603037
 10
2.97955093947961
 20
0.8664706927988491
 10
2.973432174112171
 20
0.8664706927988491
 10
2.973432174112171
 20
0.8507707641993338
 10
2.97337738135054
 20
0.8497996345952424
 10
2.973212282108274
 20
0.8489020426449033
 10
2.972928585375368
 20
0.848087000315706
 10
2.972497813334954
 20
0.8473815435097595
 10
2.971921047423093
 20
0.84679540515184
 10
2.971572825003804
 20
0.8465571287345037
 10
2.971188194236344
 20
0.8463556211440455
 10
2.970748410228549
 20
0.8461998943478438
 10
2.970272217872564
 20
0.8460809363785202
 10
2.969173118331779
 20
0.8459800023439502
 10
2.968073658312296
 20
0.8460809363785202
 10
2.967597465956311
 20
0.8461998943478438
 10
2.967157681948524
 20
0.8463556211440455
 10
2.966773051181048
 20
0.8465571287345037
 10
2.966425189240454
 20
0.84679540515184
 10
2.965848062849906
 20
0.8473815435097595
 10
2.965417651288186
 20
0.848087000315706
 10
2.965133594076586
 20
0.8489020426449033
 10
2.964968494834328
 20
0.8497996345952424
 10
2.964913702072696
 20
0.8507707641993338
 10
2.964913702072696
 20
0.8664706927988491
 10
2.958794936705246
 20
0.8664706927988491
 97
        0
 92
        3
 72
     0
 73
     1
 93
      105
 10
2.989929121106143
 20
0.8539674892658196
 10
2.989956517486957
 20
0.8549750272180964
 10
2.990048079075455
 20
0.8559093879953044
 10
2.990194793904287
 20
0.8567795835648222
 10
2.990396301494744
 20
0.8575672295132108
 10
2.990643589879459
 20
0.8582910707325946
 10
2.990945671025798
 20
0.8589413742982115
 10
2.991293893445083
 20
0.85952751265614
 10
2.991687536179929
 20
0.8600494858063803
 10
2.992118308220353
 20
0.860507654227612
 10
2.992585488608951
 20
0.860892284995086
 10
2.993089077345739
 20
0.8612221230009318
 10
2.993629434909417
 20
0.8614877957990803
 10
2.994197549332599
 20
0.8616893033895385
 10
2.994792699657908
 20
0.8618356577396671
 10
2.995406594875334
 20
0.8619182073608036
 10
2.996047886473582
 20
0.8619456037416212
 10
2.99684454438934
 20
0.861872426566547
 10
2.997623178370355
 20
0.861661546530021
 10
2.998365043524474
 20
0.8613320690028768
 10
2.999070500330425
 20
0.8608832730277108
 10
2.999711791928668
 20
0.8603335430179696
 10
3.00027053390579
 20
0.8597016238657825
 10
3.000737353815694
 20
0.8589961670598468
 10
3.001103960648423
 20
0.858217533078835
 10
3.006151022855902
 20
0.8606176002295606
 10
3.005216662078685
 20
0.8620371653301291
 10
3.004199751680331
 20
0.8633013641131847
 10
3.003082267726109
 20
0.8643914516865998
 10
3.002487117400808
 20
0.8648676440425798
 10
3.001864210215997
 20
0.8653074280503689
 10
3.001213906650373
 20
0.865692058817841
 10
3.000535846225241
 20
0.8660309087910618
 10
2.999821377451921
 20
0.8663239779700244
 10
2.999079512297805
 20
0.8665622543873623
 10
2.99831025076285
 20
0.8667543895317477
 10
2.997504220401024
 20
0.8668920923932083
 10
2.996661421212331
 20
0.8669742815356504
 10
2.995782213675437
 20
0.8670016779164571
 10
2.994371660542241
 20
0.86692850074139
 10
2.993052308518858
 20
0.8667269931509354
 10
2.991806854627943
 20
0.86638814317772
 10
2.990652601846832
 20
0.8659393472025558
 10
2.989580898686861
 20
0.8653712327793701
 10
2.988600757115389
 20
0.8647029052790013
 10
2.987703165165054
 20
0.8639332832653681
 10
2.986897134803224
 20
0.8630814721092874
 10
2.986182666029908
 20
0.8621380993646972
 10
2.985559758845106
 20
0.8611305614124185
 10
2.985028413248805
 20
0.8600494858063803
 10
2.984588989719712
 20
0.8589229898847743
 10
2.984249779267797
 20
0.8577323287554782
 10
2.984002490883082
 20
0.8565139107666774
 10
2.983856136532948
 20
0.8552497119836199
 10
2.983800983292626
 20
0.8539674892658196
 10
2.983856136532948
 20
0.8526758941019461
 10
2.98401186332915
 20
0.8514210677649507
 10
2.984277536127305
 20
0.8501936378087767
 10
2.984634770513964
 20
0.8490119886468538
 10
2.985101950902564
 20
0.8478761202791839
 10
2.98566069287969
 20
0.84679540515184
 10
2.986310996445311
 20
0.8457878671995596
 10
2.987061873566807
 20
0.8448535064223406
 10
2.987913684722884
 20
0.8439926832988977
 10
2.988848045500097
 20
0.8432320732526268
 10
2.989873967865817
 20
0.8425543733061904
 10
2.990991451820046
 20
0.8419956313290795
 10
2.992191485395411
 20
0.8415378233865404
 10
2.993483080559283
 20
0.8412079853806945
 10
2.994856864865589
 20
0.8409971053441723
 10
2.996313198793043
 20
0.8409239281691052
 10
2.997055424425864
 20
0.8409513245499156
 10
2.997787917133926
 20
0.841033874171052
 10
2.999235239094
 20
0.841363712176898
 10
2.999931323453878
 20
0.8416016281155398
 10
3.000618395846381
 20
0.8418950577732021
 10
3.001287083825435
 20
0.8422339077464176
 10
3.001928375423689
 20
0.8426275504812593
 10
3.003155805379873
 20
0.8435345148776551
 10
3.004282301301471
 20
0.8446336144184452
 10
3.00528082728638
 20
0.8458884407554369
 10
3.005738635228914
 20
0.8465848855940085
 10
3.006151022855902
 20
0.847317378302073
 10
3.001369633446575
 20
0.8497080730067291
 10
3.000911465025351
 20
0.8488746462640947
 10
3.000352723048232
 20
0.8481601774907749
 10
2.999720803896053
 20
0.8475646666867788
 10
2.999033731503539
 20
0.8470794623634329
 10
2.998328635176295
 20
0.8467128555307072
 10
2.997623178370355
 20
0.8464565551786227
 10
2.996945478423914
 20
0.8463008283824193
 10
2.996313198793043
 20
0.846245675142095
 10
2.995406594875334
 20
0.8463008283824193
 10
2.994582180100071
 20
0.8464381707651782
 10
2.993840314945937
 20
0.8466670747364505
 10
2.993180638934253
 20
0.8469695163614788
 10
2.992585488608951
 20
0.8473451351615777
 10
2.992072527426088
 20
0.8477755467233047
 10
2.991614359004856
 20
0.8482701234927272
 10
2.991220355791316
 20
0.8488104810563973
 10
2.99089087826417
 20
0.8493876074469545
 10
2.99061583301995
 20
0.8500011421856952
 10
2.99038692904868
 20
0.8506424337839444
 10
2.990212817839034
 20
0.8513021097956307
 10
2.989993286313835
 20
0.8526394857537535
 97
        0
 92
        3
 72
     0
 73
     1
 93
       12
 10
3.009613420720529
 20
0.8417299585309275
 10
3.015732186087971
 20
0.8417299585309275
 10
3.015732186087971
 20
0.8520987677113926
 10
3.025047676521899
 20
0.8520987677113926
 10
3.025047676521899
 20
0.8417299585309275
 10
3.031166081410644
 20
0.8417299585309275
 10
3.031166081410644
 20
0.8664706927988491
 10
3.025047676521899
 20
0.8664706927988491
 10
3.025047676521899
 20
0.8574208751630767
 10
3.015732186087971
 20
0.8574208751630767
 10
3.015732186087971
 20
0.8664706927988491
 10
3.009613420720529
 20
0.8664706927988491
 97
        0
 92
        3
 72
     0
 73
     1
 93
        8
 10
3.047131682808326
 20
0.8616799309434655
 10
3.053516120973909
 20
0.8616799309434655
 10
3.053516120973909
 20
0.8664706927988491
 10
3.03435379450976
 20
0.8664706927988491
 10
3.03435379450976
 20
0.8616799309434655
 10
3.041012917440876
 20
0.8616799309434655
 10
3.041012917440876
 20
0.8417299585309275
 10
3.047131682808326
 20
0.8417299585309275
 97
        0
 92
        3
 72
     0
 73
     1
 93
        8
 10
3.051647399419486
 20
0.8417299585309275
 10
3.058306522350605
 20
0.8417299585309275
 10
3.059634886341348
 20
0.8454490172263349
 10
3.068675331531063
 20
0.8454490172263349
 10
3.070012707489186
 20
0.8417299585309275
 10
3.076662818452929
 20
0.8417299585309275
 10
3.067347328019012
 20
0.8664706927988491
 10
3.060962889853418
 20
0.8664706927988491
 97
        0
 92
        3
 72
     0
 73
     1
 93
        6
 10
3.079319185955741
 20
0.8417299585309275
 10
3.095284426874721
 20
0.8417299585309275
 10
3.095284426874721
 20
0.8467770207383938
 10
3.085703624121339
 20
0.8467770207383938
 10
3.085703624121339
 20
0.8664706927988491
 10
3.079319185955741
 20
0.8664706927988491
 97
        0
 92
       18
 72
     0
 73
     1
 93
        3
 10
2.827370893156695
 20
0.8632739677323634
 10
2.831895982213918
 20
0.8510364369974859
 10
2.822580491779994
 20
0.8510364369974859
 97
        0
 92
       18
 72
     0
 73
     1
 93
       29
 10
2.872336284602679
 20
0.8640706256481272
 10
2.87381100294356
 20
0.8639974484730583
 10
2.875047444867108
 20
0.8637775564691665
 10
2.875578790463409
 20
0.863612817705588
 10
2.876055343298085
 20
0.8634113101151352
 10
2.876485754859812
 20
0.8631820456651649
 10
2.876861373659911
 20
0.8629073608996414
 10
2.877181839219687
 20
0.862605279753313
 10
2.877456523985205
 20
0.8622660693013904
 10
2.877685788435174
 20
0.8618998229473628
 10
2.87786891161219
 20
0.8614968077664553
 10
2.878106827550837
 20
0.8605898433700541
 10
2.878189377171962
 20
0.8595549090369595
 10
2.878125211964278
 20
0.8586573170866258
 10
2.877905319960377
 20
0.8577961334844795
 10
2.877731569229429
 20
0.8573841063361933
 10
2.877511677225535
 20
0.8569810911552859
 10
2.877246004427383
 20
0.8566054723551834
 10
2.876925538867603
 20
0.8562572499358948
 10
2.876549920067515
 20
0.8559367843761239
 10
2.876110136059709
 20
0.8556437151971595
 10
2.87560618684422
 20
0.8553874148450786
 10
2.875047444867108
 20
0.8551765348085546
 10
2.874415525714925
 20
0.8550024235989085
 10
2.87371042938768
 20
0.8548744536622153
 10
2.872922422960601
 20
0.8547919040410789
 10
2.87207061180452
 20
0.8547645076602612
 10
2.864614470478958
 20
0.8547645076602612
 10
2.864614470478958
 20
0.8640706256481272
 97
        0
 92
       18
 72
     0
 73
     1
 93
       64
 10
2.884335538920222
 20
0.8549202344564701
 10
2.884436472954803
 20
0.855881991614494
 10
2.884592199751005
 20
0.8568527607398982
 10
2.884812091754898
 20
0.8578055059305507
 10
2.885105160933865
 20
0.8587304942616948
 10
2.885462395320527
 20
0.8596374586580942
 10
2.885883434436179
 20
0.8604982817815481
 10
2.886368999238221
 20
0.8613136845894378
 10
2.886927741215339
 20
0.8620645617109322
 10
2.88756002084622
 20
0.8627516341034379
 10
2.888256105206088
 20
0.8633655293208731
 10
2.889025366741032
 20
0.8638784905037328
 10
2.889858793483672
 20
0.8642995296193922
 10
2.890774769847445
 20
0.8646109832117973
 10
2.891754550940212
 20
0.8648034788348805
 10
2.892807869686752
 20
0.8648766560099493
 10
2.89387056087935
 20
0.8648034788348805
 10
2.894850702450818
 20
0.8646109832117973
 10
2.895748294401146
 20
0.8642995296193922
 10
2.896572709176417
 20
0.8638784905037328
 10
2.897314574330543
 20
0.8633655293208731
 10
2.897992634755672
 20
0.8627516341034379
 10
2.898597157527045
 20
0.8620645617109322
 10
2.899128142644655
 20
0.8613136845894378
 10
2.899595323033253
 20
0.8604982817815481
 10
2.899989326246792
 20
0.8596374586580942
 10
2.90032817622001
 20
0.8587304942616948
 10
2.900593849018169
 20
0.8578055059305507
 10
2.900804368575991
 20
0.8568527607398982
 10
2.900942071437446
 20
0.855881991614494
 10
2.901033633025956
 20
0.8549202344564701
 10
2.90106102940677
 20
0.8539674892658196
 10
2.901033633025956
 20
0.8530057321077884
 10
2.900942071437446
 20
0.8520439749497628
 10
2.900804368575991
 20
0.8510822177917299
 10
2.900593849018169
 20
0.8501294726010865
 10
2.90032817622001
 20
0.8491951118238749
 10
2.899989326246792
 20
0.8482885079061679
 10
2.899595323033253
 20
0.8474273243040198
 10
2.899128142644655
 20
0.8466122819748189
 10
2.898597157527045
 20
0.845861044374623
 10
2.897992634755672
 20
0.8451739719821244
 10
2.897314574330543
 20
0.844569449210755
 10
2.896572709176417
 20
0.8440474760605167
 10
2.895748294401146
 20
0.8436260764661684
 10
2.894850702450818
 20
0.8433146228737632
 10
2.89387056087935
 20
0.8431224877293726
 10
2.892807869686752
 20
0.8430583225216806
 10
2.891754550940212
 20
0.8431224877293726
 10
2.890774769847445
 20
0.8433146228737632
 10
2.889858793483672
 20
0.8436260764661684
 10
2.889025366741032
 20
0.8440474760605167
 10
2.888256105206088
 20
0.844569449210755
 10
2.88756002084622
 20
0.8451739719821244
 10
2.886927741215339
 20
0.845861044374623
 10
2.886368999238221
 20
0.8466122819748189
 10
2.885883434436179
 20
0.8474273243040198
 10
2.885462395320527
 20
0.8482885079061679
 10
2.885105160933865
 20
0.8491951118238749
 10
2.884812091754898
 20
0.8501294726010865
 10
2.884592199751005
 20
0.8510822177917299
 10
2.884436472954803
 20
0.8520439749497628
 10
2.884335538920222
 20
0.8530057321077884
 10
2.884308142539412
 20
0.8539674892658196
 97
        0
 92
       18
 72
     0
 73
     1
 93
       26
 10
2.916495285208133
 20
0.8640706256481272
 10
2.917804904306759
 20
0.8640342172999381
 10
2.918931760707052
 20
0.8638965144384793
 10
2.919893517865086
 20
0.8636585984998428
 10
2.92031491745944
 20
0.8634844872901968
 10
2.920681163813464
 20
0.8632739677323634
 10
2.921011001819312
 20
0.8630356913150272
 10
2.921295059030894
 20
0.8627516341034379
 10
2.921532974969541
 20
0.8624217960975957
 10
2.921725470592621
 20
0.8620555497435662
 10
2.921881197388826
 20
0.861634150149218
 10
2.921991143390784
 20
0.8611763422066752
 10
2.92208270497929
 20
0.8600862546332583
 10
2.921981770944705
 20
0.8591335094426058
 10
2.921862812975389
 20
0.8587030978808807
 10
2.921688701765739
 20
0.8583000826999733
 10
2.921478182207913
 20
0.8579154519324993
 10
2.921221521377134
 20
0.8575672295132108
 10
2.920580590257585
 20
0.8569536947744628
 10
2.919783571863125
 20
0.8564681299724188
 10
2.919316391474527
 20
0.8562756343493356
 10
2.918821814705097
 20
0.8561199075531358
 10
2.917722715164317
 20
0.8559003760279311
 10
2.916495285208133
 20
0.8558268383741715
 10
2.908773471084416
 20
0.8558268383741715
 10
2.908773471084416
 20
0.8640706256481272
 97
        0
 92
       18
 72
     0
 73
     1
 93
       28
 10
2.916495285208133
 20
0.8537018164676602
 10
2.917988387962472
 20
0.853601242911781
 10
2.919288995093714
 20
0.8533171857001917
 10
2.919856749038194
 20
0.8531063056636676
 10
2.920379082667128
 20
0.8528590172789582
 10
2.92085527502311
 20
0.8525659480999975
 10
2.921276674617457
 20
0.852236470572846
 10
2.921652293417552
 20
0.8518698637401185
 10
2.921981770944705
 20
0.8514668485592056
 10
2.922256816188925
 20
0.8510270645514093
 10
2.922476347714128
 20
0.8505598841628098
 10
2.922650458923774
 20
0.850056295426014
 10
2.922778789339162
 20
0.8495249498297172
 10
2.922879362895034
 20
0.8483800694946704
 10
2.922797173752602
 20
0.8475740391328463
 10
2.922568269781332
 20
0.8467770207383938
 10
2.922164894121717
 20
0.8460077592034513
 10
2.921578755763796
 20
0.8453206868109528
 10
2.921221521377134
 20
0.8450092332185459
 10
2.920809494228855
 20
0.8447251760069566
 10
2.920351325807624
 20
0.8444778876222435
 10
2.919847737070828
 20
0.8442579956183499
 10
2.919288995093714
 20
0.8440932568547751
 10
2.918675099876284
 20
0.8439649264393893
 10
2.918006411897212
 20
0.8438827372969508
 10
2.917291943123895
 20
0.8438549804374352
 10
2.908773471084416
 20
0.8438549804374352
 10
2.908773471084416
 20
0.8537018164676602
 97
        0
 92
       18
 72
     0
 73
     1
 93
       19
 10
2.94443238406385
 20
0.8616799309434655
 10
2.945101072042915
 20
0.8616525345626515
 10
2.945714967260352
 20
0.8615699849415187
 10
2.946255324824026
 20
0.8614142581453152
 10
2.946722505212631
 20
0.8611853541740502
 10
2.947098124012733
 20
0.8608648886142701
 10
2.947381820745631
 20
0.8604434890199164
 10
2.947555931955274
 20
0.8599211553909855
 10
2.947620097162966
 20
0.8592892362388075
 10
2.947555931955274
 20
0.8586389326731887
 10
2.947381820745631
 20
0.8580801906960706
 10
2.947098124012733
 20
0.8576223827535314
 10
2.946722505212631
 20
0.8572557759208039
 10
2.946255324824026
 20
0.8569717187092183
 10
2.945714967260352
 20
0.8567795835648222
 10
2.945101072042915
 20
0.8566606255955039
 10
2.94443238406385
 20
0.8566238567686242
 10
2.939110637090868
 20
0.8566238567686242
 10
2.939110637090868
 20
0.8616799309434655
 97
        0
 92
       18
 72
     0
 73
     1
 93
       19
 10
2.945495075256451
 20
0.8520987677113926
 10
2.946227928443212
 20
0.8520529869171359
 10
2.946850475149317
 20
0.8519066325669983
 10
2.94735442436481
 20
0.8516683561496657
 10
2.947757439545723
 20
0.8513385181438252
 10
2.948050508724686
 20
0.8509171185494661
 10
2.948261388761217
 20
0.850422541780049
 10
2.948380346730526
 20
0.8498364034221167
 10
2.948417115557411
 20
0.8491770878891212
 10
2.948380346730526
 20
0.8485905890525055
 10
2.948243004347769
 20
0.8480412195214531
 10
2.947995715963065
 20
0.8475466427520342
 10
2.947620097162966
 20
0.8471158707116146
 10
2.947098124012733
 20
0.8467496243575834
 10
2.946401679174167
 20
0.8464839515594312
 10
2.945513459669896
 20
0.8463098403497925
 10
2.94443238406385
 20
0.846245675142095
 10
2.939376309889016
 20
0.846245675142095
 10
2.939376309889016
 20
0.8520987677113926
 97
        0
 92
       18
 72
     0
 73
     1
 93
        3
 10
3.064159614919896
 20
0.8603519274314103
 10
3.067081655220856
 20
0.8499737458048813
 10
3.060962889853418
 20
0.8499737458048813
 97
        0
 75
     0
 76
     1
 98
        0
  0
HATCH
  5
83
102
{ACAD_REACTORS
330
82
102
}
330
1F
100
AcDbEntity
  8
XR$1$TB_1110_1
  6
AUSGEZOGEN
 62
     3
440
 33554687
370
    35
100
AcDbHatch
 10
0.0
 20
0.0
 30
0.0
210
0.0
220
0.0
230
1.0
  2
SOLID
 70
     1
 71
     0
 91
        1
 92
        3
 72
     0
 73
     1
 93
       22
 10
2.787461936364242
 20
0.841455273765404
 10
2.80263051936746
 20
0.841455273765404
 10
2.801348296649656
 20
0.8422980729541132
 10
2.800102482280043
 20
0.8432140493178822
 10
2.79890244870467
 20
0.8442215872701608
 10
2.797766580336996
 20
0.8453206868109528
 10
2.796713261590478
 20
0.8465113479402471
 10
2.795742492465073
 20
0.8478213275175595
 10
2.794872296895559
 20
0.8492408926181243
 10
2.794112047327984
 20
0.8507707641993338
 10
2.793644866939379
 20
0.8517692901842356
 10
2.793241851758467
 20
0.8527768281365142
 10
2.792893629339171
 20
0.8537843660888003
 10
2.792600560160219
 20
0.8547919040410789
 10
2.792197544979306
 20
0.8568163523917037
 10
2.79201442180228
 20
0.8588220558502008
 10
2.792050830150478
 20
0.8608007234065763
 10
2.792280094600439
 20
0.862742622136072
 10
2.792701494194793
 20
0.8646387400713075
 10
2.792985190927695
 20
0.8655637284024551
 10
2.793315028933532
 20
0.8664706927988491
 10
2.787461936364242
 20
0.8664706927988491
 97
        0
 75
     0
 76
     1
 98
        0
  0
HATCH
  5
84
102
{ACAD_REACTORS
330
82
102
}
330
1F
100
AcDbEntity
  8
XR$1$TB_1110_1
  6
AUSGEZOGEN
 62
     3
440
 33554687
370
    35
100
AcDbHatch
 10
0.0
 20
0.0
 30
0.0
210
0.0
220
0.0
230
1.0
  2
SOLID
 70
     1
 71
     0
 91
        1
 92
        3
 72
     0
 73
     1
 93
       24
 10
2.800029305104967
 20
0.8451739719821244
 10
2.801238350647702
 20
0.8440564880278953
 10
2.802566354159764
 20
0.843048950075613
 10
2.804004303673774
 20
0.8421881269521664
 10
2.805552559668424
 20
0.841455273765404
 10
2.812467982951628
 20
0.841455273765404
 10
2.812467982951628
 20
0.8664706927988491
 10
2.79890244870467
 20
0.8664706927988491
 10
2.798343706727559
 20
0.8658294012006018
 10
2.797867514371585
 20
0.8651059204599123
 10
2.797043099596318
 20
0.8635392800518267
 10
2.796667480796223
 20
0.862742622136072
 10
2.796337642790375
 20
0.8619272193281732
 10
2.796062958024857
 20
0.8611121769989777
 10
2.795834054053579
 20
0.8602877622237184
 10
2.795513228015105
 20
0.8586389326731887
 10
2.795375885632344
 20
0.8569901031226573
 10
2.795412654459229
 20
0.8553412735721204
 10
2.795614162049682
 20
0.8537292128484797
 10
2.795980408403717
 20
0.852144548505642
 10
2.79650274203264
 20
0.850606025435759
 10
2.797180441979083
 20
0.8491313070948682
 10
2.797995844786969
 20
0.8477203934829804
 10
2.798948229498925
 20
0.8464014019382985
 97
        0
 75
     0
 76
     1
 98
        0
  0
HATCH
  5
85
330
1F
100
AcDbEntity
  8
XR$1$TB_1110_1
  6
AUSGEZOGEN
 62
    18
420
        0
440
 33554687
370
    -3
100
AcDbHatch
 10
0.0
 20
0.0
 30
0.0
210
0.0
220
0.0
230
1.0
  2
SOLID
 70
     1
 71
     0
 91
        1
 92
        3
 72
     0
 73
     1
 93
        8
 10
3.133352932871841
 20
1.646397909181202
 10
3.133352933934176
 20
1.649397909181202
 10
3.123352933934177
 20
1.649397912722318
 10
3.10213972298674
 20
1.628184716798565
 10
3.102139720507957
 20
1.621184716798566
 10
3.1051397206009
 20
1.621447181726809
 10
3.105139722546705
 20
1.626942075049111
 10
3.124595575652081
 20
1.646397914375403
 97
        0
 75
     0
 76
     1
 98
        0
  0
HATCH
  5
86
330
1F
100
AcDbEntity
  8
XR$1$TB_1110_1
  6
AUSGEZOGEN
 62
    18
420
        0
440
 33554687
370
    -3
100
AcDbHatch
 10
0.0
 20
0.0
 30
0.0
210
0.0
220
0.0
230
1.0
  2
SOLID
 70
     1
 71
     0
 91
        1
 92
        3
 72
     0
 73
     1
 93
       10
 10
2.85999464135299
 20
1.593988394520246
 10
3.122595574442241
 20
1.616962905495066
 10
3.122595579753916
 20
1.631962905495065
 10
3.119595579753916
 20
1.6319629065574
 10
3.119595575415692
 20
1.619711900079453
 10
2.856994642326441
 20
1.596737389104633
 10
2.856994620522622
 20
1.535164099025378
 10
2.87325808224899
 20
1.551427549233588
 10
2.871136762656615
 20
1.553548870328332
 10
2.859994623087325
 20
1.542406738650161
 97
        0
 75
     0
 76
     1
 98
        0
  0
HATCH
  5
87
330
1F
100
AcDbEntity
  8
XR$1$TB_1110_1
  6
AUSGEZOGEN
 62
     8
440
 33554687
370
    -3
100
AcDbHatch
 10
0.0
 20
0.0
 30
0.0
210
0.0
220
0.0
230
1.0
  2
SOLID
 70
     1
 71
     0
 91
        1
 92
        3
 72
     0
 73
     1
 93
        4
 10
2.896595658567205
 20
1.508712307026124
 10
2.892195658567205
 20
1.508712308584216
 10
2.892195647943856
 20
1.478712308584218
 10
2.896595647943855
 20
1.478712307026126
 97
        0
 75
     0
 76
     1
 98
        0
  0
HATCH
  5
88
330
1F
100
AcDbEntity
  8
XR$1$TB_1110_1
  6
AUSGEZOGEN
 62
     9
440
 33554687
370
    25
100
AcDbHatch
 10
0.0
 20
0.0
 30
0.0
210
0.0
220
0.0
230
1.0
  2
SOLID
 70
     1
 71
     0
 91
        1
 92
        3
 72
     0
 73
     1
 93
        4
 10
2.884195490534188
 20
1.034192439061228
 10
2.892195490534188
 20
1.034192436228335
 10
2.892195682646787
 20
1.576712278066633
 10
2.884195682646787
 20
1.576712280899526
 97
        0
 75
     0
 76
     1
 98
        0
  0
LINE
  5
89
330
1F
100
AcDbEntity
  8
XR$1$TB_1110_1
  6
AUSGEZOGEN
 62
     1
440
 33554687
370
    70
100
AcDbLine
 10
2.574016
 20
0.718091
 30
0.0
 11
3.624016
 21
0.718091
 31
0.0
  0
MTEXT
  5
8A
330
1F
100
AcDbEntity
  8
XR$1$TB_1110_1
  6
AUSGEZOGEN
 62
     7
440
 33554687
370
    -3
100
AcDbMText
 10
2.691824
 20
0.785469
 30
0.0
 40
0.009
 41
0.89646
 46
0.0
 71
     7
 72
     5
  1
\W0.85;THESE ARE NOT BINDING CONSTRUCTION PROPOSALS WHICH HAVE TO BE VERIFIED FOR EACH INDIVIDUAL PROJECT AS REGARDS APPLICABILITY AND CORRECTNESS.
  7
ARIAL
 73
     1
 44
1.0
  0
MTEXT
  5
8B
330
1F
100
AcDbEntity
  8
XR$1$TB_1110_1
  6
AUSGEZOGEN
 62
     7
440
 33554687
370
    -3
100
AcDbMText
 10
2.691824
 20
0.803469
 30
0.0
 40
0.009
 41
0.8975
 46
0.0
 71
     7
 72
     5
  1
\W0.91;DIES SIND UNVERBINDLICHE KONSTRUKTIONSVORSCHLÄGE, DIE FÜR JEDES PROJEKT AUF ANWENDBARKEIT UND RICHTIGKEIT GEPRÜFT WERDEN MÜSSEN.
  7
ARIAL
 73
     1
 44
1.0
  0
MTEXT
  5
8C
330
1F
100
AcDbEntity
  8
XR$1$TB_1110_1
  6
AUSGEZOGEN
 62
     7
440
 33554687
370
    -3
100
AcDbMText
 10
2.691824
 20
0.767469
 30
0.0
 40
0.009
 41
0.895804
 46
0.0
 71
     7
 72
     5
  1
\W0.80;IL S' AGIT DE PROPOSITIONS DE CONSTRUCTION SANS ENGAGEMENT DE NOTRE PART QUI DOIVENT ETRE VERIFIEES POUR CHAQUE PROJET A LEUR EXACTITUDE ET FAISABILITE.
  7
ARIAL
 73
     1
 44
1.0
  0
MTEXT
  5
8D
330
1F
100
AcDbEntity
  8
XR$1$TB_1110_1
  6
AUSGEZOGEN
 62
     7
440
 33554687
370
    -3
100
AcDbMText
 10
3.106485
 20
0.841398
 30
0.0
 40
0.009
 41
0.348436
 46
0.0
 71
     7
 72
     5
  1
\W0.92;Tel. 09435 / 391 3238   e-mail: as.fassade@deutsche-steinzeug.de
  7
ARIAL
 73
     1
 44
1.0
  0
MTEXT
  5
8E
330
1F
100
AcDbEntity
  8
XR$1$TB_1110_1
  6
AUSGEZOGEN
 62
     7
440
 33554687
370
    -3
100
AcDbMText
 10
2.692172
 20
2.124438
 30
0.0
 40
0.025
 41
0.271273
 46
0.0
 71
     7
 72
     5
  1
\W1.00;FENSTERBANK
  7
ARIAL
 73
     1
 44
1.0
  0
MTEXT
  5
8F
330
1F
100
AcDbEntity
  8
XR$1$TB_1110_1
  6
AUSGEZOGEN
 62
     7
440
 33554687
370
    -3
100
AcDbMText
 10
2.692172
 20
2.089427
 30
0.0
 40
0.0175
 41
0.17325
 46
0.0
 71
     7
 72
     5
  1
\W1.00;WINDOW SILL
  7
ARIAL
 73
     1
 44
1.0
  0
MTEXT
  5
90
330
1F
100
AcDbEntity
  8
XR$1$TB_1110_1
  6
AUSGEZOGEN
 62
     7
440
 33554687
370
    -3
100
AcDbMText
 10
2.692172
 20
2.063177
 30
0.0
 40
0.0175
 41
0.244135
 46
0.0
 71
     7
 72
     5
  1
\W1.00;APPUI DE FENETRE
  7
ARIAL
 73
     1
 44
1.0
  0
LINE
  5
91
330
1F
100
AcDbEntity
  8
XR$1$TB_1110_1
  6
AUSGEZOGEN
 62
     7
440
 33554687
370
    -3
100
AcDbLine
 10
3.122596
 20
1.616963
 30
0.0
 11
3.122596
 21
1.631963
 31
0.0
  0
LINE
  5
92
330
1F
100
AcDbEntity
  8
XR$1$TB_1110_1
  6
AUSGEZOGEN
 62
     7
440
 33554687
370
    -3
100
AcDbLine
 10
3.119596
 20
1.631963
 30
0.0
 11
3.122596
 21
1.631963
 31
0.0
  0
LINE
  5
93
330
1F
100
AcDbEntity
  8
XR$1$TB_1110_1
  6
AUSGEZOGEN
 62
     7
440
 33554687
370
    -3
100
AcDbLine
 10
3.119596
 20
1.619712
 30
0.0
 11
3.119596
 21
1.631963
 31
0.0
  0
LINE
  5
94
330
1F
100
AcDbEntity
  8
XR$1$TB_1110_1
  6
AUSGEZOGEN
 62
     7
440
 33554687
370
    -3
100
AcDbLine
 10
3.123353
 20
1.649398
 30
0.0
 11
3.133353
 21
1.649398
 31
0.0
  0
LINE
  5
95
330
1F
100
AcDbEntity
  8
XR$1$TB_1110_1
  6
AUSGEZOGEN
 62
     7
440
 33554687
370
    -3
100
AcDbLine
 10
3.123353
 20
1.649398
 30
0.0
 11
3.10214
 21
1.628185
 31
0.0
  0
LINE
  5
96
330
1F
100
AcDbEntity
  8
XR$1$TB_1110_1
  6
AUSGEZOGEN
 62
     7
440
 33554687
370
    -3
100
AcDbLine
 10
3.124596
 20
1.646398
 30
0.0
 11
3.10514
 21
1.626942
 31
0.0
  0
LINE
  5
97
330
1F
100
AcDbEntity
  8
XR$1$TB_1110_1
  6
AUSGEZOGEN
 62
     7
440
 33554687
370
    -3
100
AcDbLine
 10
3.124596
 20
1.646398
 30
0.0
 11
3.133353
 21
1.646398
 31
0.0
  0
LINE
  5
98
330
1F
100
AcDbEntity
  8
XR$1$TB_1110_1
  6
AUSGEZOGEN
 62
     7
440
 33554687
370
    -3
100
AcDbLine
 10
3.133353
 20
1.646398
 30
0.0
 11
3.133353
 21
1.649398
 31
0.0
  0
LINE
  5
99
330
1F
100
AcDbEntity
  8
XR$1$TB_1110_1
  6
AUSGEZOGEN
 62
     3
440
 33554687
370
    25
100
AcDbLine
 10
3.124596
 20
1.646398
 30
0.0
 11
3.124596
 21
1.582944
 31
0.0
  0
LINE
  5
9A
330
1F
100
AcDbEntity
  8
XR$1$TB_1110_1
  6
AUSGEZOGEN
 62
     7
440
 33554687
370
    -3
100
AcDbLine
 10
3.124596
 20
1.871692
 30
0.0
 11
3.124596
 21
1.676692
 31
0.0
  0
LINE
  5
9B
330
1F
100
AcDbEntity
  8
XR$1$TB_1110_1
  6
AUSGEZOGEN
 62
     3
440
 33554687
370
    25
100
AcDbLine
 10
3.124596
 20
1.676692
 30
0.0
 11
3.124596
 21
1.649398
 31
0.0
  0
LINE
  5
9C
330
1F
100
AcDbEntity
  8
XR$1$TB_1110_1
  6
AUSGEZOGEN
 62
     7
440
 33554687
370
    -3
100
AcDbLine
 10
3.320596
 20
1.871692
 30
0.0
 11
3.320596
 21
1.612943
 31
0.0
  0
LINE
  5
9D
330
1F
100
AcDbEntity
  8
XR$1$TB_1110_1
  6
AUSGEZOGEN
 62
     7
440
 33554687
370
    -3
100
AcDbLine
 10
3.320596
 20
1.592944
 30
0.0
 11
3.320596
 21
1.582943
 31
0.0
  0
LINE
  5
9E
330
1F
100
AcDbEntity
  8
XR$1$TB_1110_1
  6
AUSGEZOGEN
 62
     7
440
 33554687
370
    -3
100
AcDbLine
 10
3.10214
 20
1.628185
 30
0.0
 11
3.10214
 21
1.621185
 31
0.0
  0
LINE
  5
9F
330
1F
100
AcDbEntity
  8
XR$1$TB_1110_1
  6
AUSGEZOGEN
 62
     7
440
 33554687
370
    -3
100
AcDbLine
 10
3.10514
 20
1.626942
 30
0.0
 11
3.10514
 21
1.621447
 31
0.0
  0
LINE
  5
A0
330
1F
100
AcDbEntity
  8
XR$1$TB_1110_1
  6
AUSGEZOGEN
 62
     7
440
 33554687
370
    -3
100
AcDbLine
 10
3.10514
 20
1.621447
 30
0.0
 11
3.10214
 21
1.621185
 31
0.0
  0
LINE
  5
A1
330
1F
100
AcDbEntity
  8
XR$1$TB_1110_1
  6
AUSGEZOGEN
 62
     3
440
 33554687
370
    -3
100
AcDbLine
 10
3.015595
 20
1.298051
 30
0.0
 11
3.015596
 21
1.458051
 31
0.0
  0
LINE
  5
A2
330
1F
100
AcDbEntity
  8
XR$1$TB_1110_1
  6
STRICHPUNKT2_S5
 62
     6
440
 33554687
370
    35
100
AcDbLine
 10
3.002595
 20
1.327551
 30
0.0
 11
3.120595
 21
1.32755
 31
0.0
  0
LINE
  5
A3
330
1F
100
AcDbEntity
  8
XR$1$TB_1110_1
  6
STRICHPUNKT2_S5
 62
     6
440
 33554687
370
    35
100
AcDbLine
 10
3.002596
 20
1.428551
 30
0.0
 11
3.120596
 21
1.42855
 31
0.0
  0
LINE
  5
A4
330
1F
100
AcDbEntity
  8
XR$1$TB_1110_1
  6
AUSGEZOGEN
 62
    32
440
 33554687
370
    50
100
AcDbLine
 10
3.320596
 20
1.582943
 30
0.0
 11
3.320595
 21
1.034195
 31
0.0
  0
LINE
  5
A5
330
1F
100
AcDbEntity
  8
XR$1$TB_1110_1
  6
AUSGEZOGEN
 62
     7
440
 33554687
370
    -3
100
AcDbLine
 10
3.119596
 20
1.619712
 30
0.0
 11
2.856995
 21
1.596737
 31
0.0
  0
LINE
  5
A6
330
1F
100
AcDbEntity
  8
XR$1$TB_1110_1
  6
AUSGEZOGEN
 62
     7
440
 33554687
370
    -3
100
AcDbLine
 10
2.856995
 20
1.596737
 30
0.0
 11
2.856995
 21
1.535164
 31
0.0
  0
LINE
  5
A7
330
1F
100
AcDbEntity
  8
XR$1$TB_1110_1
  6
AUSGEZOGEN
 62
     7
440
 33554687
370
    -3
100
AcDbLine
 10
2.856995
 20
1.535164
 30
0.0
 11
2.873258
 21
1.551428
 31
0.0
  0
LINE
  5
A8
330
1F
100
AcDbEntity
  8
XR$1$TB_1110_1
  6
AUSGEZOGEN
 62
     7
440
 33554687
370
    -3
100
AcDbLine
 10
2.859995
 20
1.542407
 30
0.0
 11
2.871137
 21
1.553549
 31
0.0
  0
LINE
  5
A9
330
1F
100
AcDbEntity
  8
XR$1$TB_1110_1
  6
AUSGEZOGEN
 62
     7
440
 33554687
370
    -3
100
AcDbLine
 10
2.859995
 20
1.593988
 30
0.0
 11
2.859995
 21
1.542407
 31
0.0
  0
LINE
  5
AA
330
1F
100
AcDbEntity
  8
XR$1$TB_1110_1
  6
AUSGEZOGEN
 62
     7
440
 33554687
370
    -3
100
AcDbLine
 10
2.873258
 20
1.551428
 30
0.0
 11
2.871137
 21
1.553549
 31
0.0
  0
LINE
  5
AB
330
1F
100
AcDbEntity
  8
XR$1$TB_1110_1
  6
AUSGEZOGEN
 62
     7
440
 33554687
370
    -3
100
AcDbLine
 10
2.864995
 20
1.589407
 30
0.0
 11
2.864995
 21
1.552407
 31
0.0
  0
LINE
  5
AC
330
1F
100
AcDbEntity
  8
XR$1$TB_1110_1
  6
AUSGEZOGEN
 62
     7
440
 33554687
370
    -3
100
AcDbLine
 10
2.861995
 20
1.592156
 30
0.0
 11
2.861995
 21
1.552407
 31
0.0
  0
LINE
  5
AD
330
1F
100
AcDbEntity
  8
XR$1$TB_1110_1
  6
AUSGEZOGEN
 62
     7
440
 33554687
370
    -3
100
AcDbLine
 10
2.864995
 20
1.552407
 30
0.0
 11
2.861995
 21
1.552407
 31
0.0
  0
LINE
  5
AE
330
1F
100
AcDbEntity
  8
XR$1$TB_1110_1
  6
AUSGEZOGEN
 62
     7
440
 33554687
370
    -3
100
AcDbLine
 10
3.124596
 20
1.617138
 30
0.0
 11
2.859995
 21
1.593988
 31
0.0
  0
LINE
  5
AF
330
1F
100
AcDbEntity
  8
XR$1$TB_1110_1
  6
STRICHPUNKT2_S5
 62
     7
440
 33554687
370
    -3
100
AcDbLine
 10
2.870595
 20
1.034194
 30
0.0
 11
3.340595
 21
1.034195
 31
0.0
  0
LINE
  5
B0
330
1F
100
AcDbEntity
  8
XR$1$TB_1110_1
  6
AUSGEZOGEN
 62
     7
440
 33554687
370
    -3
100
AcDbLine
 10
2.870596
 20
1.871693
 30
0.0
 11
2.870596
 21
1.597927
 31
0.0
  0
LINE
  5
B1
330
1F
100
AcDbEntity
  8
XR$1$TB_1110_1
  6
STRICHPUNKT2_S5
 62
     7
440
 33554687
370
    -3
100
AcDbLine
 10
2.850596
 20
1.871693
 30
0.0
 11
3.340596
 21
1.871692
 31
0.0
  0
LINE
  5
B2
330
1F
100
AcDbEntity
  8
XR$1$TB_1110_1
  6
AUSGEZOGEN
 62
    52
440
 33554687
370
    -3
100
AcDbLine
 10
3.118596
 20
1.582944
 30
0.0
 11
3.111596
 21
1.616001
 31
0.0
  0
LINE
  5
B3
330
1F
100
AcDbEntity
  8
XR$1$TB_1110_1
  6
AUSGEZOGEN
 62
    52
440
 33554687
370
    -3
100
AcDbLine
 10
3.111596
 20
1.616001
 30
0.0
 11
3.104596
 21
1.582944
 31
0.0
  0
LINE
  5
B4
330
1F
100
AcDbEntity
  8
XR$1$TB_1110_1
  6
AUSGEZOGEN
 62
    52
440
 33554687
370
    -3
100
AcDbLine
 10
3.104596
 20
1.582944
 30
0.0
 11
3.097596
 21
1.614776
 31
0.0
  0
LINE
  5
B5
330
1F
100
AcDbEntity
  8
XR$1$TB_1110_1
  6
AUSGEZOGEN
 62
    52
440
 33554687
370
    -3
100
AcDbLine
 10
3.097596
 20
1.614776
 30
0.0
 11
3.090596
 21
1.582944
 31
0.0
  0
LINE
  5
B6
330
1F
100
AcDbEntity
  8
XR$1$TB_1110_1
  6
AUSGEZOGEN
 62
    52
440
 33554687
370
    -3
100
AcDbLine
 10
3.090596
 20
1.582944
 30
0.0
 11
3.083596
 21
1.613551
 31
0.0
  0
LINE
  5
B7
330
1F
100
AcDbEntity
  8
XR$1$TB_1110_1
  6
AUSGEZOGEN
 62
    52
440
 33554687
370
    -3
100
AcDbLine
 10
3.083596
 20
1.613551
 30
0.0
 11
3.076596
 21
1.582944
 31
0.0
  0
LINE
  5
B8
330
1F
100
AcDbEntity
  8
XR$1$TB_1110_1
  6
AUSGEZOGEN
 62
    52
440
 33554687
370
    -3
100
AcDbLine
 10
3.076596
 20
1.582944
 30
0.0
 11
3.069596
 21
1.612326
 31
0.0
  0
LINE
  5
B9
330
1F
100
AcDbEntity
  8
XR$1$TB_1110_1
  6
AUSGEZOGEN
 62
    52
440
 33554687
370
    -3
100
AcDbLine
 10
3.069596
 20
1.612326
 30
0.0
 11
3.062596
 21
1.582944
 31
0.0
  0
LINE
  5
BA
330
1F
100
AcDbEntity
  8
XR$1$TB_1110_1
  6
AUSGEZOGEN
 62
    52
440
 33554687
370
    -3
100
AcDbLine
 10
3.062596
 20
1.582944
 30
0.0
 11
3.055596
 21
1.611101
 31
0.0
  0
LINE
  5
BB
330
1F
100
AcDbEntity
  8
XR$1$TB_1110_1
  6
AUSGEZOGEN
 62
    52
440
 33554687
370
    -3
100
AcDbLine
 10
3.055596
 20
1.611101
 30
0.0
 11
3.048596
 21
1.582944
 31
0.0
  0
LINE
  5
BC
330
1F
100
AcDbEntity
  8
XR$1$TB_1110_1
  6
AUSGEZOGEN
 62
    52
440
 33554687
370
    -3
100
AcDbLine
 10
3.048596
 20
1.582944
 30
0.0
 11
3.041596
 21
1.609876
 31
0.0
  0
LINE
  5
BD
330
1F
100
AcDbEntity
  8
XR$1$TB_1110_1
  6
AUSGEZOGEN
 62
    52
440
 33554687
370
    -3
100
AcDbLine
 10
3.041596
 20
1.609876
 30
0.0
 11
3.034596
 21
1.582944
 31
0.0
  0
LINE
  5
BE
330
1F
100
AcDbEntity
  8
XR$1$TB_1110_1
  6
AUSGEZOGEN
 62
    52
440
 33554687
370
    -3
100
AcDbLine
 10
3.034596
 20
1.582944
 30
0.0
 11
3.027596
 21
1.608652
 31
0.0
  0
LINE
  5
BF
330
1F
100
AcDbEntity
  8
XR$1$TB_1110_1
  6
AUSGEZOGEN
 62
    52
440
 33554687
370
    -3
100
AcDbLine
 10
3.124413
 20
1.617122
 30
0.0
 11
3.118596
 21
1.582944
 31
0.0
  0
LINE
  5
C0
330
1F
100
AcDbEntity
  8
XR$1$TB_1110_1
  6
AUSGEZOGEN
 62
    52
440
 33554687
370
    -3
100
AcDbLine
 10
3.013461
 20
1.602396
 30
0.0
 11
3.006596
 21
1.582944
 31
0.0
  0
LINE
  5
C1
330
1F
100
AcDbEntity
  8
XR$1$TB_1110_1
  6
AUSGEZOGEN
 62
    52
440
 33554687
370
    -3
100
AcDbLine
 10
3.006596
 20
1.582944
 30
0.0
 11
2.999589
 21
1.601182
 31
0.0
  0
LINE
  5
C2
330
1F
100
AcDbEntity
  8
XR$1$TB_1110_1
  6
AUSGEZOGEN
 62
    52
440
 33554687
370
    -3
100
AcDbLine
 10
2.999589
 20
1.601182
 30
0.0
 11
2.992596
 21
1.582944
 31
0.0
  0
LINE
  5
C3
330
1F
100
AcDbEntity
  8
XR$1$TB_1110_1
  6
AUSGEZOGEN
 62
    52
440
 33554687
370
    -3
100
AcDbLine
 10
2.992596
 20
1.582944
 30
0.0
 11
2.985591
 21
1.599957
 31
0.0
  0
LINE
  5
C4
330
1F
100
AcDbEntity
  8
XR$1$TB_1110_1
  6
AUSGEZOGEN
 62
    52
440
 33554687
370
    -3
100
AcDbLine
 10
2.985591
 20
1.599957
 30
0.0
 11
2.978596
 21
1.582944
 31
0.0
  0
LINE
  5
C5
330
1F
100
AcDbEntity
  8
XR$1$TB_1110_1
  6
AUSGEZOGEN
 62
    52
440
 33554687
370
    -3
100
AcDbLine
 10
2.978596
 20
1.582944
 30
0.0
 11
2.97162
 21
1.598735
 31
0.0
  0
LINE
  5
C6
330
1F
100
AcDbEntity
  8
XR$1$TB_1110_1
  6
AUSGEZOGEN
 62
    52
440
 33554687
370
    -3
100
AcDbLine
 10
2.97162
 20
1.598735
 30
0.0
 11
2.964596
 21
1.582944
 31
0.0
  0
LINE
  5
C7
330
1F
100
AcDbEntity
  8
XR$1$TB_1110_1
  6
AUSGEZOGEN
 62
    52
440
 33554687
370
    -3
100
AcDbLine
 10
2.962396
 20
1.582944
 30
0.0
 11
2.955424
 21
1.597318
 31
0.0
  0
LINE
  5
C8
330
1F
100
AcDbEntity
  8
XR$1$TB_1110_1
  6
VERDECKT2_S2
 62
     7
440
 33554687
370
    -3
100
AcDbLine
 10
3.012595
 20
1.298051
 30
0.0
 11
3.012596
 21
1.458051
 31
0.0
  0
MTEXT
  5
C9
330
1F
100
AcDbEntity
  8
XR$1$TB_1110_1
  6
AUSGEZOGEN
 62
     7
440
 33554687
370
    -3
100
AcDbMText
 10
2.693477
 20
2.00413
 30
0.0
 40
0.025
 41
0.797942
 46
0.0
 71
     7
 72
     5
  1
\W1.00;KerAion SYSTEM K8 - KLAMMERBEFESTIGUNG
  7
ARIAL
 73
     1
 44
1.0
  0
LINE
  5
CA
330
1F
100
AcDbEntity
  8
XR$1$TB_1110_1
  6
AUSGEZOGEN
 62
     3
440
 33554687
370
    25
100
AcDbLine
 10
3.320596
 20
1.592944
 30
0.0
 11
3.320596
 21
1.597943
 31
0.0
  0
LINE
  5
CB
330
1F
100
AcDbEntity
  8
XR$1$TB_1110_1
  6
AUSGEZOGEN
 62
     3
440
 33554687
370
    25
100
AcDbLine
 10
3.124596
 20
1.592944
 30
0.0
 11
3.320596
 21
1.592944
 31
0.0
  0
LINE
  5
CC
330
1F
100
AcDbEntity
  8
XR$1$TB_1110_1
  6
AUSGEZOGEN
 62
     3
440
 33554687
370
    25
100
AcDbLine
 10
3.320596
 20
1.592944
 30
0.0
 11
3.320596
 21
1.612943
 31
0.0
  0
LINE
  5
CD
330
1F
100
AcDbEntity
  8
XR$1$TB_1110_1
  6
AUSGEZOGEN
 62
    52
440
 33554687
370
    70
100
AcDbLine
 10
2.574006
 20
2.203076
 30
0.0
 11
2.574006
 21
0.718091
 31
0.0
  0
LINE
  5
CE
330
1F
100
AcDbEntity
  8
XR$1$TB_1110_1
  6
AUSGEZOGEN
 62
    52
440
 33554687
370
    70
100
AcDbLine
 10
3.623995
 20
0.718091
 30
0.0
 11
3.623995
 21
2.203076
 31
0.0
  0
LINE
  5
CF
330
1F
100
AcDbEntity
  8
XR$1$TB_1110_1
  6
AUSGEZOGEN
 62
    52
440
 33554687
370
    70
100
AcDbLine
 10
3.623995
 20
2.203076
 30
0.0
 11
2.574006
 21
2.203076
 31
0.0
  0
LINE
  5
D0
330
1F
100
AcDbEntity
  8
XR$1$TB_1110_1
  6
AUSGEZOGEN
 62
    52
440
 33554687
370
    70
100
AcDbLine
 10
3.624006
 20
2.203076
 30
0.0
 11
2.574006
 21
2.203076
 31
0.0
  0
LINE
  5
D1
330
1F
100
AcDbEntity
  8
XR$1$TB_1110_1
  6
AUSGEZOGEN
 62
     3
440
 33554687
370
    -3
100
AcDbLine
 10
2.915596
 20
1.458051
 30
0.0
 11
2.915595
 21
1.298051
 31
0.0
  0
CIRCLE
  5
D2
330
1F
100
AcDbEntity
  8
XR$1$TB_1110_1
  6
AUSGEZOGEN
 62
     7
440
 33554687
370
    -3
100
AcDbCircle
 10
2.928596
 20
1.445051
 30
0.0
 40
0.0015
  0
CIRCLE
  5
D3
330
1F
100
AcDbEntity
  8
XR$1$TB_1110_1
  6
AUSGEZOGEN
 62
     7
440
 33554687
370
    -3
100
AcDbCircle
 10
2.928596
 20
1.445051
 30
0.0
 40
0.005
  0
CIRCLE
  5
D4
330
1F
100
AcDbEntity
  8
XR$1$TB_1110_1
  6
AUSGEZOGEN
 62
     7
440
 33554687
370
    -3
100
AcDbCircle
 10
2.928595
 20
1.311051
 30
0.0
 40
0.0015
  0
CIRCLE
  5
D5
330
1F
100
AcDbEntity
  8
XR$1$TB_1110_1
  6
AUSGEZOGEN
 62
     7
440
 33554687
370
    -3
100
AcDbCircle
 10
2.928595
 20
1.311051
 30
0.0
 40
0.005
  0
ARC
  5
D6
330
1F
100
AcDbEntity
  8
XR$1$TB_1110_1
  6
AUSGEZOGEN
 62
     7
440
 33554687
370
    -3
100
AcDbCircle
 10
2.928596
 20
1.430051
 30
0.0
 40
0.0025
100
AcDbArc
 50
359.99998
 51
179.99998
  0
ARC
  5
D7
330
1F
100
AcDbEntity
  8
XR$1$TB_1110_1
  6
AUSGEZOGEN
 62
     7
440
 33554687
370
    -3
100
AcDbCircle
 10
2.928596
 20
1.410051
 30
0.0
 40
0.0025
100
AcDbArc
 50
179.99998
 51
359.99998
  0
ARC
  5
D8
330
1F
100
AcDbEntity
  8
XR$1$TB_1110_1
  6
AUSGEZOGEN
 62
     7
440
 33554687
370
    -3
100
AcDbCircle
 10
2.928596
 20
1.388051
 30
0.0
 40
0.0025
100
AcDbArc
 50
359.99998
 51
179.99998
  0
ARC
  5
D9
330
1F
100
AcDbEntity
  8
XR$1$TB_1110_1
  6
AUSGEZOGEN
 62
     7
440
 33554687
370
    -3
100
AcDbCircle
 10
2.928596
 20
1.368051
 30
0.0
 40
0.0025
100
AcDbArc
 50
179.99998
 51
359.99998
  0
ARC
  5
DA
330
1F
100
AcDbEntity
  8
XR$1$TB_1110_1
  6
AUSGEZOGEN
 62
     7
440
 33554687
370
    -3
100
AcDbCircle
 10
2.928596
 20
1.346051
 30
0.0
 40
0.0025
100
AcDbArc
 50
359.99998
 51
179.99998
  0
ARC
  5
DB
330
1F
100
AcDbEntity
  8
XR$1$TB_1110_1
  6
AUSGEZOGEN
 62
     7
440
 33554687
370
    -3
100
AcDbCircle
 10
2.928595
 20
1.326051
 30
0.0
 40
0.0025
100
AcDbArc
 50
179.99998
 51
359.99998
  0
LINE
  5
DC
330
1F
100
AcDbEntity
  8
XR$1$TB_1110_1
  6
AUSGEZOGEN
 62
     7
440
 33554687
370
    -3
100
AcDbLine
 10
2.931095
 20
1.326051
 30
0.0
 11
2.931096
 21
1.346051
 31
0.0
  0
LINE
  5
DD
330
1F
100
AcDbEntity
  8
XR$1$TB_1110_1
  6
AUSGEZOGEN
 62
     7
440
 33554687
370
    -3
100
AcDbLine
 10
2.926096
 20
1.346051
 30
0.0
 11
2.926095
 21
1.326051
 31
0.0
  0
LINE
  5
DE
330
1F
100
AcDbEntity
  8
XR$1$TB_1110_1
  6
AUSGEZOGEN
 62
     7
440
 33554687
370
    -3
100
AcDbLine
 10
2.926096
 20
1.368051
 30
0.0
 11
2.926096
 21
1.388051
 31
0.0
  0
LINE
  5
DF
330
1F
100
AcDbEntity
  8
XR$1$TB_1110_1
  6
AUSGEZOGEN
 62
     7
440
 33554687
370
    -3
100
AcDbLine
 10
2.931096
 20
1.388051
 30
0.0
 11
2.931096
 21
1.368051
 31
0.0
  0
LINE
  5
E0
330
1F
100
AcDbEntity
  8
XR$1$TB_1110_1
  6
AUSGEZOGEN
 62
     7
440
 33554687
370
    -3
100
AcDbLine
 10
2.931096
 20
1.410051
 30
0.0
 11
2.931096
 21
1.430051
 31
0.0
  0
LINE
  5
E1
330
1F
100
AcDbEntity
  8
XR$1$TB_1110_1
  6
AUSGEZOGEN
 62
     7
440
 33554687
370
    -3
100
AcDbLine
 10
2.926096
 20
1.430051
 30
0.0
 11
2.926096
 21
1.410051
 31
0.0
  0
LINE
  5
E2
330
1F
100
AcDbEntity
  8
XR$1$TB_1110_1
  6
AUSGEZOGEN
 62
     6
440
 33554687
370
    25
100
AcDbLine
 10
2.892196
 20
1.576712
 30
0.0
 11
2.884196
 21
1.576712
 31
0.0
  0
LINE
  5
E3
330
1F
100
AcDbEntity
  8
XR$1$TB_1110_1
  6
AUSGEZOGEN
 62
     7
440
 33554687
370
    -3
100
AcDbLine
 10
2.896596
 20
1.558712
 30
0.0
 11
2.896596
 21
1.574213
 31
0.0
  0
LINE
  5
E4
330
1F
100
AcDbEntity
  8
XR$1$TB_1110_1
  6
AUSGEZOGEN
 62
     7
440
 33554687
370
    -3
100
AcDbLine
 10
2.896596
 20
1.478712
 30
0.0
 11
2.892196
 21
1.478712
 31
0.0
  0
LINE
  5
E5
330
1F
100
AcDbEntity
  8
XR$1$TB_1110_1
  6
AUSGEZOGEN
 62
     7
440
 33554687
370
    -3
100
AcDbLine
 10
2.896596
 20
1.508712
 30
0.0
 11
2.892196
 21
1.508712
 31
0.0
  0
LINE
  5
E6
330
1F
100
AcDbEntity
  8
XR$1$TB_1110_1
  6
AUSGEZOGEN
 62
     1
440
 33554687
370
    -3
100
AcDbLine
 10
2.904596
 20
1.566567
 30
0.0
 11
2.892596
 21
1.566567
 31
0.0
  0
LINE
  5
E7
330
1F
100
AcDbEntity
  8
XR$1$TB_1110_1
  6
AUSGEZOGEN
 62
     1
440
 33554687
370
    -3
100
AcDbLine
 10
2.892596
 20
1.536567
 30
0.0
 11
2.904596
 21
1.536567
 31
0.0
  0
LINE
  5
E8
330
1F
100
AcDbEntity
  8
XR$1$TB_1110_1
  6
AUSGEZOGEN
 62
     6
440
 33554687
370
    25
100
AcDbLine
 10
2.892195
 20
1.034192
 30
0.0
 11
2.892196
 21
1.576712
 31
0.0
  0
LINE
  5
E9
330
1F
100
AcDbEntity
  8
XR$1$TB_1110_1
  6
AUSGEZOGEN
 62
     6
440
 33554687
370
    25
100
AcDbLine
 10
2.884195
 20
1.034192
 30
0.0
 11
2.884196
 21
1.576712
 31
0.0
  0
LINE
  5
EA
330
1F
100
AcDbEntity
  8
XR$1$TB_1110_1
  6
AUSGEZOGEN
 62
     3
440
 33554687
370
    -3
100
AcDbLine
 10
2.899596
 20
1.574213
 30
0.0
 11
2.899595
 21
1.034192
 31
0.0
  0
LINE
  5
EB
330
1F
100
AcDbEntity
  8
XR$1$TB_1110_1
  6
AUSGEZOGEN
 62
     3
440
 33554687
370
    -3
100
AcDbLine
 10
2.896596
 20
1.574213
 30
0.0
 11
2.896595
 21
1.034192
 31
0.0
  0
LINE
  5
EC
330
1F
100
AcDbEntity
  8
XR$1$TB_1110_1
  6
AUSGEZOGEN
 62
     7
440
 33554687
370
    -3
100
AcDbLine
 10
2.895196
 20
1.577567
 30
0.0
 11
2.894196
 21
1.577567
 31
0.0
  0
ARC
  5
ED
330
1F
100
AcDbEntity
  8
XR$1$TB_1110_1
  6
AUSGEZOGEN
 62
     7
440
 33554687
370
    -3
100
AcDbCircle
 10
2.895395
 20
1.577617
 30
0.0
 40
0.0014999984
100
AcDbArc
 50
359.999841
 51
89.999924
  0
LINE
  5
EE
330
1F
100
AcDbEntity
  8
XR$1$TB_1110_1
  6
AUSGEZOGEN
 62
     7
440
 33554687
370
    -3
100
AcDbLine
 10
2.894096
 20
1.579117
 30
0.0
 11
2.895396
 21
1.579117
 31
0.0
  0
LINE
  5
EF
330
1F
100
AcDbEntity
  8
XR$1$TB_1110_1
  6
AUSGEZOGEN
 62
     7
440
 33554687
370
    -3
100
AcDbLine
 10
2.887784
 20
1.579117
 30
0.0
 11
2.892296
 21
1.579117
 31
0.0
  0
LINE
  5
F0
330
1F
100
AcDbEntity
  8
XR$1$TB_1110_1
  6
AUSGEZOGEN
 62
     7
440
 33554687
370
    -3
100
AcDbLine
 10
2.892296
 20
1.577917
 30
0.0
 11
2.887784
 21
1.577917
 31
0.0
  0
ARC
  5
F1
330
1F
100
AcDbEntity
  8
XR$1$TB_1110_1
  6
AUSGEZOGEN
 62
     7
440
 33554687
370
    -3
100
AcDbCircle
 10
2.893195
 20
1.579117
 30
0.0
 40
0.0015000012
100
AcDbArc
 50
233.130022
 51
306.869748
  0
LINE
  5
F2
330
1F
100
AcDbEntity
  8
XR$1$TB_1110_1
  6
AUSGEZOGEN
 62
     7
440
 33554687
370
    -3
100
AcDbLine
 10
2.895196
 20
1.577917
 30
0.0
 11
2.894096
 21
1.577917
 31
0.0
  0
LINE
  5
F3
330
1F
100
AcDbEntity
  8
XR$1$TB_1110_1
  6
AUSGEZOGEN
 62
     7
440
 33554687
370
    -3
100
AcDbLine
 10
2.894196
 20
1.577567
 30
0.0
 11
2.894196
 21
1.525567
 31
0.0
  0
LINE
  5
F4
330
1F
100
AcDbEntity
  8
XR$1$TB_1110_1
  6
AUSGEZOGEN
 62
     7
440
 33554687
370
    -3
100
AcDbLine
 10
2.895396
 20
1.528361
 30
0.0
 11
2.895396
 21
1.574774
 31
0.0
  0
LINE
  5
F5
330
1F
100
AcDbEntity
  8
XR$1$TB_1110_1
  6
AUSGEZOGEN
 62
     7
440
 33554687
370
    -3
100
AcDbLine
 10
2.894196
 20
1.525789
 30
0.0
 11
2.895396
 21
1.528361
 31
0.0
  0
LINE
  5
F6
330
1F
100
AcDbEntity
  8
XR$1$TB_1110_1
  6
AUSGEZOGEN
 62
     7
440
 33554687
370
    -3
100
AcDbLine
 10
2.895196
 20
1.525567
 30
0.0
 11
2.894196
 21
1.525567
 31
0.0
  0
LINE
  5
F7
330
1F
100
AcDbEntity
  8
XR$1$TB_1110_1
  6
AUSGEZOGEN
 62
     1
440
 33554687
370
    -3
100
AcDbLine
 10
2.895196
 20
1.525567
 30
0.0
 11
2.896596
 21
1.528567
 31
0.0
  0
LINE
  5
F8
330
1F
100
AcDbEntity
  8
XR$1$TB_1110_1
  6
AUSGEZOGEN
 62
     7
440
 33554687
370
    -3
100
AcDbLine
 10
2.896596
 20
1.528567
 30
0.0
 11
2.896596
 21
1.574567
 31
0.0
  0
LINE
  5
F9
330
1F
100
AcDbEntity
  8
XR$1$TB_1110_1
  6
AUSGEZOGEN
 62
     7
440
 33554687
370
    -3
100
AcDbLine
 10
2.896896
 20
1.577617
 30
0.0
 11
2.896896
 21
1.567717
 31
0.0
  0
LINE
  5
FA
330
1F
100
AcDbEntity
  8
XR$1$TB_1110_1
  6
AUSGEZOGEN
 62
     1
440
 33554687
370
    -3
100
AcDbLine
 10
2.895196
 20
1.577567
 30
0.0
 11
2.896596
 21
1.574567
 31
0.0
  0
LINE
  5
FB
330
1F
100
AcDbEntity
  8
XR$1$TB_1110_1
  6
AUSGEZOGEN
 62
     7
440
 33554687
370
    -3
100
AcDbLine
 10
2.894196
 20
1.577345
 30
0.0
 11
2.895396
 21
1.574774
 31
0.0
  0
LINE
  5
FC
330
1F
100
AcDbEntity
  8
XR$1$TB_1110_1
  6
AUSGEZOGEN
 62
     7
440
 33554687
370
    -3
100
AcDbLine
 10
2.895696
 20
1.576496
 30
0.0
 11
2.895696
 21
1.577417
 31
0.0
  0
ARC
  5
FD
330
1F
100
AcDbEntity
  8
XR$1$TB_1110_1
  6
AUSGEZOGEN
 62
     1
440
 33554687
370
    -3
100
AcDbCircle
 10
2.895196
 20
1.572568
 30
0.0
 40
0.0030002787
100
AcDbArc
 50
109.482074
 51
250.517886
  0
ARC
  5
FE
330
1F
100
AcDbEntity
  8
XR$1$TB_1110_1
  6
AUSGEZOGEN
 62
     7
440
 33554687
370
    -3
100
AcDbCircle
 10
2.895195
 20
1.577417
 30
0.0
 40
0.0005000001
100
AcDbArc
 50
359.99998
 51
90.000052
  0
ARC
  5
FF
330
1F
100
AcDbEntity
  8
XR$1$TB_1110_1
  6
AUSGEZOGEN
 62
     7
440
 33554687
370
    -3
100
AcDbCircle
 10
2.895395
 20
1.567717
 30
0.0
 40
0.0014999994
100
AcDbArc
 50
323.151661
 51
359.999927
  0
ARC
  5
100
330
1F
100
AcDbEntity
  8
XR$1$TB_1110_1
  6
AUSGEZOGEN
 62
     7
440
 33554687
370
    -3
100
AcDbCircle
 10
2.894395
 20
1.565917
 30
0.0
 40
0.0014999984
100
AcDbArc
 50
97.649
 51
179.999934
  0
LINE
  5
101
330
1F
100
AcDbEntity
  8
XR$1$TB_1110_1
  6
AUSGEZOGEN
 62
     7
440
 33554687
370
    -3
100
AcDbLine
 10
2.892896
 20
1.549717
 30
0.0
 11
2.892896
 21
1.565917
 31
0.0
  0
ARC
  5
102
330
1F
100
AcDbEntity
  8
XR$1$TB_1110_1
  6
AUSGEZOGEN
 62
     7
440
 33554687
370
    -3
100
AcDbCircle
 10
2.894395
 20
1.549717
 30
0.0
 40
0.0014999994
100
AcDbArc
 50
179.999838
 51
262.348575
  0
ARC
  5
103
330
1F
100
AcDbEntity
  8
XR$1$TB_1110_1
  6
AUSGEZOGEN
 62
     1
440
 33554687
370
    -3
100
AcDbCircle
 10
2.895196
 20
1.530568
 30
0.0
 40
0.0030002759
100
AcDbArc
 50
109.481924
 51
250.518036
  0
ARC
  5
104
330
1F
100
AcDbEntity
  8
XR$1$TB_1110_1
  6
AUSGEZOGEN
 62
     7
440
 33554687
370
    -3
100
AcDbCircle
 10
2.893195
 20
1.580317
 30
0.0
 40
0.0015000012
100
AcDbArc
 50
233.130022
 51
306.869748
  0
LINE
  5
105
330
1F
100
AcDbEntity
  8
XR$1$TB_1110_1
  6
AUSGEZOGEN
 62
     7
440
 33554687
370
    -3
100
AcDbLine
 10
2.882996
 20
1.567117
 30
0.0
 11
2.881796
 21
1.567117
 31
0.0
  0
ARC
  5
106
330
1F
100
AcDbEntity
  8
XR$1$TB_1110_1
  6
AUSGEZOGEN
 62
     7
440
 33554687
370
    -3
100
AcDbCircle
 10
2.883924
 20
1.576917
 30
0.0
 40
0.0009999997
100
AcDbArc
 50
89.99987
 51
181.591013
  0
LINE
  5
107
330
1F
100
AcDbEntity
  8
XR$1$TB_1110_1
  6
AUSGEZOGEN
 62
     7
440
 33554687
370
    -3
100
AcDbLine
 10
2.881796
 20
1.567117
 30
0.0
 11
2.881734
 21
1.57758
 31
0.0
  0
LINE
  5
108
330
1F
100
AcDbEntity
  8
XR$1$TB_1110_1
  6
AUSGEZOGEN
 62
     7
440
 33554687
370
    -3
100
AcDbLine
 10
2.882924
 20
1.576889
 30
0.0
 11
2.882996
 21
1.567117
 31
0.0
  0
LINE
  5
109
330
1F
100
AcDbEntity
  8
XR$1$TB_1110_1
  6
AUSGEZOGEN
 62
     7
440
 33554687
370
    -3
100
AcDbLine
 10
2.883234
 20
1.579117
 30
0.0
 11
2.887784
 21
1.579117
 31
0.0
  0
LINE
  5
10A
330
1F
100
AcDbEntity
  8
XR$1$TB_1110_1
  6
AUSGEZOGEN
 62
     7
440
 33554687
370
    -3
100
AcDbLine
 10
2.887784
 20
1.577917
 30
0.0
 11
2.883924
 21
1.577917
 31
0.0
  0
ARC
  5
10B
330
1F
100
AcDbEntity
  8
XR$1$TB_1110_1
  6
AUSGEZOGEN
 62
     7
440
 33554687
370
    -3
100
AcDbCircle
 10
2.883233
 20
1.577617
 30
0.0
 40
0.0015000007
100
AcDbArc
 50
89.999924
 51
181.431924
  0
LINE
  5
10C
330
1F
100
AcDbEntity
  8
XR$1$TB_1110_1
  6
AUSGEZOGEN
 62
    52
440
 33554687
370
    -3
100
AcDbLine
 10
2.949596
 20
1.034193
 30
0.0
 11
2.949596
 21
1.298049
 31
0.0
  0
LINE
  5
10D
330
1F
100
AcDbEntity
  8
XR$1$TB_1110_1
  6
AUSGEZOGEN
 62
    52
440
 33554687
370
    -3
100
AcDbLine
 10
2.949596
 20
1.574213
 30
0.0
 11
2.896596
 21
1.574213
 31
0.0
  0
LINE
  5
10E
330
1F
100
AcDbEntity
  8
XR$1$TB_1110_1
  6
AUSGEZOGEN
 62
    52
440
 33554687
370
    -3
100
AcDbLine
 10
2.955424
 20
1.597318
 30
0.0
 11
2.949596
 21
1.582944
 31
0.0
  0
LINE
  5
10F
330
1F
100
AcDbEntity
  8
XR$1$TB_1110_1
  6
AUSGEZOGEN
 62
    52
440
 33554687
370
    -3
100
AcDbLine
 10
2.949596
 20
1.458051
 30
0.0
 11
2.949596
 21
1.596808
 31
0.0
  0
LINE
  5
110
330
1F
100
AcDbEntity
  8
XR$1$TB_1110_1
  6
AUSGEZOGEN
 62
    32
440
 33554687
370
    50
100
AcDbLine
 10
3.320596
 20
1.582943
 30
0.0
 11
3.021596
 21
1.582944
 31
0.0
  0
LINE
  5
111
330
1F
100
AcDbEntity
  8
XR$1$TB_1110_1
  6
AUSGEZOGEN
 62
    32
440
 33554687
370
    50
100
AcDbLine
 10
3.021596
 20
1.582944
 30
0.0
 11
3.021595
 21
1.034195
 31
0.0
  0
LINE
  5
112
330
1F
100
AcDbEntity
  8
XR$1$TB_1110_1
  6
AUSGEZOGEN
 62
    52
440
 33554687
370
    -3
100
AcDbLine
 10
3.027596
 20
1.608652
 30
0.0
 11
3.021596
 21
1.582944
 31
0.0
  0
LINE
  5
113
330
1F
100
AcDbEntity
  8
XR$1$TB_1110_1
  6
AUSGEZOGEN
 62
     3
440
 33554687
370
    -3
100
AcDbLine
 10
2.915595
 20
1.298051
 30
0.0
 11
3.021595
 21
1.298051
 31
0.0
  0
LINE
  5
114
330
1F
100
AcDbEntity
  8
XR$1$TB_1110_1
  6
AUSGEZOGEN
 62
     3
440
 33554687
370
    -3
100
AcDbLine
 10
3.021596
 20
1.458051
 30
0.0
 11
2.915596
 21
1.458051
 31
0.0
  0
LINE
  5
115
330
1F
100
AcDbEntity
  8
XR$1$TB_1110_1
  6
AUSGEZOGEN
 62
     7
440
 33554687
370
    -3
100
AcDbLine
 10
3.021596
 20
1.606119
 30
0.0
 11
2.861995
 21
1.592156
 31
0.0
  0
LINE
  5
116
330
1F
100
AcDbEntity
  8
XR$1$TB_1110_1
  6
AUSGEZOGEN
 62
     7
440
 33554687
370
    -3
100
AcDbLine
 10
3.021596
 20
1.582944
 30
0.0
 11
3.021596
 21
1.606119
 31
0.0
  0
LINE
  5
117
330
1F
100
AcDbEntity
  8
XR$1$TB_1110_1
  6
AUSGEZOGEN
 62
     7
440
 33554687
370
    -3
100
AcDbLine
 10
3.018596
 20
1.458051
 30
0.0
 11
3.018596
 21
1.602758
 31
0.0
  0
LINE
  5
118
330
1F
100
AcDbEntity
  8
XR$1$TB_1110_1
  6
AUSGEZOGEN
 62
     7
440
 33554687
370
    -3
100
AcDbLine
 10
3.018596
 20
1.602758
 30
0.0
 11
2.864995
 21
1.589407
 31
0.0
  0
LINE
  5
119
330
1F
100
AcDbEntity
  8
XR$1$TB_1110_1
  6
AUSGEZOGEN
 62
    52
440
 33554687
370
    -3
100
AcDbLine
 10
3.018596
 20
1.591123
 30
0.0
 11
3.013461
 21
1.602396
 31
0.0
  0
LINE
  5
11A
330
1F
100
AcDbEntity
  8
XR$1$TB_1110_1
  6
AUSGEZOGEN
 62
    52
440
 33554687
370
    -3
100
AcDbLine
 10
2.949596
 20
1.582944
 30
0.0
 11
3.018596
 21
1.582944
 31
0.0
  0
LINE
  5
11B
330
1F
100
AcDbEntity
  8
XR$1$TB_1110_1
  6
AUSGEZOGEN
 62
     7
440
 33554687
370
    13
100
AcDbLine
 10
2.949596
 20
1.084193
 30
0.0
 11
3.021596
 21
1.059193
 31
0.0
  0
LINE
  5
11C
330
1F
100
AcDbEntity
  8
XR$1$TB_1110_1
  6
AUSGEZOGEN
 62
     7
440
 33554687
370
    13
100
AcDbLine
 10
3.021596
 20
1.059193
 30
0.0
 11
2.949596
 21
1.034193
 31
0.0
  0
LINE
  5
11D
330
1F
100
AcDbEntity
  8
XR$1$TB_1110_1
  6
AUSGEZOGEN
 62
     7
440
 33554687
370
    13
100
AcDbLine
 10
2.949596
 20
1.284193
 30
0.0
 11
3.021596
 21
1.259193
 31
0.0
  0
LINE
  5
11E
330
1F
100
AcDbEntity
  8
XR$1$TB_1110_1
  6
AUSGEZOGEN
 62
     7
440
 33554687
370
    13
100
AcDbLine
 10
3.021596
 20
1.259193
 30
0.0
 11
2.949596
 21
1.234193
 31
0.0
  0
LINE
  5
11F
330
1F
100
AcDbEntity
  8
XR$1$TB_1110_1
  6
AUSGEZOGEN
 62
     7
440
 33554687
370
    13
100
AcDbLine
 10
2.949596
 20
1.234193
 30
0.0
 11
3.021596
 21
1.209193
 31
0.0
  0
LINE
  5
120
330
1F
100
AcDbEntity
  8
XR$1$TB_1110_1
  6
AUSGEZOGEN
 62
     7
440
 33554687
370
    13
100
AcDbLine
 10
3.021596
 20
1.209193
 30
0.0
 11
2.949596
 21
1.184193
 31
0.0
  0
LINE
  5
121
330
1F
100
AcDbEntity
  8
XR$1$TB_1110_1
  6
AUSGEZOGEN
 62
     7
440
 33554687
370
    13
100
AcDbLine
 10
2.949596
 20
1.184193
 30
0.0
 11
3.021596
 21
1.159193
 31
0.0
  0
LINE
  5
122
330
1F
100
AcDbEntity
  8
XR$1$TB_1110_1
  6
AUSGEZOGEN
 62
     7
440
 33554687
370
    13
100
AcDbLine
 10
3.021596
 20
1.159193
 30
0.0
 11
2.949596
 21
1.134193
 31
0.0
  0
LINE
  5
123
330
1F
100
AcDbEntity
  8
XR$1$TB_1110_1
  6
AUSGEZOGEN
 62
     7
440
 33554687
370
    13
100
AcDbLine
 10
2.949596
 20
1.134193
 30
0.0
 11
3.021596
 21
1.109193
 31
0.0
  0
LINE
  5
124
330
1F
100
AcDbEntity
  8
XR$1$TB_1110_1
  6
AUSGEZOGEN
 62
     7
440
 33554687
370
    13
100
AcDbLine
 10
3.021596
 20
1.109193
 30
0.0
 11
2.949596
 21
1.084193
 31
0.0
  0
LINE
  5
125
330
1F
100
AcDbEntity
  8
XR$1$TB_1110_1
  6
AUSGEZOGEN
 62
     7
440
 33554687
370
    13
100
AcDbLine
 10
3.018596
 20
1.558151
 30
0.0
 11
2.949596
 21
1.534193
 31
0.0
  0
LINE
  5
126
330
1F
100
AcDbEntity
  8
XR$1$TB_1110_1
  6
AUSGEZOGEN
 62
     7
440
 33554687
370
    13
100
AcDbLine
 10
2.953193
 20
1.582944
 30
0.0
 11
3.018596
 21
1.560235
 31
0.0
  0
LINE
  5
127
330
1F
100
AcDbEntity
  8
XR$1$TB_1110_1
  6
AUSGEZOGEN
 62
     7
440
 33554687
370
    13
100
AcDbLine
 10
2.949596
 20
1.534193
 30
0.0
 11
3.018596
 21
1.510235
 31
0.0
  0
LINE
  5
128
330
1F
100
AcDbEntity
  8
XR$1$TB_1110_1
  6
AUSGEZOGEN
 62
     7
440
 33554687
370
    13
100
AcDbLine
 10
3.018596
 20
1.508151
 30
0.0
 11
2.949596
 21
1.484193
 31
0.0
  0
LINE
  5
129
330
1F
100
AcDbEntity
  8
XR$1$TB_1110_1
  6
AUSGEZOGEN
 62
     7
440
 33554687
370
    13
100
AcDbLine
 10
2.949596
 20
1.484193
 30
0.0
 11
3.018596
 21
1.460235
 31
0.0
  0
LINE
  5
12A
330
1F
100
AcDbEntity
  8
XR$1$TB_1110_1
  6
AUSGEZOGEN
 62
     7
440
 33554687
370
    13
100
AcDbLine
 10
3.018596
 20
1.458151
 30
0.0
 11
3.018306
 21
1.458051
 31
0.0
  0
LINE
  5
12B
330
1F
100
AcDbEntity
  8
XR$1$TB_1110_1
  6
AUSGEZOGEN
 62
     7
440
 33554687
370
    13
100
AcDbLine
 10
2.989506
 20
1.298051
 30
0.0
 11
2.949596
 21
1.284193
 31
0.0
  0
MTEXT
  5
12C
330
1F
100
AcDbEntity
  8
XR$1$TB_1110_1
  6
AUSGEZOGEN
 62
     7
440
 33554687
370
    -3
100
AcDbMText
 10
3.106033
 20
0.85764
 30
0.0
 40
0.009
 41
0.418059
 46
0.0
 71
     7
 72
     5
  1
\W1.00;AGROB BUCHTAL GmbH   Architektenservice   D - 92521 Schwarzenfeld
  7
ARIAL
 73
     1
 44
1.0
  0
LINE
  5
12D
330
1F
100
AcDbEntity
  8
XR$1$TB_1110_1
  6
AUSGEZOGEN
 62
     3
440
 33554687
370
    25
100
AcDbLine
 10
3.204596
 20
1.642944
 30
0.0
 11
3.219596
 21
1.642944
 31
0.0
  0
LINE
  5
12E
330
1F
100
AcDbEntity
  8
XR$1$TB_1110_1
  6
AUSGEZOGEN
 62
     3
440
 33554687
370
    25
100
AcDbLine
 10
3.219596
 20
1.722944
 30
0.0
 11
3.159596
 21
1.722944
 31
0.0
  0
LINE
  5
12F
330
1F
100
AcDbEntity
  8
XR$1$TB_1110_1
  6
AUSGEZOGEN
 62
     3
440
 33554687
370
    25
100
AcDbLine
 10
3.159596
 20
1.667944
 30
0.0
 11
3.159596
 21
1.722944
 31
0.0
  0
LINE
  5
130
330
1F
100
AcDbEntity
  8
XR$1$TB_1110_1
  6
AUSGEZOGEN
 62
     3
440
 33554687
370
    25
100
AcDbLine
 10
3.219596
 20
1.642944
 30
0.0
 11
3.219596
 21
1.722944
 31
0.0
  0
LINE
  5
131
330
1F
100
AcDbEntity
  8
XR$1$TB_1110_1
  6
AUSGEZOGEN
 62
     3
440
 33554687
370
    25
100
AcDbLine
 10
3.204596
 20
1.667944
 30
0.0
 11
3.204596
 21
1.582944
 31
0.0
  0
LINE
  5
132
330
1F
100
AcDbEntity
  8
XR$1$TB_1110_1
  6
AUSGEZOGEN
 62
     3
440
 33554687
370
    25
100
AcDbLine
 10
3.204596
 20
1.592944
 30
0.0
 11
3.124596
 21
1.592944
 31
0.0
  0
LINE
  5
133
330
1F
100
AcDbEntity
  8
XR$1$TB_1110_1
  6
AUSGEZOGEN
 62
     3
440
 33554687
370
    25
100
AcDbLine
 10
3.204596
 20
1.667944
 30
0.0
 11
3.124596
 21
1.667944
 31
0.0
  0
LINE
  5
134
330
1F
100
AcDbEntity
  8
XR$1$TB_1110_1
  6
AUSGEZOGEN
 62
     3
440
 33554687
370
    25
100
AcDbLine
 10
3.204596
 20
1.612944
 30
0.0
 11
3.320596
 21
1.612943
 31
0.0
  0
LINE
  5
135
330
1F
100
AcDbEntity
  8
XR$1$TB_1110_1
  6
AUSGEZOGEN
 62
     7
440
 33554687
370
    -3
100
AcDbLine
 10
3.159596
 20
1.871692
 30
0.0
 11
3.159596
 21
1.722944
 31
0.0
  0
LINE
  5
136
330
1F
100
AcDbEntity
  8
XR$1$TB_1110_1
  6
AUSGEZOGEN
 62
     7
440
 33554687
370
    -3
100
AcDbLine
 10
3.181596
 20
1.871692
 30
0.0
 11
3.181596
 21
1.722944
 31
0.0
  0
LINE
  5
137
330
1F
100
AcDbEntity
  8
XR$1$TB_1110_1
  6
AUSGEZOGEN
 62
     7
440
 33554687
370
    -3
100
AcDbLine
 10
3.177596
 20
1.871692
 30
0.0
 11
3.177596
 21
1.722944
 31
0.0
  0
LINE
  5
138
330
1F
100
AcDbEntity
  8
XR$1$TB_1110_1
  6
AUSGEZOGEN
 62
     7
440
 33554687
370
    -3
100
AcDbLine
 10
3.197596
 20
1.871692
 30
0.0
 11
3.197596
 21
1.722944
 31
0.0
  0
LINE
  5
139
330
1F
100
AcDbEntity
  8
XR$1$TB_1110_1
  6
AUSGEZOGEN
 62
     7
440
 33554687
370
    -3
100
AcDbLine
 10
3.201596
 20
1.871692
 30
0.0
 11
3.201596
 21
1.722944
 31
0.0
  0
LINE
  5
13A
330
1F
100
AcDbEntity
  8
XR$1$TB_1110_1
  6
AUSGEZOGEN
 62
     7
440
 33554687
370
    -3
100
AcDbLine
 10
3.219596
 20
1.871692
 30
0.0
 11
3.219596
 21
1.722944
 31
0.0
  0
MTEXT
  5
13B
330
1F
100
AcDbEntity
  8
XR$1$TB_1110_1
  6
AUSGEZOGEN
 62
     7
440
 33554687
370
    35
100
AcDbMText
 10
2.76121
 20
1.506891
 30
0.0
 40
0.0125
 41
0.094694
 46
0.0
 71
     7
 72
     5
  1
\W0.93;Art.-Nr.: 546
  7
ARIAL
 73
     1
 44
1.0
  0
MTEXT
  5
13C
330
1F
100
AcDbEntity
  8
XR$1$TB_1110_1
  6
AUSGEZOGEN
 62
     7
440
 33554687
370
    35
100
AcDbMText
 10
2.756623
 20
1.448819
 30
0.0
 40
0.0125
 41
0.11838
 46
0.0
 71
     7
 72
     5
  1
\W0.93;Art.-Nr.: 347-01
  7
ARIAL
 73
     1
 44
1.0
  0
LINE
  5
13E
102
{ACAD_REACTORS
330
13D
102
}
330
1F
100
AcDbEntity
  8
XR$1$TB_1110_1
  6
AUSGEZOGEN
 62
     7
440
 33554687
370
    -3
100
AcDbLine
 10
2.850071
 20
1.512724
 30
0.0
 11
2.882413
 21
1.573942
 31
0.0
  0
LINE
  5
13F
102
{ACAD_REACTORS
330
13D
102
}
330
1F
100
AcDbEntity
  8
XR$1$TB_1110_1
  6
AUSGEZOGEN
 62
     7
440
 33554687
370
    -3
100
AcDbLine
 10
2.877508
 20
1.564658
 30
0.0
 11
2.877158
 21
1.563995
 31
0.0
  0
LINE
  5
140
102
{ACAD_REACTORS
330
13D
102
}
330
1F
100
AcDbEntity
  8
XR$1$TB_1110_1
  6
AUSGEZOGEN
 62
     7
440
 33554687
370
    -3
100
AcDbLine
 10
2.882413
 20
1.573942
 30
0.0
 11
2.882413
 21
1.573942
 31
0.0
  0
LINE
  5
141
102
{ACAD_REACTORS
330
13D
102
}
330
1F
100
AcDbEntity
  8
XR$1$TB_1110_1
  6
AUSGEZOGEN
 62
     7
440
 33554687
370
    -3
100
AcDbLine
 10
2.882413
 20
1.573942
 30
0.0
 11
2.882413
 21
1.573942
 31
0.0
  0
LINE
  5
142
102
{ACAD_REACTORS
330
13D
102
}
330
1F
100
AcDbEntity
  8
XR$1$TB_1110_1
  6
AUSGEZOGEN
 62
     7
440
 33554687
370
    -3
100
AcDbLine
 10
2.882413
 20
1.573942
 30
0.0
 11
2.882413
 21
1.573942
 31
0.0
  0
LINE
  5
143
102
{ACAD_REACTORS
330
13D
102
}
330
1F
100
AcDbEntity
  8
XR$1$TB_1110_1
  6
AUSGEZOGEN
 62
     7
440
 33554687
370
    -3
100
AcDbLine
 10
2.882413
 20
1.573942
 30
0.0
 11
2.876182
 21
1.565359
 31
0.0
  0
LINE
  5
144
102
{ACAD_REACTORS
330
13D
102
}
330
1F
100
AcDbEntity
  8
XR$1$TB_1110_1
  6
AUSGEZOGEN
 62
     7
440
 33554687
370
    -3
100
AcDbLine
 10
2.876182
 20
1.565359
 30
0.0
 11
2.878834
 21
1.563958
 31
0.0
  0
LINE
  5
145
102
{ACAD_REACTORS
330
13D
102
}
330
1F
100
AcDbEntity
  8
XR$1$TB_1110_1
  6
AUSGEZOGEN
 62
     7
440
 33554687
370
    -3
100
AcDbLine
 10
2.878834
 20
1.563958
 30
0.0
 11
2.882413
 21
1.573942
 31
0.0
  0
HATCH
  5
146
102
{ACAD_REACTORS
330
13D
102
}
330
1F
100
AcDbEntity
  8
XR$1$TB_1110_1
  6
AUSGEZOGEN
 62
     7
440
 33554687
370
    -3
100
AcDbHatch
 10
0.0
 20
0.0
 30
0.0
210
0.0
220
0.0
230
1.0
  2
SOLID
 70
     1
 71
     0
 91
        1
 92
        3
 72
     0
 73
     1
 93
        3
 10
2.878834228515625
 20
1.563957580566406
 10
2.88241259765625
 20
1.573942321777344
 10
2.876181579589844
 20
1.565358947753906
 97
        0
 75
     0
 76
     1
 98
        0
  0
LINE
  5
148
102
{ACAD_REACTORS
330
147
102
}
330
1F
100
AcDbEntity
  8
XR$1$TB_1110_1
  6
AUSGEZOGEN
 62
     7
440
 33554687
370
    -3
100
AcDbLine
 10
2.869206
 20
1.454652
 30
0.0
 11
2.894101
 21
1.49211
 31
0.0
  0
LINE
  5
149
102
{ACAD_REACTORS
330
147
102
}
330
1F
100
AcDbEntity
  8
XR$1$TB_1110_1
  6
AUSGEZOGEN
 62
     7
440
 33554687
370
    -3
100
AcDbLine
 10
2.888289
 20
1.483365
 30
0.0
 11
2.887874
 21
1.482741
 31
0.0
  0
LINE
  5
14A
102
{ACAD_REACTORS
330
147
102
}
330
1F
100
AcDbEntity
  8
XR$1$TB_1110_1
  6
AUSGEZOGEN
 62
     7
440
 33554687
370
    -3
100
AcDbLine
 10
2.894101
 20
1.49211
 30
0.0
 11
2.894101
 21
1.49211
 31
0.0
  0
LINE
  5
14B
102
{ACAD_REACTORS
330
147
102
}
330
1F
100
AcDbEntity
  8
XR$1$TB_1110_1
  6
AUSGEZOGEN
 62
     7
440
 33554687
370
    -3
100
AcDbLine
 10
2.894101
 20
1.49211
 30
0.0
 11
2.894101
 21
1.49211
 31
0.0
  0
LINE
  5
14C
102
{ACAD_REACTORS
330
147
102
}
330
1F
100
AcDbEntity
  8
XR$1$TB_1110_1
  6
AUSGEZOGEN
 62
     7
440
 33554687
370
    -3
100
AcDbLine
 10
2.894101
 20
1.49211
 30
0.0
 11
2.894101
 21
1.49211
 31
0.0
  0
LINE
  5
14D
102
{ACAD_REACTORS
330
147
102
}
330
1F
100
AcDbEntity
  8
XR$1$TB_1110_1
  6
AUSGEZOGEN
 62
     7
440
 33554687
370
    -3
100
AcDbLine
 10
2.894101
 20
1.49211
 30
0.0
 11
2.88704
 21
1.484195
 31
0.0
  0
LINE
  5
14E
102
{ACAD_REACTORS
330
147
102
}
330
1F
100
AcDbEntity
  8
XR$1$TB_1110_1
  6
AUSGEZOGEN
 62
     7
440
 33554687
370
    -3
100
AcDbLine
 10
2.88704
 20
1.484195
 30
0.0
 11
2.889539
 21
1.482535
 31
0.0
  0
LINE
  5
14F
102
{ACAD_REACTORS
330
147
102
}
330
1F
100
AcDbEntity
  8
XR$1$TB_1110_1
  6
AUSGEZOGEN
 62
     7
440
 33554687
370
    -3
100
AcDbLine
 10
2.889539
 20
1.482535
 30
0.0
 11
2.894101
 21
1.49211
 31
0.0
  0
HATCH
  5
150
102
{ACAD_REACTORS
330
147
102
}
330
1F
100
AcDbEntity
  8
XR$1$TB_1110_1
  6
AUSGEZOGEN
 62
     7
440
 33554687
370
    -3
100
AcDbHatch
 10
0.0
 20
0.0
 30
0.0
210
0.0
220
0.0
230
1.0
  2
SOLID
 70
     1
 71
     0
 91
        1
 92
        3
 72
     0
 73
     1
 93
        3
 10
2.88953857421875
 20
1.482534973144531
 10
2.894101196289062
 20
1.492110107421875
 10
2.8870400390625
 20
1.484195495605469
 97
        0
 75
     0
 76
     1
 98
        0
  0
LINE
  5
151
330
1F
100
AcDbEntity
  8
XR$1$TB_1110_1
  6
VERDECKT2_S2
 62
     7
440
 33554687
370
    -3
100
AcDbLine
 10
2.949596
 20
1.298049
 30
0.0
 11
2.949596
 21
1.458051
 31
0.0
  0
MTEXT
  5
152
330
1F
100
AcDbEntity
  8
XR$1$TB_1110_1
  6
AUSGEZOGEN
 62
     7
440
 33554687
370
    -3
100
AcDbMText
 10
3.470992
 20
0.821754
 30
0.0
 40
0.009
 41
0.096746
 46
0.0
 71
     7
 72
     5
  1
\W0.91;STAND: Mai 2018
  7
ARIAL
 73
     1
 44
1.0
  0
VIEWPORT
  5
72
330
6E
100
AcDbEntity
 67
     1
  8
0
100
AcDbViewport
 10
0.105001
 20
0.148499
 30
0.0
 40
0.210202
 41
0.297197
 68
     1
 69
     1
 12
0.105001
 22
0.148499
 13
0.0
 23
0.0
 14
0.5
 24
0.5
 15
0.5
 25
0.5
 16
0.0
 26
0.0
 36
1.0
 17
0.0
 27
0.0
 37
0.0
 42
50.0
 43
0.0
 44
0.0
 45
0.297197
 50
0.0
 51
0.0
 72
   100
 90
   557152
  1

281
     0
 71
     1
 74
     0
110
0.0
120
0.0
130
0.0
111
1.0
121
0.0
131
0.0
112
0.0
122
1.0
132
0.0
 79
     0
146
0.0
170
     0
 61
     5
348
2F
292
     1
282
     1
141
0.0
142
0.0
 63
   256
361
73
  0
VIEWPORT
  5
155
330
6E
100
AcDbEntity
 67
     1
  8
PLAN_1110
  6
AUSGEZOGEN
 62
     7
370
    35
100
AcDbViewport
 10
0.105001
 20
0.148499
 30
0.0
 40
0.210202
 41
0.297197
 68
     2
 69
     2
 12
0.0
 22
0.0
 13
0.0
 23
0.0
 14
1.0
 24
1.0
 15
0.0
 25
0.0
 16
0.0
 26
0.0
 36
1.0
 17
3.099011
 27
1.460583
 37
0.0
 42
50.0
 43
0.0
 44
0.0
 45
1.485985
 50
0.0
 51
0.0
 72
   100
331
10
331
76
331
78
 90
   557280
  1

281
     0
 71
     1
 74
     0
110
0.0
120
0.0
130
0.0
111
1.0
121
0.0
131
0.0
112
0.0
122
1.0
132
0.0
 79
     0
146
0.0
170
     0
 61
     5
348
2F
292
     1
282
     1
141
0.0
142
0.0
 63
   256
361
156
  0
ENDSEC
  0
SECTION
  2
OBJECTS
  0
DICTIONARY
  5
C
330
0
100
AcDbDictionary
281
     1
  3
ACAD_DETAILVIEWSTYLE
350
18E
  3
ACAD_GROUP
350
D
  3
ACAD_LAYOUT
350
1A
  3
ACAD_MATERIAL
350
43
  3
ACAD_MLEADERSTYLE
350
6B
  3
ACAD_MLINESTYLE
350
17
  3
ACAD_PLOTSETTINGS
350
19
  3
ACAD_PLOTSTYLENAME
350
E
  3
ACAD_SCALELIST
350
47
  3
ACAD_SECTIONVIEWSTYLE
350
18F
  3
ACAD_TABLESTYLE
350
69
  3
ACAD_VISUALSTYLE
350
2A
  3
ACDB_RECOMPOSE_DATA
350
18B
  3
AcDbVariableDictionary
350
157
  0
SUN
  5
6D
330
29
100
AcDbSun
 90
        1
290
     0
 63
     7
421
 16777215
 40
1.0
291
     1
 91
  2455826
 92
 54000000
292
     0
 70
     2
 71
   256
280
     1
  0
DICTIONARY
  5
153
330
1F
100
AcDbDictionary
280
     1
281
     1
  3
ACAD_SORTENTS
360
154
  0
SUN
  5
73
330
72
100
AcDbSun
 90
        1
290
     0
 63
     7
421
 16777215
 40
1.0
291
     1
 91
  2455826
 92
 54000000
292
     0
 70
     2
 71
   256
280
     1
  0
SUN
  5
156
330
155
100
AcDbSun
 90
        1
290
     0
 63
     7
421
 16777215
 40
1.0
291
     1
 91
  2455826
 92
 54000000
292
     0
 70
     2
 71
   256
280
     1
  0
DICTIONARY
  5
18E
102
{ACAD_REACTORS
330
C
102
}
330
C
100
AcDbDictionary
281
     1
  0
DICTIONARY
  5
D
102
{ACAD_REACTORS
330
C
102
}
330
C
100
AcDbDictionary
281
     1
  3
VERBUNDBLOCK_0
350
82
  3
VERBUNDBLOCK_1
350
13D
  3
VERBUNDBLOCK_2
350
147
  0
DICTIONARY
  5
1A
102
{ACAD_REACTORS
330
C
102
}
330
C
100
AcDbDictionary
281
     1
  3
KerAion K8 - KLAMMERBEFESTIGUNG 11
350
6F
  3
Model
350
22
  0
DICTIONARY
  5
43
102
{ACAD_REACTORS
330
C
102
}
330
C
100
AcDbDictionary
281
     1
  3
ByBlock
350
45
  3
ByLayer
350
44
  3
Global
350
46
  0
DICTIONARY
  5
6B
102
{ACAD_REACTORS
330
C
102
}
330
C
100
AcDbDictionary
281
     1
  3
Standard
350
6C
  0
DICTIONARY
  5
17
102
{ACAD_REACTORS
330
C
102
}
330
C
100
AcDbDictionary
281
     1
  3
Standard
350
18
  0
DICTIONARY
  5
19
102
{ACAD_REACTORS
330
C
102
}
330
C
100
AcDbDictionary
281
     1
  0
ACDBDICTIONARYWDFLT
  5
E
102
{ACAD_REACTORS
330
C
102
}
330
C
100
AcDbDictionary
281
     1
  3
Normal
350
F
100
AcDbDictionaryWithDefault
340
F
  0
DICTIONARY
  5
47
102
{ACAD_REACTORS
330
C
102
}
330
C
100
AcDbDictionary
281
     1
  3
A0
350
48
  3
A1
350
49
  3
A2
350
4A
  3
A3
350
4B
  3
A4
350
4C
  3
A5
350
4D
  3
A6
350
4E
  3
A7
350
4F
  3
A8
350
50
  3
A9
350
51
  3
B0
350
52
  3
B1
350
53
  3
B2
350
54
  3
B3
350
55
  3
B4
350
56
  3
B5
350
57
  3
B6
350
58
  3
B7
350
59
  3
B8
350
5A
  3
B9
350
5B
  3
C0
350
5C
  3
C1
350
5D
  3
C2
350
5E
  3
C3
350
5F
  3
C4
350
60
  3
C5
350
61
  3
C6
350
62
  3
C7
350
63
  3
C8
350
64
  3
C9
350
65
  3
D0
350
66
  3
D1
350
67
  3
D2
350
68
  0
DICTIONARY
  5
18F
102
{ACAD_REACTORS
330
C
102
}
330
C
100
AcDbDictionary
281
     1
  0
DICTIONARY
  5
69
102
{ACAD_REACTORS
330
C
102
}
330
C
100
AcDbDictionary
281
     1
  3
Standard
350
6A
  0
DICTIONARY
  5
2A
102
{ACAD_REACTORS
330
C
102
}
330
C
100
AcDbDictionary
281
     1
  3
2dWireframe
350
2F
  3
Basic
350
32
  3
Brighten
350
36
  3
ColorChange
350
3A
  3
Conceptual
350
34
  3
Dim
350
35
  3
EdgeColorOff
350
3D
  3
Facepattern
350
39
  3
Flat
350
2B
  3
FlatWithEdges
350
2C
  3
Gouraud
350
2D
  3
GouraudWithEdges
350
2E
  3
Hidden
350
31
  3
JitterOff
350
3B
  3
Linepattern
350
38
  3
OverhangOff
350
3C
  3
Realistic
350
33
  3
Shaded
350
42
  3
Shaded with edges
350
41
  3
Shades of Gray
350
3E
  3
Sketchy
350
3F
  3
Thicken
350
37
  3
Wireframe
350
30
  3
X-Ray
350
40
  0
XRECORD
  5
18B
102
{ACAD_REACTORS
330
C
102
}
330
C
100
AcDbXrecord
280
     1
 90
        1
330
6A
  0
DICTIONARY
  5
157
102
{ACAD_REACTORS
330
C
102
}
330
C
100
AcDbDictionary
281
     1
  3
CANNOSCALE
350
158
  3
CMLEADERSTYLE
350
18D
  3
CTABLESTYLE
350
18C
  0
SORTENTSTABLE
  5
154
102
{ACAD_REACTORS
330
153
102
}
330
153
100
AcDbSortentsTable
330
1F
331
7E
  5
89
331
7F
  5
8A
331
80
  5
7E
331
81
  5
7F
331
83
  5
80
331
84
  5
81
331
85
  5
83
331
86
  5
84
331
87
  5
85
331
88
  5
86
331
89
  5
8B
331
8A
  5
8C
331
8B
  5
8D
331
8C
  5
8E
331
8D
  5
8F
331
8E
  5
90
331
8F
  5
91
331
90
  5
92
331
91
  5
93
331
92
  5
94
331
93
  5
95
331
94
  5
96
331
95
  5
97
331
96
  5
98
331
97
  5
99
331
98
  5
9A
331
99
  5
9B
331
9A
  5
9C
331
9B
  5
9D
331
9C
  5
9E
331
9D
  5
9F
331
9E
  5
A0
331
9F
  5
A1
331
A0
  5
A2
331
A1
  5
A3
331
A2
  5
A4
331
A3
  5
A5
331
A4
  5
A6
331
A5
  5
A7
331
A6
  5
A8
331
A7
  5
A9
331
A8
  5
AA
331
A9
  5
AB
331
AA
  5
AC
331
AB
  5
AD
331
AC
  5
AE
331
AD
  5
AF
331
AE
  5
B0
331
AF
  5
B1
331
B0
  5
B2
331
B1
  5
B3
331
B2
  5
B4
331
B3
  5
B5
331
B4
  5
B6
331
B5
  5
B7
331
B6
  5
B8
331
B7
  5
B9
331
B8
  5
BA
331
B9
  5
BB
331
BA
  5
BC
331
BB
  5
BD
331
BC
  5
BE
331
BD
  5
BF
331
BE
  5
C0
331
BF
  5
C1
331
C0
  5
C2
331
C1
  5
C3
331
C2
  5
C4
331
C3
  5
C5
331
C4
  5
C6
331
C5
  5
C7
331
C6
  5
C8
331
C7
  5
C9
331
C8
  5
CA
331
C9
  5
CB
331
CA
  5
CC
331
CB
  5
CD
331
CC
  5
CE
331
CD
  5
CF
331
CE
  5
D0
331
CF
  5
D1
331
D0
  5
D2
331
D1
  5
D3
331
D2
  5
D4
331
D3
  5
D5
331
D4
  5
D6
331
D5
  5
D7
331
D6
  5
D8
331
D7
  5
D9
331
D8
  5
DA
331
D9
  5
DB
331
DA
  5
DC
331
DB
  5
DD
331
DC
  5
DE
331
DD
  5
DF
331
DE
  5
E0
331
DF
  5
E1
331
E0
  5
E2
331
E1
  5
E3
331
E2
  5
E4
331
E3
  5
E5
331
E4
  5
E6
331
E5
  5
E7
331
E6
  5
E8
331
E7
  5
E9
331
E8
  5
EA
331
E9
  5
EB
331
EA
  5
EC
331
EB
  5
ED
331
EC
  5
EE
331
ED
  5
EF
331
EE
  5
F0
331
EF
  5
F1
331
F0
  5
F2
331
F1
  5
F3
331
F2
  5
F4
331
F3
  5
F5
331
F4
  5
F6
331
F5
  5
F7
331
F6
  5
F8
331
F7
  5
F9
331
F8
  5
FA
331
F9
  5
FB
331
FA
  5
FC
331
FB
  5
FD
331
FC
  5
FE
331
FD
  5
FF
331
FE
  5
100
331
FF
  5
101
331
100
  5
102
331
101
  5
103
331
102
  5
104
331
103
  5
105
331
104
  5
106
331
105
  5
107
331
106
  5
108
331
107
  5
109
331
108
  5
10A
331
109
  5
10B
331
10A
  5
10C
331
10B
  5
10D
331
10C
  5
10E
331
10D
  5
10F
331
10E
  5
110
331
10F
  5
111
331
110
  5
112
331
111
  5
113
331
112
  5
114
331
113
  5
115
331
114
  5
116
331
115
  5
117
331
116
  5
118
331
117
  5
119
331
118
  5
11A
331
119
  5
11B
331
11A
  5
11C
331
11B
  5
11D
331
11C
  5
11E
331
11D
  5
11F
331
11E
  5
120
331
11F
  5
121
331
120
  5
122
331
121
  5
123
331
122
  5
124
331
123
  5
125
331
124
  5
126
331
125
  5
127
331
126
  5
128
331
127
  5
129
331
128
  5
12A
331
129
  5
12B
331
12A
  5
12C
331
12B
  5
12D
331
12C
  5
12E
331
12D
  5
12F
331
12E
  5
130
331
12F
  5
131
331
130
  5
132
331
131
  5
133
331
132
  5
134
331
133
  5
135
331
134
  5
136
331
135
  5
137
331
136
  5
138
331
137
  5
139
331
138
  5
13A
331
139
  5
13B
331
13A
  5
13C
331
13B
  5
13E
331
13C
  5
13F
331
13E
  5
140
331
13F
  5
141
331
140
  5
142
331
141
  5
143
331
142
  5
144
331
143
  5
145
331
144
  5
146
331
145
  5
148
331
146
  5
87
331
148
  5
149
331
149
  5
14A
331
14A
  5
14B
331
14B
  5
14C
331
14C
  5
14D
331
14D
  5
14E
331
14E
  5
14F
331
14F
  5
150
331
150
  5
88
  0
GROUP
  5
82
102
{ACAD_REACTORS
330
D
102
}
330
D
100
AcDbGroup
300

 70
     0
 71
     1
340
83
340
84
  0
GROUP
  5
13D
102
{ACAD_REACTORS
330
D
102
}
330
D
100
AcDbGroup
300

 70
     0
 71
     1
340
13E
340
13F
340
140
340
141
340
142
340
143
340
144
340
145
340
146
  0
GROUP
  5
147
102
{ACAD_REACTORS
330
D
102
}
330
D
100
AcDbGroup
300

 70
     0
 71
     1
340
148
340
149
340
14A
340
14B
340
14C
340
14D
340
14E
340
14F
340
150
  0
LAYOUT
  5
6F
102
{ACAD_REACTORS
330
1A
102
}
330
1A
100
AcDbPlotSettings
  1

  2
none_device
  4
none_user_media
  6

 40
0.0
 41
0.0
 42
0.0
 43
0.0
 44
297.0
 45
209.9
 46
0.0
 47
0.0
 48
0.0
 49
0.0
140
0.0
141
0.0
142
1000.0
143
1.0
 70
   688
 72
     1
 73
     1
 74
     5
  7

 75
    33
 76
     0
 77
     2
 78
   300
147
1000.0
148
0.0
149
0.0
100
AcDbLayout
  1
KerAion K8 - KLAMMERBEFESTIGUNG 11
 70
     0
 71
     1
 10
-0.0001
 20
-0.0001
 11
0.210102
 21
0.297097
 12
0.0
 22
0.0
 32
0.0
 14
-0.0001
 24
-0.0001
 34
0.0
 15
0.210102
 25
0.297097
 35
0.0
146
0.0
 13
0.0
 23
0.0
 33
0.0
 16
1.0
 26
0.0
 36
0.0
 17
0.0
 27
1.0
 37
0.0
 76
     0
330
6E
331
72
  0
LAYOUT
  5
22
102
{ACAD_REACTORS
330
1A
102
}
330
1A
100
AcDbPlotSettings
  1

  2
none_device
  4
Letter_(8.50_x_11.00_Inches)
  6

 40
6.35
 41
6.35
 42
6.350005
 43
6.350005
 44
215.9
 45
279.4
 46
0.0
 47
0.0
 48
0.0
 49
0.0
140
0.0
141
0.0
142
1.0
143
1.0
 70
  1712
 72
     0
 73
     0
 74
     0
  7

 75
     0
 76
     0
 77
     2
 78
   300
147
1.0
148
0.0
149
0.0
100
AcDbLayout
  1
Model
 70
     1
 71
     0
 10
2.574006
 20
0.718091
 11
3.624016
 21
2.203076
 12
0.0
 22
0.0
 32
0.0
 14
2.574006
 24
0.718091
 34
2.574006
 15
3.624016
 25
2.203076
 35
3.624016
146
0.0
 13
0.0
 23
0.0
 33
0.0
 16
1.0
 26
0.0
 36
0.0
 17
0.0
 27
1.0
 37
0.0
 76
     0
330
1F
331
29
  0
MATERIAL
  5
45
102
{ACAD_REACTORS
330
43
102
}
330
43
100
AcDbMaterial
  1
ByBlock
 72
     1
 94
      127
  0
MATERIAL
  5
44
102
{ACAD_REACTORS
330
43
102
}
330
43
100
AcDbMaterial
  1
ByLayer
 72
     1
 94
      127
  0
MATERIAL
  5
46
102
{ACAD_REACTORS
330
43
102
}
330
43
100
AcDbMaterial
  1
Global
 72
     1
 94
      127
  0
MLEADERSTYLE
  5
6C
102
{ACAD_REACTORS
330
6B
102
}
330
6B
100
AcDbMLeaderStyle
179
     2
170
     2
171
     1
172
     0
 90
        2
 40
0.0
 41
0.0
173
     1
 91
-1056964608
340
14
 92
       -2
290
     1
 42
0.09
291
     1
 43
0.36
  3
Standard
341
0
 44
0.18
300

342
11
174
     1
178
     6
175
     1
176
     0
 93
-1056964608
 45
0.18
292
     0
297
     0
 46
0.18
343
0
 94
-1056964608
 47
1.0
 49
1.0
140
1.0
293
     1
141
0.0
294
     1
177
     0
142
1.0
295
     0
296
     0
143
0.125
271
     0
272
     9
273
     9
  0
MLINESTYLE
  5
18
102
{ACAD_REACTORS
330
17
102
}
330
17
100
AcDbMlineStyle
  2
Standard
 70
     0
  3

 62
   256
 51
90.0
 52
90.0
 71
     2
 49
0.5
 62
   256
  6
BYLAYER
 49
-0.5
 62
   256
  6
BYLAYER
  0
ACDBPLACEHOLDER
  5
F
102
{ACAD_REACTORS
330
E
102
}
330
E
  0
SCALE
  5
48
102
{ACAD_REACTORS
330
47
102
}
330
47
100
AcDbScale
 70
     0
300
1:1
140
1.0
141
1.0
290
     1
  0
SCALE
  5
49
102
{ACAD_REACTORS
330
47
102
}
330
47
100
AcDbScale
 70
     0
300
1:2
140
1.0
141
2.0
290
     0
  0
SCALE
  5
4A
102
{ACAD_REACTORS
330
47
102
}
330
47
100
AcDbScale
 70
     0
300
1:4
140
1.0
141
4.0
290
     0
  0
SCALE
  5
4B
102
{ACAD_REACTORS
330
47
102
}
330
47
100
AcDbScale
 70
     0
300
1:5
140
1.0
141
5.0
290
     0
  0
SCALE
  5
4C
102
{ACAD_REACTORS
330
47
102
}
330
47
100
AcDbScale
 70
     0
300
1:8
140
1.0
141
8.0
290
     0
  0
SCALE
  5
4D
102
{ACAD_REACTORS
330
47
102
}
330
47
100
AcDbScale
 70
     0
300
1:10
140
1.0
141
10.0
290
     0
  0
SCALE
  5
4E
102
{ACAD_REACTORS
330
47
102
}
330
47
100
AcDbScale
 70
     0
300
1:16
140
1.0
141
16.0
290
     0
  0
SCALE
  5
4F
102
{ACAD_REACTORS
330
47
102
}
330
47
100
AcDbScale
 70
     0
300
1:20
140
1.0
141
20.0
290
     0
  0
SCALE
  5
50
102
{ACAD_REACTORS
330
47
102
}
330
47
100
AcDbScale
 70
     0
300
1:30
140
1.0
141
30.0
290
     0
  0
SCALE
  5
51
102
{ACAD_REACTORS
330
47
102
}
330
47
100
AcDbScale
 70
     0
300
1:40
140
1.0
141
40.0
290
     0
  0
SCALE
  5
52
102
{ACAD_REACTORS
330
47
102
}
330
47
100
AcDbScale
 70
     0
300
1:50
140
1.0
141
50.0
290
     0
  0
SCALE
  5
53
102
{ACAD_REACTORS
330
47
102
}
330
47
100
AcDbScale
 70
     0
300
1:100
140
1.0
141
100.0
290
     0
  0
SCALE
  5
54
102
{ACAD_REACTORS
330
47
102
}
330
47
100
AcDbScale
 70
     0
300
2:1
140
2.0
141
1.0
290
     0
  0
SCALE
  5
55
102
{ACAD_REACTORS
330
47
102
}
330
47
100
AcDbScale
 70
     0
300
4:1
140
4.0
141
1.0
290
     0
  0
SCALE
  5
56
102
{ACAD_REACTORS
330
47
102
}
330
47
100
AcDbScale
 70
     0
300
8:1
140
8.0
141
1.0
290
     0
  0
SCALE
  5
57
102
{ACAD_REACTORS
330
47
102
}
330
47
100
AcDbScale
 70
     0
300
10:1
140
10.0
141
1.0
290
     0
  0
SCALE
  5
58
102
{ACAD_REACTORS
330
47
102
}
330
47
100
AcDbScale
 70
     0
300
100:1
140
100.0
141
1.0
290
     0
  0
SCALE
  5
59
102
{ACAD_REACTORS
330
47
102
}
330
47
100
AcDbScale
 70
     0
300
1/128" = 1'-0"
140
0.007812
141
12.0
290
     0
  0
SCALE
  5
5A
102
{ACAD_REACTORS
330
47
102
}
330
47
100
AcDbScale
 70
     0
300
1/64" = 1'-0"
140
0.015625
141
12.0
290
     0
  0
SCALE
  5
5B
102
{ACAD_REACTORS
330
47
102
}
330
47
100
AcDbScale
 70
     0
300
1/32" = 1'-0"
140
0.03125
141
12.0
290
     0
  0
SCALE
  5
5C
102
{ACAD_REACTORS
330
47
102
}
330
47
100
AcDbScale
 70
     0
300
1/16" = 1'-0"
140
0.0625
141
12.0
290
     0
  0
SCALE
  5
5D
102
{ACAD_REACTORS
330
47
102
}
330
47
100
AcDbScale
 70
     0
300
3/32" = 1'-0"
140
0.09375
141
12.0
290
     0
  0
SCALE
  5
5E
102
{ACAD_REACTORS
330
47
102
}
330
47
100
AcDbScale
 70
     0
300
1/8" = 1'-0"
140
0.125
141
12.0
290
     0
  0
SCALE
  5
5F
102
{ACAD_REACTORS
330
47
102
}
330
47
100
AcDbScale
 70
     0
300
3/16" = 1'-0"
140
0.1875
141
12.0
290
     0
  0
SCALE
  5
60
102
{ACAD_REACTORS
330
47
102
}
330
47
100
AcDbScale
 70
     0
300
1/4" = 1'-0"
140
0.25
141
12.0
290
     0
  0
SCALE
  5
61
102
{ACAD_REACTORS
330
47
102
}
330
47
100
AcDbScale
 70
     0
300
3/8" = 1'-0"
140
0.375
141
12.0
290
     0
  0
SCALE
  5
62
102
{ACAD_REACTORS
330
47
102
}
330
47
100
AcDbScale
 70
     0
300
1/2" = 1'-0"
140
0.5
141
12.0
290
     0
  0
SCALE
  5
63
102
{ACAD_REACTORS
330
47
102
}
330
47
100
AcDbScale
 70
     0
300
3/4" = 1'-0"
140
0.75
141
12.0
290
     0
  0
SCALE
  5
64
102
{ACAD_REACTORS
330
47
102
}
330
47
100
AcDbScale
 70
     0
300
1" = 1'-0"
140
1.0
141
12.0
290
     0
  0
SCALE
  5
65
102
{ACAD_REACTORS
330
47
102
}
330
47
100
AcDbScale
 70
     0
300
1-1/2" = 1'-0"
140
1.5
141
12.0
290
     0
  0
SCALE
  5
66
102
{ACAD_REACTORS
330
47
102
}
330
47
100
AcDbScale
 70
     0
300
3" = 1'-0"
140
3.0
141
12.0
290
     0
  0
SCALE
  5
67
102
{ACAD_REACTORS
330
47
102
}
330
47
100
AcDbScale
 70
     0
300
6" = 1'-0"
140
6.0
141
12.0
290
     0
  0
SCALE
  5
68
102
{ACAD_REACTORS
330
47
102
}
330
47
100
AcDbScale
 70
     0
300
1'-0" = 1'-0"
140
12.0
141
12.0
290
     0
  0
TABLESTYLE
  5
6A
102
{ACAD_REACTORS
330
69
102
}
102
{ACAD_XDICTIONARY
360
189
102
}
330
69
100
AcDbTableStyle
  3
Standard
 70
     0
 71
     0
 40
0.06
 41
0.06
280
     0
281
     0
  7
Standard
140
0.18
170
     2
 62
     0
 63
   257
283
     0
 90
        4
 91
        0
  1

274
    -2
284
     1
 64
     0
275
    -2
285
     1
 65
     0
276
    -2
286
     1
 66
     0
277
    -2
287
     1
 67
     0
278
    -2
288
     1
 68
     0
279
    -2
289
     1
 69
     0
  7
Standard
140
0.25
170
     5
 62
     0
 63
   257
283
     0
 90
        4
 91
        0
  1

274
    -2
284
     1
 64
     0
275
    -2
285
     1
 65
     0
276
    -2
286
     1
 66
     0
277
    -2
287
     1
 67
     0
278
    -2
288
     1
 68
     0
279
    -2
289
     1
 69
     0
  7
Standard
140
0.18
170
     5
 62
     0
 63
   257
283
     0
 90
        4
 91
        0
  1

274
    -2
284
     1
 64
     0
275
    -2
285
     1
 65
     0
276
    -2
286
     1
 66
     0
277
    -2
287
     1
 67
     0
278
    -2
288
     1
 68
     0
279
    -2
289
     1
 69
     0
  0
VISUALSTYLE
  5
2F
102
{ACAD_REACTORS
330
2A
102
}
102
{ACAD_XDICTIONARY
360
161
102
}
330
2A
100
AcDbVisualStyle
  2
2dWireframe
 70
     4
177
     2
291
     0
 71
     0
176
     1
 72
     2
176
     1
 73
     0
176
     1
 90
        0
176
     1
 40
0.6
176
     1
 41
30.0
176
     1
 62
     5
 63
     7
421
 16777215
176
     1
 74
     1
176
     1
 91
        4
176
     1
 64
     7
176
     1
 65
   257
176
     1
 75
     1
176
     1
175
     1
176
     1
 42
1.0
176
     1
 92
        0
176
     1
 66
   257
176
     1
 43
1.0
176
     1
 76
     1
176
     1
 77
     6
176
     1
 78
     2
176
     1
 67
     7
176
     1
 79
     5
176
     1
170
     0
176
     1
171
     0
176
     1
290
     0
176
     1
 93
        1
176
     1
 44
0.0
176
     1
173
     0
176
     1
  0
VISUALSTYLE
  5
32
102
{ACAD_REACTORS
330
2A
102
}
102
{ACAD_XDICTIONARY
360
167
102
}
330
2A
100
AcDbVisualStyle
  2
Basic
 70
     7
177
     2
291
     1
 71
     1
176
     1
 72
     0
176
     1
 73
     1
176
     1
 90
        0
176
     1
 40
0.6
176
     1
 41
30.0
176
     1
 62
     5
 63
     7
421
 16777215
176
     1
 74
     0
176
     1
 91
        4
176
     1
 64
     7
176
     1
 65
   257
176
     1
 75
     1
176
     1
175
     1
176
     1
 42
1.0
176
     1
 92
        8
176
     1
 66
     7
176
     1
 43
1.0
176
     1
 76
     1
176
     1
 77
     6
176
     1
 78
     2
176
     1
 67
     7
176
     1
 79
     5
176
     1
170
     0
176
     1
171
     0
176
     1
290
     0
176
     1
 93
        1
176
     1
 44
0.0
176
     1
173
     0
176
     1
  0
VISUALSTYLE
  5
36
102
{ACAD_REACTORS
330
2A
102
}
102
{ACAD_XDICTIONARY
360
16F
102
}
330
2A
100
AcDbVisualStyle
  2
Brighten
 70
    12
177
     2
291
     1
 71
     2
176
     1
 72
     2
176
     1
 73
     0
176
     1
 90
        0
176
     1
 40
0.6
176
     1
 41
30.0
176
     1
 62
     5
 63
     7
421
 16777215
176
     1
 74
     1
176
     1
 91
        4
176
     1
 64
     7
176
     1
 65
   257
176
     1
 75
     1
176
     1
175
     1
176
     1
 42
1.0
176
     1
 92
        8
176
     1
 66
     7
176
     1
 43
1.0
176
     1
 76
     1
176
     1
 77
     6
176
     1
 78
     2
176
     1
 67
     7
176
     1
 79
     5
176
     1
170
     0
176
     1
171
     0
176
     1
290
     0
176
     1
 93
        1
176
     1
 44
50.0
176
     1
173
     0
176
     1
  0
VISUALSTYLE
  5
3A
102
{ACAD_REACTORS
330
2A
102
}
102
{ACAD_XDICTIONARY
360
177
102
}
330
2A
100
AcDbVisualStyle
  2
ColorChange
 70
    16
177
     2
291
     1
 71
     2
176
     1
 72
     2
176
     1
 73
     3
176
     1
 90
        0
176
     1
 40
0.6
176
     1
 41
30.0
176
     1
 62
     5
 63
     8
421
  8421504
176
     1
 74
     1
176
     1
 91
        4
176
     1
 64
     7
176
     1
 65
   257
176
     1
 75
     1
176
     1
175
     1
176
     1
 42
1.0
176
     1
 92
        8
176
     1
 66
     8
424
  8421504
176
     1
 43
1.0
176
     1
 76
     1
176
     1
 77
     6
176
     1
 78
     2
176
     1
 67
     7
176
     1
 79
     5
176
     1
170
     0
176
     1
171
     0
176
     1
290
     0
176
     1
 93
        1
176
     1
 44
0.0
176
     1
173
     0
176
     1
  0
VISUALSTYLE
  5
34
102
{ACAD_REACTORS
330
2A
102
}
102
{ACAD_XDICTIONARY
360
16B
102
}
330
2A
100
AcDbVisualStyle
  2
Conceptual
 70
     9
177
     2
291
     0
 71
     3
176
     1
 72
     2
176
     1
 73
     0
176
     1
 90
        0
176
     1
 40
0.6
176
     1
 41
30.0
176
     1
 62
     5
 63
     7
421
 16777215
176
     1
 74
     2
176
     1
 91
        2
176
     1
 64
     7
176
     1
 65
   257
176
     1
 75
     1
176
     1
175
     1
176
     1
 42
179.0
176
     1
 92
        8
176
     1
 66
     7
176
     1
 43
1.0
176
     1
 76
     1
176
     1
 77
     6
176
     1
 78
     2
176
     1
 67
     7
176
     1
 79
     3
176
     1
170
     0
176
     1
171
     0
176
     1
290
     0
176
     1
 93
        1
176
     1
 44
0.0
176
     1
173
     0
176
     1
  0
VISUALSTYLE
  5
35
102
{ACAD_REACTORS
330
2A
102
}
102
{ACAD_XDICTIONARY
360
16D
102
}
330
2A
100
AcDbVisualStyle
  2
Dim
 70
    11
177
     2
291
     1
 71
     2
176
     1
 72
     2
176
     1
 73
     0
176
     1
 90
        0
176
     1
 40
0.6
176
     1
 41
30.0
176
     1
 62
     5
 63
     7
421
 16777215
176
     1
 74
     1
176
     1
 91
        4
176
     1
 64
     7
176
     1
 65
   257
176
     1
 75
     1
176
     1
175
     1
176
     1
 42
1.0
176
     1
 92
        8
176
     1
 66
     7
176
     1
 43
1.0
176
     1
 76
     1
176
     1
 77
     6
176
     1
 78
     2
176
     1
 67
     7
176
     1
 79
     5
176
     1
170
     0
176
     1
171
     0
176
     1
290
     0
176
     1
 93
        1
176
     1
 44
-50.0
176
     1
173
     0
176
     1
  0
VISUALSTYLE
  5
3D
102
{ACAD_REACTORS
330
2A
102
}
102
{ACAD_XDICTIONARY
360
17D
102
}
330
2A
100
AcDbVisualStyle
  2
EdgeColorOff
 70
    22
177
     2
291
     1
 71
     2
176
     0
 72
     2
176
     0
 73
     0
176
     0
 90
        0
176
     0
 40
0.6
176
     0
 41
30.0
176
     0
 62
     5
 63
     7
421
 16777215
176
     0
 74
     1
176
     0
 91
        4
176
     0
 64
     7
176
     0
 65
   257
176
     0
 75
     1
176
     0
175
     1
176
     0
 42
1.0
176
     0
 92
        8
176
     2
 66
     7
176
     0
 43
1.0
176
     0
 76
     1
176
     0
 77
     6
176
     0
 78
     2
176
     0
 67
     7
176
     0
 79
     5
176
     0
170
     0
176
     0
171
     0
176
     0
290
     0
176
     0
 93
        1
176
     0
 44
0.0
176
     0
173
     0
176
     0
  0
VISUALSTYLE
  5
39
102
{ACAD_REACTORS
330
2A
102
}
102
{ACAD_XDICTIONARY
360
175
102
}
330
2A
100
AcDbVisualStyle
  2
Facepattern
 70
    15
177
     2
291
     1
 71
     2
176
     1
 72
     2
176
     1
 73
     0
176
     1
 90
        0
176
     1
 40
0.6
176
     1
 41
30.0
176
     1
 62
     5
 63
     7
421
 16777215
176
     1
 74
     1
176
     1
 91
        4
176
     1
 64
     7
176
     1
 65
   257
176
     1
 75
     1
176
     1
175
     1
176
     1
 42
1.0
176
     1
 92
        8
176
     1
 66
     7
176
     1
 43
1.0
176
     1
 76
     1
176
     1
 77
     6
176
     1
 78
     2
176
     1
 67
     7
176
     1
 79
     5
176
     1
170
     0
176
     1
171
     0
176
     1
290
     0
176
     1
 93
        1
176
     1
 44
0.0
176
     1
173
     0
176
     1
  0
VISUALSTYLE
  5
2B
102
{ACAD_REACTORS
330
2A
102
}
102
{ACAD_XDICTIONARY
360
159
102
}
330
2A
100
AcDbVisualStyle
  2
Flat
 70
     0
177
     2
291
     1
 71
     2
176
     1
 72
     1
176
     1
 73
     1
176
     1
 90
        2
176
     1
 40
0.6
176
     1
 41
30.0
176
     1
 62
     5
 63
     7
421
 16777215
176
     1
 74
     0
176
     1
 91
        0
176
     1
 64
     7
176
     1
 65
   257
176
     1
 75
     1
176
     1
175
     1
176
     1
 42
1.0
176
     1
 92
        8
176
     1
 66
     7
176
     1
 43
1.0
176
     1
 76
     1
176
     1
 77
     6
176
     1
 78
     2
176
     1
 67
     7
176
     1
 79
     5
176
     1
170
     0
176
     1
171
     0
176
     1
290
     0
176
     1
 93
       13
176
     1
 44
0.0
176
     1
173
     0
176
     1
  0
VISUALSTYLE
  5
2C
102
{ACAD_REACTORS
330
2A
102
}
102
{ACAD_XDICTIONARY
360
15B
102
}
330
2A
100
AcDbVisualStyle
  2
FlatWithEdges
 70
     1
177
     2
291
     1
 71
     2
176
     1
 72
     1
176
     1
 73
     1
176
     1
 90
        2
176
     1
 40
0.6
176
     1
 41
30.0
176
     1
 62
     5
 63
     7
421
 16777215
176
     1
 74
     1
176
     1
 91
        0
176
     1
 64
     7
176
     1
 65
   257
176
     1
 75
     1
176
     1
175
     1
176
     1
 42
1.0
176
     1
 92
        0
176
     1
 66
   257
176
     1
 43
1.0
176
     1
 76
     1
176
     1
 77
     6
176
     1
 78
     2
176
     1
 67
     7
176
     1
 79
     5
176
     1
170
     0
176
     1
171
     0
176
     1
290
     0
176
     1
 93
       13
176
     1
 44
0.0
176
     1
173
     0
176
     1
  0
VISUALSTYLE
  5
2D
102
{ACAD_REACTORS
330
2A
102
}
102
{ACAD_XDICTIONARY
360
15D
102
}
330
2A
100
AcDbVisualStyle
  2
Gouraud
 70
     2
177
     2
291
     1
 71
     2
176
     1
 72
     2
176
     1
 73
     1
176
     1
 90
        2
176
     1
 40
0.6
176
     1
 41
30.0
176
     1
 62
     5
 63
     7
421
 16777215
176
     1
 74
     0
176
     1
 91
        0
176
     1
 64
     7
176
     1
 65
   257
176
     1
 75
     1
176
     1
175
     1
176
     1
 42
1.0
176
     1
 92
        0
176
     1
 66
     7
176
     1
 43
1.0
176
     1
 76
     1
176
     1
 77
     6
176
     1
 78
     2
176
     1
 67
     7
176
     1
 79
     5
176
     1
170
     0
176
     1
171
     0
176
     1
290
     0
176
     1
 93
       13
176
     1
 44
0.0
176
     1
173
     0
176
     1
  0
VISUALSTYLE
  5
2E
102
{ACAD_REACTORS
330
2A
102
}
102
{ACAD_XDICTIONARY
360
15F
102
}
330
2A
100
AcDbVisualStyle
  2
GouraudWithEdges
 70
     3
177
     2
291
     1
 71
     2
176
     1
 72
     2
176
     1
 73
     1
176
     1
 90
        2
176
     1
 40
0.6
176
     1
 41
30.0
176
     1
 62
     5
 63
     7
421
 16777215
176
     1
 74
     1
176
     1
 91
        0
176
     1
 64
     7
176
     1
 65
   257
176
     1
 75
     1
176
     1
175
     1
176
     1
 42
1.0
176
     1
 92
        0
176
     1
 66
   257
176
     1
 43
1.0
176
     1
 76
     1
176
     1
 77
     6
176
     1
 78
     2
176
     1
 67
     7
176
     1
 79
     5
176
     1
170
     0
176
     1
171
     0
176
     1
290
     0
176
     1
 93
       13
176
     1
 44
0.0
176
     1
173
     0
176
     1
  0
VISUALSTYLE
  5
31
102
{ACAD_REACTORS
330
2A
102
}
102
{ACAD_XDICTIONARY
360
165
102
}
330
2A
100
AcDbVisualStyle
  2
Hidden
 70
     6
177
     2
291
     0
 71
     1
176
     1
 72
     2
176
     1
 73
     2
176
     1
 90
        0
176
     1
 40
0.6
176
     1
 41
30.0
176
     1
 62
     5
 63
     7
421
 16777215
176
     1
 74
     2
176
     1
 91
        2
176
     1
 64
     7
176
     1
 65
   257
176
     1
 75
     2
176
     1
175
     1
176
     1
 42
40.0
176
     1
 92
        0
176
     1
 66
   257
176
     1
 43
1.0
176
     1
 76
     1
176
     1
 77
     6
176
     1
 78
     2
176
     1
 67
     7
176
     1
 79
     3
176
     1
170
     0
176
     1
171
     0
176
     1
290
     0
176
     1
 93
        1
176
     1
 44
0.0
176
     1
173
     0
176
     1
  0
VISUALSTYLE
  5
3B
102
{ACAD_REACTORS
330
2A
102
}
102
{ACAD_XDICTIONARY
360
179
102
}
330
2A
100
AcDbVisualStyle
  2
JitterOff
 70
    20
177
     2
291
     1
 71
     2
176
     0
 72
     2
176
     0
 73
     0
176
     0
 90
        0
176
     0
 40
0.6
176
     0
 41
30.0
176
     0
 62
     5
 63
     7
421
 16777215
176
     0
 74
     1
176
     0
 91
        4
176
     0
 64
     7
176
     0
 65
   257
176
     0
 75
     1
176
     0
175
     1
176
     0
 42
1.0
176
     0
 92
       10
176
     2
 66
     7
176
     0
 43
1.0
176
     0
 76
     1
176
     0
 77
     6
176
     0
 78
     2
176
     0
 67
     7
176
     0
 79
     5
176
     0
170
     0
176
     0
171
     0
176
     0
290
     0
176
     0
 93
        1
176
     0
 44
0.0
176
     0
173
     0
176
     0
  0
VISUALSTYLE
  5
38
102
{ACAD_REACTORS
330
2A
102
}
102
{ACAD_XDICTIONARY
360
173
102
}
330
2A
100
AcDbVisualStyle
  2
Linepattern
 70
    14
177
     2
291
     1
 71
     2
176
     1
 72
     2
176
     1
 73
     0
176
     1
 90
        0
176
     1
 40
0.6
176
     1
 41
30.0
176
     1
 62
     5
 63
     7
421
 16777215
176
     1
 74
     1
176
     1
 91
        4
176
     1
 64
     7
176
     1
 65
   257
176
     1
 75
     7
176
     1
175
     7
176
     1
 42
1.0
176
     1
 92
        8
176
     1
 66
     7
176
     1
 43
1.0
176
     1
 76
     1
176
     1
 77
     6
176
     1
 78
     2
176
     1
 67
     7
176
     1
 79
     5
176
     1
170
     0
176
     1
171
     0
176
     1
290
     0
176
     1
 93
        1
176
     1
 44
0.0
176
     1
173
     0
176
     1
  0
VISUALSTYLE
  5
3C
102
{ACAD_REACTORS
330
2A
102
}
102
{ACAD_XDICTIONARY
360
17B
102
}
330
2A
100
AcDbVisualStyle
  2
OverhangOff
 70
    21
177
     2
291
     1
 71
     2
176
     0
 72
     2
176
     0
 73
     0
176
     0
 90
        0
176
     0
 40
0.6
176
     0
 41
30.0
176
     0
 62
     5
 63
     7
421
 16777215
176
     0
 74
     1
176
     0
 91
        4
176
     0
 64
     7
176
     0
 65
   257
176
     0
 75
     1
176
     0
175
     1
176
     0
 42
1.0
176
     0
 92
        9
176
     2
 66
     7
176
     0
 43
1.0
176
     0
 76
     1
176
     0
 77
     6
176
     0
 78
     2
176
     0
 67
     7
176
     0
 79
     5
176
     0
170
     0
176
     0
171
     0
176
     0
290
     0
176
     0
 93
        1
176
     0
 44
0.0
176
     0
173
     0
176
     0
  0
VISUALSTYLE
  5
33
102
{ACAD_REACTORS
330
2A
102
}
102
{ACAD_XDICTIONARY
360
169
102
}
330
2A
100
AcDbVisualStyle
  2
Realistic
 70
     8
177
     2
291
     0
 71
     2
176
     1
 72
     3
176
     1
 73
     0
176
     1
 90
        2
176
     1
 40
0.6
176
     1
 41
30.0
176
     1
 62
     5
 63
     7
421
 16777215
176
     1
 74
     0
176
     1
 91
        0
176
     1
 64
     7
176
     1
 65
   257
176
     1
 75
     1
176
     1
175
     1
176
     1
 42
1.0
176
     1
 92
        8
176
     1
 66
   257
176
     1
 43
1.0
176
     1
 76
     1
176
     1
 77
     6
176
     1
 78
     2
176
     1
 67
     7
176
     1
 79
     3
176
     1
170
     0
176
     1
171
     0
176
     1
290
     0
176
     1
 93
       13
176
     1
 44
0.0
176
     1
173
     0
176
     1
  0
VISUALSTYLE
  5
42
102
{ACAD_REACTORS
330
2A
102
}
102
{ACAD_XDICTIONARY
360
187
102
}
330
2A
100
AcDbVisualStyle
  2
Shaded
 70
    27
177
     2
291
     0
 71
     2
176
     1
 72
     2
176
     1
 73
     1
176
     1
 90
        2
176
     1
 40
0.6
176
     1
 41
30.0
176
     1
 62
     5
 63
     7
421
 16777215
176
     1
 74
     0
176
     1
 91
        4
176
     1
 64
     7
176
     1
 65
   257
176
     1
 75
     1
176
     1
175
     1
176
     1
 42
1.0
176
     1
 92
        8
176
     1
 66
   257
176
     1
 43
1.0
176
     1
 76
     1
176
     1
 77
     6
176
     1
 78
     2
176
     1
 67
     8
425
  7895160
176
     1
 79
     3
176
     1
170
     0
176
     1
171
     0
176
     1
290
     0
176
     1
 93
        5
176
     1
 44
0.0
176
     1
173
     0
176
     1
  0
VISUALSTYLE
  5
41
102
{ACAD_REACTORS
330
2A
102
}
102
{ACAD_XDICTIONARY
360
185
102
}
330
2A
100
AcDbVisualStyle
  2
Shaded with edges
 70
    26
177
     2
291
     0
 71
     2
176
     1
 72
     2
176
     1
 73
     1
176
     1
 90
        2
176
     1
 40
0.6
176
     1
 41
30.0
176
     1
 62
     5
 63
     7
421
 16777215
176
     1
 74
     1
176
     1
 91
       10
176
     1
 64
     7
176
     1
 65
   257
176
     1
 75
     2
176
     1
175
     1
176
     1
 42
1.0
176
     1
 92
        8
176
     1
 66
   257
176
     1
 43
1.0
176
     1
 76
     1
176
     1
 77
     6
176
     1
 78
     2
176
     1
 67
     7
176
     1
 79
     3
176
     1
170
     0
176
     1
171
     0
176
     1
290
     0
176
     1
 93
        5
176
     1
 44
0.0
176
     1
173
     0
176
     1
  0
VISUALSTYLE
  5
3E
102
{ACAD_REACTORS
330
2A
102
}
102
{ACAD_XDICTIONARY
360
17F
102
}
330
2A
100
AcDbVisualStyle
  2
Shades of Gray
 70
    23
177
     2
291
     0
 71
     2
176
     1
 72
     2
176
     1
 73
     3
176
     1
 90
        0
176
     1
 40
0.6
176
     1
 41
30.0
176
     1
 62
     5
 63
     7
421
 16777215
176
     1
 74
     2
176
     1
 91
        2
176
     1
 64
     7
176
     1
 65
     7
176
     1
 75
     1
176
     1
175
     1
176
     1
 42
40.0
176
     1
 92
        8
176
     1
 66
     7
176
     1
 43
1.0
176
     1
 76
     1
176
     1
 77
     6
176
     1
 78
     2
176
     1
 67
     7
176
     1
 79
     3
176
     1
170
     0
176
     1
171
     0
176
     1
290
     0
176
     1
 93
        1
176
     1
 44
0.0
176
     1
173
     0
176
     1
  0
VISUALSTYLE
  5
3F
102
{ACAD_REACTORS
330
2A
102
}
102
{ACAD_XDICTIONARY
360
181
102
}
330
2A
100
AcDbVisualStyle
  2
Sketchy
 70
    24
177
     2
291
     0
 71
     1
176
     1
 72
     2
176
     1
 73
     2
176
     1
 90
        0
176
     1
 40
0.6
176
     1
 41
30.0
176
     1
 62
     5
 63
     7
421
 16777215
176
     1
 74
     2
176
     1
 91
        2
176
     1
 64
     7
176
     1
 65
     7
176
     1
 75
     1
176
     1
175
     1
176
     1
 42
40.0
176
     1
 92
       11
176
     1
 66
     7
176
     1
 43
1.0
176
     1
 76
     1
176
     1
 77
     6
176
     1
 78
     2
176
     1
 67
     7
176
     1
 79
     6
176
     1
170
     0
176
     1
171
     0
176
     1
290
     0
176
     1
 93
        1
176
     1
 44
0.0
176
     1
173
     0
176
     1
  0
VISUALSTYLE
  5
37
102
{ACAD_REACTORS
330
2A
102
}
102
{ACAD_XDICTIONARY
360
171
102
}
330
2A
100
AcDbVisualStyle
  2
Thicken
 70
    13
177
     2
291
     1
 71
     2
176
     1
 72
     2
176
     1
 73
     0
176
     1
 90
        0
176
     1
 40
0.6
176
     1
 41
30.0
176
     1
 62
     5
 63
     7
421
 16777215
176
     1
 74
     1
176
     1
 91
        4
176
     1
 64
     7
176
     1
 65
   257
176
     1
 75
     1
176
     1
175
     1
176
     1
 42
1.0
176
     1
 92
       12
176
     1
 66
     7
176
     1
 43
1.0
176
     1
 76
     1
176
     1
 77
     6
176
     1
 78
     2
176
     1
 67
     7
176
     1
 79
     5
176
     1
170
     0
176
     1
171
     0
176
     1
290
     0
176
     1
 93
        1
176
     1
 44
0.0
176
     1
173
     0
176
     1
  0
VISUALSTYLE
  5
30
102
{ACAD_REACTORS
330
2A
102
}
102
{ACAD_XDICTIONARY
360
163
102
}
330
2A
100
AcDbVisualStyle
  2
Wireframe
 70
     5
177
     2
291
     0
 71
     0
176
     1
 72
     2
176
     1
 73
     0
176
     1
 90
        0
176
     1
 40
0.6
176
     1
 41
30.0
176
     1
 62
     5
 63
     7
421
 16777215
176
     1
 74
     1
176
     1
 91
        4
176
     1
 64
     7
176
     1
 65
   257
176
     1
 75
     1
176
     1
175
     1
176
     1
 42
1.0
176
     1
 92
        0
176
     1
 66
   257
176
     1
 43
1.0
176
     1
 76
     1
176
     1
 77
     6
176
     1
 78
     2
176
     1
 67
     7
176
     1
 79
     3
176
     1
170
     0
176
     1
171
     0
176
     1
290
     0
176
     1
 93
        1
176
     1
 44
0.0
176
     1
173
     0
176
     1
  0
VISUALSTYLE
  5
40
102
{ACAD_REACTORS
330
2A
102
}
102
{ACAD_XDICTIONARY
360
183
102
}
330
2A
100
AcDbVisualStyle
  2
X-Ray
 70
    25
177
     2
291
     0
 71
     2
176
     1
 72
     2
176
     1
 73
     1
176
     1
 90
        1
176
     1
 40
0.5
176
     1
 41
30.0
176
     1
 62
     5
 63
     7
421
 16777215
176
     1
 74
     1
176
     1
 91
        0
176
     1
 64
     7
176
     1
 65
   257
176
     1
 75
     1
176
     1
175
     1
176
     1
 42
1.0
176
     1
 92
        8
176
     1
 66
     7
176
     1
 43
1.0
176
     1
 76
     1
176
     1
 77
     6
176
     1
 78
     2
176
     1
 67
     7
176
     1
 79
     3
176
     1
170
     0
176
     1
171
     0
176
     1
290
     0
176
     1
 93
       13
176
     1
 44
0.0
176
     1
173
     0
176
     1
  0
DICTIONARYVAR
  5
158
102
{ACAD_REACTORS
330
157
102
}
330
157
100
DictionaryVariables
280
     0
  1
1:1
  0
DICTIONARYVAR
  5
18D
102
{ACAD_REACTORS
330
157
102
}
330
157
100
DictionaryVariables
280
     0
  1
Standard
  0
DICTIONARYVAR
  5
18C
102
{ACAD_REACTORS
330
157
102
}
330
157
100
DictionaryVariables
280
     0
  1
Standard
  0
DICTIONARY
  5
189
330
6A
100
AcDbDictionary
280
     1
281
     1
  3
ACAD_ROUNDTRIP_2008_TABLESTYLE_CELLSTYLEMAP
360
18A
  0
DICTIONARY
  5
161
330
2F
100
AcDbDictionary
280
     1
281
     1
  3
ACAD_XREC_ROUNDTRIP
360
162
  0
DICTIONARY
  5
167
330
32
100
AcDbDictionary
280
     1
281
     1
  3
ACAD_XREC_ROUNDTRIP
360
168
  0
DICTIONARY
  5
16F
330
36
100
AcDbDictionary
280
     1
281
     1
  3
ACAD_XREC_ROUNDTRIP
360
170
  0
DICTIONARY
  5
177
330
3A
100
AcDbDictionary
280
     1
281
     1
  3
ACAD_XREC_ROUNDTRIP
360
178
  0
DICTIONARY
  5
16B
330
34
100
AcDbDictionary
280
     1
281
     1
  3
ACAD_XREC_ROUNDTRIP
360
16C
  0
DICTIONARY
  5
16D
330
35
100
AcDbDictionary
280
     1
281
     1
  3
ACAD_XREC_ROUNDTRIP
360
16E
  0
DICTIONARY
  5
17D
330
3D
100
AcDbDictionary
280
     1
281
     1
  3
ACAD_XREC_ROUNDTRIP
360
17E
  0
DICTIONARY
  5
175
330
39
100
AcDbDictionary
280
     1
281
     1
  3
ACAD_XREC_ROUNDTRIP
360
176
  0
DICTIONARY
  5
159
330
2B
100
AcDbDictionary
280
     1
281
     1
  3
ACAD_XREC_ROUNDTRIP
360
15A
  0
DICTIONARY
  5
15B
330
2C
100
AcDbDictionary
280
     1
281
     1
  3
ACAD_XREC_ROUNDTRIP
360
15C
  0
DICTIONARY
  5
15D
330
2D
100
AcDbDictionary
280
     1
281
     1
  3
ACAD_XREC_ROUNDTRIP
360
15E
  0
DICTIONARY
  5
15F
330
2E
100
AcDbDictionary
280
     1
281
     1
  3
ACAD_XREC_ROUNDTRIP
360
160
  0
DICTIONARY
  5
165
330
31
100
AcDbDictionary
280
     1
281
     1
  3
ACAD_XREC_ROUNDTRIP
360
166
  0
DICTIONARY
  5
179
330
3B
100
AcDbDictionary
280
     1
281
     1
  3
ACAD_XREC_ROUNDTRIP
360
17A
  0
DICTIONARY
  5
173
330
38
100
AcDbDictionary
280
     1
281
     1
  3
ACAD_XREC_ROUNDTRIP
360
174
  0
DICTIONARY
  5
17B
330
3C
100
AcDbDictionary
280
     1
281
     1
  3
ACAD_XREC_ROUNDTRIP
360
17C
  0
DICTIONARY
  5
169
330
33
100
AcDbDictionary
280
     1
281
     1
  3
ACAD_XREC_ROUNDTRIP
360
16A
  0
DICTIONARY
  5
187
330
42
100
AcDbDictionary
280
     1
281
     1
  3
ACAD_XREC_ROUNDTRIP
360
188
  0
DICTIONARY
  5
185
330
41
100
AcDbDictionary
280
     1
281
     1
  3
ACAD_XREC_ROUNDTRIP
360
186
  0
DICTIONARY
  5
17F
330
3E
100
AcDbDictionary
280
     1
281
     1
  3
ACAD_XREC_ROUNDTRIP
360
180
  0
DICTIONARY
  5
181
330
3F
100
AcDbDictionary
280
     1
281
     1
  3
ACAD_XREC_ROUNDTRIP
360
182
  0
DICTIONARY
  5
171
330
37
100
AcDbDictionary
280
     1
281
     1
  3
ACAD_XREC_ROUNDTRIP
360
172
  0
DICTIONARY
  5
163
330
30
100
AcDbDictionary
280
     1
281
     1
  3
ACAD_XREC_ROUNDTRIP
360
164
  0
DICTIONARY
  5
183
330
40
100
AcDbDictionary
280
     1
281
     1
  3
ACAD_XREC_ROUNDTRIP
360
184
  0
CELLSTYLEMAP
  5
18A
102
{ACAD_REACTORS
330
189
102
}
330
189
100
AcDbCellStyleMap
 90
        3
300
CELLSTYLE
  1
TABLEFORMAT_BEGIN
 90
        5
170
     1
 91
        0
 92
    32768
 62
   257
 93
        1
300
CONTENTFORMAT
  1
CONTENTFORMAT_BEGIN
 90
        0
 91
        0
 92
        4
 93
        0
300

 40
0.0
140
1.0
 94
        5
 62
     0
340
11
144
0.25
309
CONTENTFORMAT_END
171
     1
301
MARGIN
  1
CELLMARGIN_BEGIN
 40
0.06
 40
0.06
 40
0.06
 40
0.06
 40
0.06
 40
0.06
309
CELLMARGIN_END
 94
        6
 95
        1
302
GRIDFORMAT
  1
GRIDFORMAT_BEGIN
 90
        0
 91
        1
 62
     0
 92
       -2
340
14
 93
        0
 40
0.045
309
GRIDFORMAT_END
 95
        2
302
GRIDFORMAT
  1
GRIDFORMAT_BEGIN
 90
        0
 91
        1
 62
     0
 92
       -2
340
14
 93
        0
 40
0.045
309
GRIDFORMAT_END
 95
        4
302
GRIDFORMAT
  1
GRIDFORMAT_BEGIN
 90
        0
 91
        1
 62
     0
 92
       -2
340
14
 93
        0
 40
0.045
309
GRIDFORMAT_END
 95
        8
302
GRIDFORMAT
  1
GRIDFORMAT_BEGIN
 90
        0
 91
        1
 62
     0
 92
       -2
340
14
 93
        0
 40
0.045
309
GRIDFORMAT_END
 95
       16
302
GRIDFORMAT
  1
GRIDFORMAT_BEGIN
 90
        0
 91
        1
 62
     0
 92
       -2
340
14
 93
        0
 40
0.045
309
GRIDFORMAT_END
 95
       32
302
GRIDFORMAT
  1
GRIDFORMAT_BEGIN
 90
        0
 91
        1
 62
     0
 92
       -2
340
14
 93
        0
 40
0.045
309
GRIDFORMAT_END
309
TABLEFORMAT_END
  1
CELLSTYLE_BEGIN
 90
        1
 91
        1
300
_TITLE
309
CELLSTYLE_END
300
CELLSTYLE
  1
TABLEFORMAT_BEGIN
 90
        5
170
     1
 91
        0
 92
        0
 62
   257
 93
        1
300
CONTENTFORMAT
  1
CONTENTFORMAT_BEGIN
 90
        0
 91
        0
 92
        4
 93
        0
300

 40
0.0
140
1.0
 94
        5
 62
     0
340
11
144
0.18
309
CONTENTFORMAT_END
171
     1
301
MARGIN
  1
CELLMARGIN_BEGIN
 40
0.06
 40
0.06
 40
0.06
 40
0.06
 40
0.06
 40
0.06
309
CELLMARGIN_END
 94
        6
 95
        1
302
GRIDFORMAT
  1
GRIDFORMAT_BEGIN
 90
        0
 91
        1
 62
     0
 92
       -2
340
14
 93
        0
 40
0.045
309
GRIDFORMAT_END
 95
        2
302
GRIDFORMAT
  1
GRIDFORMAT_BEGIN
 90
        0
 91
        1
 62
     0
 92
       -2
340
14
 93
        0
 40
0.045
309
GRIDFORMAT_END
 95
        4
302
GRIDFORMAT
  1
GRIDFORMAT_BEGIN
 90
        0
 91
        1
 62
     0
 92
       -2
340
14
 93
        0
 40
0.045
309
GRIDFORMAT_END
 95
        8
302
GRIDFORMAT
  1
GRIDFORMAT_BEGIN
 90
        0
 91
        1
 62
     0
 92
       -2
340
14
 93
        0
 40
0.045
309
GRIDFORMAT_END
 95
       16
302
GRIDFORMAT
  1
GRIDFORMAT_BEGIN
 90
        0
 91
        1
 62
     0
 92
       -2
340
14
 93
        0
 40
0.045
309
GRIDFORMAT_END
 95
       32
302
GRIDFORMAT
  1
GRIDFORMAT_BEGIN
 90
        0
 91
        1
 62
     0
 92
       -2
340
14
 93
        0
 40
0.045
309
GRIDFORMAT_END
309
TABLEFORMAT_END
  1
CELLSTYLE_BEGIN
 90
        2
 91
        1
300
_HEADER
309
CELLSTYLE_END
300
CELLSTYLE
  1
TABLEFORMAT_BEGIN
 90
        5
170
     1
 91
        0
 92
        0
 62
   257
 93
        1
300
CONTENTFORMAT
  1
CONTENTFORMAT_BEGIN
 90
        0
 91
        0
 92
        4
 93
        0
300

 40
0.0
140
1.0
 94
        2
 62
     0
340
11
144
0.18
309
CONTENTFORMAT_END
171
     1
301
MARGIN
  1
CELLMARGIN_BEGIN
 40
0.06
 40
0.06
 40
0.06
 40
0.06
 40
0.06
 40
0.06
309
CELLMARGIN_END
 94
        6
 95
        1
302
GRIDFORMAT
  1
GRIDFORMAT_BEGIN
 90
        0
 91
        1
 62
     0
 92
       -2
340
14
 93
        0
 40
0.045
309
GRIDFORMAT_END
 95
        2
302
GRIDFORMAT
  1
GRIDFORMAT_BEGIN
 90
        0
 91
        1
 62
     0
 92
       -2
340
14
 93
        0
 40
0.045
309
GRIDFORMAT_END
 95
        4
302
GRIDFORMAT
  1
GRIDFORMAT_BEGIN
 90
        0
 91
        1
 62
     0
 92
       -2
340
14
 93
        0
 40
0.045
309
GRIDFORMAT_END
 95
        8
302
GRIDFORMAT
  1
GRIDFORMAT_BEGIN
 90
        0
 91
        1
 62
     0
 92
       -2
340
14
 93
        0
 40
0.045
309
GRIDFORMAT_END
 95
       16
302
GRIDFORMAT
  1
GRIDFORMAT_BEGIN
 90
        0
 91
        1
 62
     0
 92
       -2
340
14
 93
        0
 40
0.045
309
GRIDFORMAT_END
 95
       32
302
GRIDFORMAT
  1
GRIDFORMAT_BEGIN
 90
        0
 91
        1
 62
     0
 92
       -2
340
14
 93
        0
 40
0.045
309
GRIDFORMAT_END
309
TABLEFORMAT_END
  1
CELLSTYLE_BEGIN
 90
        3
 91
        2
300
_DATA
309
CELLSTYLE_END
  0
XRECORD
  5
162
102
{ACAD_REACTORS
330
161
102
}
330
161
100
AcDbXrecord
280
     1
102
RTVSPost2010Prop28
280
     1
102
RTVSPost2010PropOp28
 70
     1
102
RTVSPost2010Prop29
280
     1
102
RTVSPost2010PropOp29
 70
     1
102
RTVSPost2010Prop30
280
     0
102
RTVSPost2010PropOp30
 70
     1
102
RTVSPost2010Prop31
280
     0
102
RTVSPost2010PropOp31
 70
     1
102
RTVSPost2010Prop32
280
     0
102
RTVSPost2010PropOp32
 70
     1
102
RTVSPost2010Prop33
280
     0
102
RTVSPost2010PropOp33
 70
     1
102
RTVSPost2010Prop34
280
     0
102
RTVSPost2010PropOp34
 70
     1
102
RTVSPost2010Prop35
280
     0
102
RTVSPost2010PropOp35
 70
     1
102
RTVSPost2010Prop36
280
     0
102
RTVSPost2010PropOp36
 70
     1
102
RTVSPost2010Prop37
 90
       50
102
RTVSPost2010PropOp37
 70
     1
102
RTVSPost2010Prop38
140
0.0
102
RTVSPost2010PropOp38
 70
     1
102
RTVSPost2010Prop39
140
1.0
102
RTVSPost2010PropOp39
 70
     1
102
RTVSPost2010Prop40
 90
        0
102
RTVSPost2010PropOp40
 70
     1
102
RTVSPost2010Prop41ColorIndex
 90
       18
102
RTVSPost2010Prop41ColorRGB
 90
        0
102
RTVSPost2010PropOp41
 70
     1
102
RTVSPost2010Prop42
 90
       50
102
RTVSPost2010PropOp42
 70
     1
102
RTVSPost2010Prop43
 90
        3
102
RTVSPost2010PropOp43
 70
     1
102
RTVSPost2010Prop44ColorIndex
 90
        5
102
RTVSPost2010Prop44ColorRGB
 90
      255
102
RTVSPost2010PropOp44
 70
     1
102
RTVSPost2010Prop45
280
     0
102
RTVSPost2010PropOp45
 70
     1
102
RTVSPost2010Prop46
 90
       50
102
RTVSPost2010PropOp46
 70
     1
102
RTVSPost2010Prop47
 90
       50
102
RTVSPost2010PropOp47
 70
     1
102
RTVSPost2010Prop48
 90
       50
102
RTVSPost2010PropOp48
 70
     1
102
RTVSPost2010Prop49
280
     0
102
RTVSPost2010PropOp49
 70
     1
102
RTVSPost2010Prop50
 90
       50
102
RTVSPost2010PropOp50
 70
     1
102
RTVSPost2010Prop51ColorIndex
 90
      256
102
RTVSPost2010Prop51ColorRGB
 90
-16777216
102
RTVSPost2010PropOp51
 70
     0
102
RTVSPost2010Prop52
140
1.0
102
RTVSPost2010PropOp52
 70
     0
102
RTVSPost2010Prop53
 90
        2
102
RTVSPost2010PropOp53
 70
     1
102
RTVSPost2010Prop54
  1
strokes_ogs.tif
102
RTVSPost2010PropOp54
 70
     1
102
RTVSPost2010Prop55
280
     0
102
RTVSPost2010PropOp55
 70
     1
102
RTVSPost2010Prop56
140
1.0
102
RTVSPost2010PropOp56
 70
     1
102
RTVSPost2010Prop57
140
1.0
102
RTVSPost2010PropOp57
 70
     1
  0
XRECORD
  5
168
102
{ACAD_REACTORS
330
167
102
}
330
167
100
AcDbXrecord
280
     1
102
RTVSPost2010Prop28
280
     0
102
RTVSPost2010PropOp28
 70
     1
102
RTVSPost2010Prop29
280
     1
102
RTVSPost2010PropOp29
 70
     1
102
RTVSPost2010Prop30
280
     1
102
RTVSPost2010PropOp30
 70
     1
102
RTVSPost2010Prop31
280
     0
102
RTVSPost2010PropOp31
 70
     1
102
RTVSPost2010Prop32
280
     0
102
RTVSPost2010PropOp32
 70
     1
102
RTVSPost2010Prop33
280
     0
102
RTVSPost2010PropOp33
 70
     1
102
RTVSPost2010Prop34
280
     0
102
RTVSPost2010PropOp34
 70
     1
102
RTVSPost2010Prop35
280
     0
102
RTVSPost2010PropOp35
 70
     1
102
RTVSPost2010Prop36
280
     0
102
RTVSPost2010PropOp36
 70
     1
102
RTVSPost2010Prop37
 90
       50
102
RTVSPost2010PropOp37
 70
     1
102
RTVSPost2010Prop38
140
0.0
102
RTVSPost2010PropOp38
 70
     1
102
RTVSPost2010Prop39
140
1.0
102
RTVSPost2010PropOp39
 70
     1
102
RTVSPost2010Prop40
 90
        0
102
RTVSPost2010PropOp40
 70
     1
102
RTVSPost2010Prop41ColorIndex
 90
       18
102
RTVSPost2010Prop41ColorRGB
 90
        0
102
RTVSPost2010PropOp41
 70
     1
102
RTVSPost2010Prop42
 90
       50
102
RTVSPost2010PropOp42
 70
     1
102
RTVSPost2010Prop43
 90
        3
102
RTVSPost2010PropOp43
 70
     1
102
RTVSPost2010Prop44ColorIndex
 90
        5
102
RTVSPost2010Prop44ColorRGB
 90
      255
102
RTVSPost2010PropOp44
 70
     1
102
RTVSPost2010Prop45
280
     0
102
RTVSPost2010PropOp45
 70
     1
102
RTVSPost2010Prop46
 90
       50
102
RTVSPost2010PropOp46
 70
     1
102
RTVSPost2010Prop47
 90
       50
102
RTVSPost2010PropOp47
 70
     1
102
RTVSPost2010Prop48
 90
       50
102
RTVSPost2010PropOp48
 70
     1
102
RTVSPost2010Prop49
280
     0
102
RTVSPost2010PropOp49
 70
     1
102
RTVSPost2010Prop50
 90
       50
102
RTVSPost2010PropOp50
 70
     1
102
RTVSPost2010Prop51ColorIndex
 90
      256
102
RTVSPost2010Prop51ColorRGB
 90
-16777216
102
RTVSPost2010PropOp51
 70
     0
102
RTVSPost2010Prop52
140
1.0
102
RTVSPost2010PropOp52
 70
     0
102
RTVSPost2010Prop53
 90
        2
102
RTVSPost2010PropOp53
 70
     1
102
RTVSPost2010Prop54
  1
strokes_ogs.tif
102
RTVSPost2010PropOp54
 70
     1
102
RTVSPost2010Prop55
280
     0
102
RTVSPost2010PropOp55
 70
     1
102
RTVSPost2010Prop56
140
1.0
102
RTVSPost2010PropOp56
 70
     1
102
RTVSPost2010Prop57
140
1.0
102
RTVSPost2010PropOp57
 70
     1
  0
XRECORD
  5
170
102
{ACAD_REACTORS
330
16F
102
}
330
16F
100
AcDbXrecord
280
     1
102
RTVSPost2010Prop28
280
     0
102
RTVSPost2010PropOp28
 70
     1
102
RTVSPost2010Prop29
280
     1
102
RTVSPost2010PropOp29
 70
     1
102
RTVSPost2010Prop30
280
     1
102
RTVSPost2010PropOp30
 70
     1
102
RTVSPost2010Prop31
280
     0
102
RTVSPost2010PropOp31
 70
     1
102
RTVSPost2010Prop32
280
     0
102
RTVSPost2010PropOp32
 70
     1
102
RTVSPost2010Prop33
280
     0
102
RTVSPost2010PropOp33
 70
     1
102
RTVSPost2010Prop34
280
     0
102
RTVSPost2010PropOp34
 70
     1
102
RTVSPost2010Prop35
280
     0
102
RTVSPost2010PropOp35
 70
     1
102
RTVSPost2010Prop36
280
     0
102
RTVSPost2010PropOp36
 70
     1
102
RTVSPost2010Prop37
 90
       50
102
RTVSPost2010PropOp37
 70
     1
102
RTVSPost2010Prop38
140
0.0
102
RTVSPost2010PropOp38
 70
     1
102
RTVSPost2010Prop39
140
1.0
102
RTVSPost2010PropOp39
 70
     1
102
RTVSPost2010Prop40
 90
        0
102
RTVSPost2010PropOp40
 70
     1
102
RTVSPost2010Prop41ColorIndex
 90
       18
102
RTVSPost2010Prop41ColorRGB
 90
        0
102
RTVSPost2010PropOp41
 70
     1
102
RTVSPost2010Prop42
 90
       50
102
RTVSPost2010PropOp42
 70
     1
102
RTVSPost2010Prop43
 90
        3
102
RTVSPost2010PropOp43
 70
     1
102
RTVSPost2010Prop44ColorIndex
 90
        5
102
RTVSPost2010Prop44ColorRGB
 90
      255
102
RTVSPost2010PropOp44
 70
     1
102
RTVSPost2010Prop45
280
     0
102
RTVSPost2010PropOp45
 70
     1
102
RTVSPost2010Prop46
 90
       50
102
RTVSPost2010PropOp46
 70
     1
102
RTVSPost2010Prop47
 90
       50
102
RTVSPost2010PropOp47
 70
     1
102
RTVSPost2010Prop48
 90
       50
102
RTVSPost2010PropOp48
 70
     1
102
RTVSPost2010Prop49
280
     0
102
RTVSPost2010PropOp49
 70
     1
102
RTVSPost2010Prop50
 90
       50
102
RTVSPost2010PropOp50
 70
     1
102
RTVSPost2010Prop51ColorIndex
 90
      256
102
RTVSPost2010Prop51ColorRGB
 90
-16777216
102
RTVSPost2010PropOp51
 70
     0
102
RTVSPost2010Prop52
140
1.0
102
RTVSPost2010PropOp52
 70
     0
102
RTVSPost2010Prop53
 90
        2
102
RTVSPost2010PropOp53
 70
     1
102
RTVSPost2010Prop54
  1
strokes_ogs.tif
102
RTVSPost2010PropOp54
 70
     1
102
RTVSPost2010Prop55
280
     0
102
RTVSPost2010PropOp55
 70
     1
102
RTVSPost2010Prop56
140
1.0
102
RTVSPost2010PropOp56
 70
     1
102
RTVSPost2010Prop57
140
1.0
102
RTVSPost2010PropOp57
 70
     1
  0
XRECORD
  5
178
102
{ACAD_REACTORS
330
177
102
}
330
177
100
AcDbXrecord
280
     1
102
RTVSPost2010Prop28
280
     0
102
RTVSPost2010PropOp28
 70
     1
102
RTVSPost2010Prop29
280
     1
102
RTVSPost2010PropOp29
 70
     1
102
RTVSPost2010Prop30
280
     1
102
RTVSPost2010PropOp30
 70
     1
102
RTVSPost2010Prop31
280
     0
102
RTVSPost2010PropOp31
 70
     1
102
RTVSPost2010Prop32
280
     0
102
RTVSPost2010PropOp32
 70
     1
102
RTVSPost2010Prop33
280
     0
102
RTVSPost2010PropOp33
 70
     1
102
RTVSPost2010Prop34
280
     0
102
RTVSPost2010PropOp34
 70
     1
102
RTVSPost2010Prop35
280
     0
102
RTVSPost2010PropOp35
 70
     1
102
RTVSPost2010Prop36
280
     0
102
RTVSPost2010PropOp36
 70
     1
102
RTVSPost2010Prop37
 90
       50
102
RTVSPost2010PropOp37
 70
     1
102
RTVSPost2010Prop38
140
0.0
102
RTVSPost2010PropOp38
 70
     1
102
RTVSPost2010Prop39
140
1.0
102
RTVSPost2010PropOp39
 70
     1
102
RTVSPost2010Prop40
 90
        0
102
RTVSPost2010PropOp40
 70
     1
102
RTVSPost2010Prop41ColorIndex
 90
       18
102
RTVSPost2010Prop41ColorRGB
 90
        0
102
RTVSPost2010PropOp41
 70
     1
102
RTVSPost2010Prop42
 90
       50
102
RTVSPost2010PropOp42
 70
     1
102
RTVSPost2010Prop43
 90
        3
102
RTVSPost2010PropOp43
 70
     1
102
RTVSPost2010Prop44ColorIndex
 90
        5
102
RTVSPost2010Prop44ColorRGB
 90
      255
102
RTVSPost2010PropOp44
 70
     1
102
RTVSPost2010Prop45
280
     0
102
RTVSPost2010PropOp45
 70
     1
102
RTVSPost2010Prop46
 90
       50
102
RTVSPost2010PropOp46
 70
     1
102
RTVSPost2010Prop47
 90
       50
102
RTVSPost2010PropOp47
 70
     1
102
RTVSPost2010Prop48
 90
       50
102
RTVSPost2010PropOp48
 70
     1
102
RTVSPost2010Prop49
280
     0
102
RTVSPost2010PropOp49
 70
     1
102
RTVSPost2010Prop50
 90
       50
102
RTVSPost2010PropOp50
 70
     1
102
RTVSPost2010Prop51ColorIndex
 90
      256
102
RTVSPost2010Prop51ColorRGB
 90
-16777216
102
RTVSPost2010PropOp51
 70
     0
102
RTVSPost2010Prop52
140
1.0
102
RTVSPost2010PropOp52
 70
     0
102
RTVSPost2010Prop53
 90
        2
102
RTVSPost2010PropOp53
 70
     1
102
RTVSPost2010Prop54
  1
strokes_ogs.tif
102
RTVSPost2010PropOp54
 70
     1
102
RTVSPost2010Prop55
280
     0
102
RTVSPost2010PropOp55
 70
     1
102
RTVSPost2010Prop56
140
1.0
102
RTVSPost2010PropOp56
 70
     1
102
RTVSPost2010Prop57
140
1.0
102
RTVSPost2010PropOp57
 70
     1
  0
XRECORD
  5
16C
102
{ACAD_REACTORS
330
16B
102
}
330
16B
100
AcDbXrecord
280
     1
102
RTVSPost2010Prop28
280
     0
102
RTVSPost2010PropOp28
 70
     1
102
RTVSPost2010Prop29
280
     1
102
RTVSPost2010PropOp29
 70
     1
102
RTVSPost2010Prop30
280
     1
102
RTVSPost2010PropOp30
 70
     1
102
RTVSPost2010Prop31
280
     0
102
RTVSPost2010PropOp31
 70
     1
102
RTVSPost2010Prop32
280
     0
102
RTVSPost2010PropOp32
 70
     1
102
RTVSPost2010Prop33
280
     0
102
RTVSPost2010PropOp33
 70
     1
102
RTVSPost2010Prop34
280
     0
102
RTVSPost2010PropOp34
 70
     1
102
RTVSPost2010Prop35
280
     0
102
RTVSPost2010PropOp35
 70
     1
102
RTVSPost2010Prop36
280
     0
102
RTVSPost2010PropOp36
 70
     1
102
RTVSPost2010Prop37
 90
       50
102
RTVSPost2010PropOp37
 70
     1
102
RTVSPost2010Prop38
140
0.0
102
RTVSPost2010PropOp38
 70
     1
102
RTVSPost2010Prop39
140
1.0
102
RTVSPost2010PropOp39
 70
     1
102
RTVSPost2010Prop40
 90
        0
102
RTVSPost2010PropOp40
 70
     1
102
RTVSPost2010Prop41ColorIndex
 90
       18
102
RTVSPost2010Prop41ColorRGB
 90
        0
102
RTVSPost2010PropOp41
 70
     1
102
RTVSPost2010Prop42
 90
       50
102
RTVSPost2010PropOp42
 70
     1
102
RTVSPost2010Prop43
 90
        3
102
RTVSPost2010PropOp43
 70
     1
102
RTVSPost2010Prop44ColorIndex
 90
        5
102
RTVSPost2010Prop44ColorRGB
 90
      255
102
RTVSPost2010PropOp44
 70
     1
102
RTVSPost2010Prop45
280
     0
102
RTVSPost2010PropOp45
 70
     1
102
RTVSPost2010Prop46
 90
       50
102
RTVSPost2010PropOp46
 70
     1
102
RTVSPost2010Prop47
 90
       50
102
RTVSPost2010PropOp47
 70
     1
102
RTVSPost2010Prop48
 90
       50
102
RTVSPost2010PropOp48
 70
     1
102
RTVSPost2010Prop49
280
     0
102
RTVSPost2010PropOp49
 70
     1
102
RTVSPost2010Prop50
 90
       50
102
RTVSPost2010PropOp50
 70
     1
102
RTVSPost2010Prop51ColorIndex
 90
      256
102
RTVSPost2010Prop51ColorRGB
 90
-16777216
102
RTVSPost2010PropOp51
 70
     0
102
RTVSPost2010Prop52
140
1.0
102
RTVSPost2010PropOp52
 70
     0
102
RTVSPost2010Prop53
 90
        2
102
RTVSPost2010PropOp53
 70
     1
102
RTVSPost2010Prop54
  1
strokes_ogs.tif
102
RTVSPost2010PropOp54
 70
     1
102
RTVSPost2010Prop55
280
     0
102
RTVSPost2010PropOp55
 70
     1
102
RTVSPost2010Prop56
140
1.0
102
RTVSPost2010PropOp56
 70
     1
102
RTVSPost2010Prop57
140
1.0
102
RTVSPost2010PropOp57
 70
     1
  0
XRECORD
  5
16E
102
{ACAD_REACTORS
330
16D
102
}
330
16D
100
AcDbXrecord
280
     1
102
RTVSPost2010Prop28
280
     0
102
RTVSPost2010PropOp28
 70
     1
102
RTVSPost2010Prop29
280
     1
102
RTVSPost2010PropOp29
 70
     1
102
RTVSPost2010Prop30
280
     1
102
RTVSPost2010PropOp30
 70
     1
102
RTVSPost2010Prop31
280
     0
102
RTVSPost2010PropOp31
 70
     1
102
RTVSPost2010Prop32
280
     0
102
RTVSPost2010PropOp32
 70
     1
102
RTVSPost2010Prop33
280
     0
102
RTVSPost2010PropOp33
 70
     1
102
RTVSPost2010Prop34
280
     0
102
RTVSPost2010PropOp34
 70
     1
102
RTVSPost2010Prop35
280
     0
102
RTVSPost2010PropOp35
 70
     1
102
RTVSPost2010Prop36
280
     0
102
RTVSPost2010PropOp36
 70
     1
102
RTVSPost2010Prop37
 90
       50
102
RTVSPost2010PropOp37
 70
     1
102
RTVSPost2010Prop38
140
0.0
102
RTVSPost2010PropOp38
 70
     1
102
RTVSPost2010Prop39
140
1.0
102
RTVSPost2010PropOp39
 70
     1
102
RTVSPost2010Prop40
 90
        0
102
RTVSPost2010PropOp40
 70
     1
102
RTVSPost2010Prop41ColorIndex
 90
       18
102
RTVSPost2010Prop41ColorRGB
 90
        0
102
RTVSPost2010PropOp41
 70
     1
102
RTVSPost2010Prop42
 90
       50
102
RTVSPost2010PropOp42
 70
     1
102
RTVSPost2010Prop43
 90
        3
102
RTVSPost2010PropOp43
 70
     1
102
RTVSPost2010Prop44ColorIndex
 90
        5
102
RTVSPost2010Prop44ColorRGB
 90
      255
102
RTVSPost2010PropOp44
 70
     1
102
RTVSPost2010Prop45
280
     0
102
RTVSPost2010PropOp45
 70
     1
102
RTVSPost2010Prop46
 90
       50
102
RTVSPost2010PropOp46
 70
     1
102
RTVSPost2010Prop47
 90
       50
102
RTVSPost2010PropOp47
 70
     1
102
RTVSPost2010Prop48
 90
       50
102
RTVSPost2010PropOp48
 70
     1
102
RTVSPost2010Prop49
280
     0
102
RTVSPost2010PropOp49
 70
     1
102
RTVSPost2010Prop50
 90
       50
102
RTVSPost2010PropOp50
 70
     1
102
RTVSPost2010Prop51ColorIndex
 90
      256
102
RTVSPost2010Prop51ColorRGB
 90
-16777216
102
RTVSPost2010PropOp51
 70
     0
102
RTVSPost2010Prop52
140
1.0
102
RTVSPost2010PropOp52
 70
     0
102
RTVSPost2010Prop53
 90
        2
102
RTVSPost2010PropOp53
 70
     1
102
RTVSPost2010Prop54
  1
strokes_ogs.tif
102
RTVSPost2010PropOp54
 70
     1
102
RTVSPost2010Prop55
280
     0
102
RTVSPost2010PropOp55
 70
     1
102
RTVSPost2010Prop56
140
1.0
102
RTVSPost2010PropOp56
 70
     1
102
RTVSPost2010Prop57
140
1.0
102
RTVSPost2010PropOp57
 70
     1
  0
XRECORD
  5
17E
102
{ACAD_REACTORS
330
17D
102
}
330
17D
100
AcDbXrecord
280
     1
102
RTVSPost2010Prop28
280
     0
102
RTVSPost2010PropOp28
 70
     0
102
RTVSPost2010Prop29
280
     1
102
RTVSPost2010PropOp29
 70
     0
102
RTVSPost2010Prop30
280
     1
102
RTVSPost2010PropOp30
 70
     0
102
RTVSPost2010Prop31
280
     0
102
RTVSPost2010PropOp31
 70
     0
102
RTVSPost2010Prop32
280
     0
102
RTVSPost2010PropOp32
 70
     0
102
RTVSPost2010Prop33
280
     0
102
RTVSPost2010PropOp33
 70
     0
102
RTVSPost2010Prop34
280
     0
102
RTVSPost2010PropOp34
 70
     0
102
RTVSPost2010Prop35
280
     0
102
RTVSPost2010PropOp35
 70
     0
102
RTVSPost2010Prop36
280
     0
102
RTVSPost2010PropOp36
 70
     0
102
RTVSPost2010Prop37
 90
       50
102
RTVSPost2010PropOp37
 70
     0
102
RTVSPost2010Prop38
140
0.0
102
RTVSPost2010PropOp38
 70
     0
102
RTVSPost2010Prop39
140
1.0
102
RTVSPost2010PropOp39
 70
     0
102
RTVSPost2010Prop40
 90
        0
102
RTVSPost2010PropOp40
 70
     0
102
RTVSPost2010Prop41ColorIndex
 90
       18
102
RTVSPost2010Prop41ColorRGB
 90
        0
102
RTVSPost2010PropOp41
 70
     0
102
RTVSPost2010Prop42
 90
       50
102
RTVSPost2010PropOp42
 70
     0
102
RTVSPost2010Prop43
 90
        3
102
RTVSPost2010PropOp43
 70
     0
102
RTVSPost2010Prop44ColorIndex
 90
        5
102
RTVSPost2010Prop44ColorRGB
 90
      255
102
RTVSPost2010PropOp44
 70
     0
102
RTVSPost2010Prop45
280
     0
102
RTVSPost2010PropOp45
 70
     0
102
RTVSPost2010Prop46
 90
       50
102
RTVSPost2010PropOp46
 70
     0
102
RTVSPost2010Prop47
 90
       50
102
RTVSPost2010PropOp47
 70
     0
102
RTVSPost2010Prop48
 90
       50
102
RTVSPost2010PropOp48
 70
     0
102
RTVSPost2010Prop49
280
     0
102
RTVSPost2010PropOp49
 70
     0
102
RTVSPost2010Prop50
 90
       50
102
RTVSPost2010PropOp50
 70
     0
102
RTVSPost2010Prop51ColorIndex
 90
      256
102
RTVSPost2010Prop51ColorRGB
 90
-16777216
102
RTVSPost2010PropOp51
 70
     0
102
RTVSPost2010Prop52
140
1.0
102
RTVSPost2010PropOp52
 70
     0
102
RTVSPost2010Prop53
 90
        2
102
RTVSPost2010PropOp53
 70
     0
102
RTVSPost2010Prop54
  1
strokes_ogs.tif
102
RTVSPost2010PropOp54
 70
     0
102
RTVSPost2010Prop55
280
     0
102
RTVSPost2010PropOp55
 70
     0
102
RTVSPost2010Prop56
140
1.0
102
RTVSPost2010PropOp56
 70
     0
102
RTVSPost2010Prop57
140
1.0
102
RTVSPost2010PropOp57
 70
     0
  0
XRECORD
  5
176
102
{ACAD_REACTORS
330
175
102
}
330
175
100
AcDbXrecord
280
     1
102
RTVSPost2010Prop28
280
     0
102
RTVSPost2010PropOp28
 70
     1
102
RTVSPost2010Prop29
280
     1
102
RTVSPost2010PropOp29
 70
     1
102
RTVSPost2010Prop30
280
     1
102
RTVSPost2010PropOp30
 70
     1
102
RTVSPost2010Prop31
280
     0
102
RTVSPost2010PropOp31
 70
     1
102
RTVSPost2010Prop32
280
     0
102
RTVSPost2010PropOp32
 70
     1
102
RTVSPost2010Prop33
280
     0
102
RTVSPost2010PropOp33
 70
     1
102
RTVSPost2010Prop34
280
     0
102
RTVSPost2010PropOp34
 70
     1
102
RTVSPost2010Prop35
280
     0
102
RTVSPost2010PropOp35
 70
     1
102
RTVSPost2010Prop36
280
     0
102
RTVSPost2010PropOp36
 70
     1
102
RTVSPost2010Prop37
 90
       50
102
RTVSPost2010PropOp37
 70
     1
102
RTVSPost2010Prop38
140
0.0
102
RTVSPost2010PropOp38
 70
     1
102
RTVSPost2010Prop39
140
1.0
102
RTVSPost2010PropOp39
 70
     1
102
RTVSPost2010Prop40
 90
        0
102
RTVSPost2010PropOp40
 70
     1
102
RTVSPost2010Prop41ColorIndex
 90
       18
102
RTVSPost2010Prop41ColorRGB
 90
        0
102
RTVSPost2010PropOp41
 70
     1
102
RTVSPost2010Prop42
 90
       50
102
RTVSPost2010PropOp42
 70
     1
102
RTVSPost2010Prop43
 90
        3
102
RTVSPost2010PropOp43
 70
     1
102
RTVSPost2010Prop44ColorIndex
 90
        5
102
RTVSPost2010Prop44ColorRGB
 90
      255
102
RTVSPost2010PropOp44
 70
     1
102
RTVSPost2010Prop45
280
     0
102
RTVSPost2010PropOp45
 70
     1
102
RTVSPost2010Prop46
 90
       50
102
RTVSPost2010PropOp46
 70
     1
102
RTVSPost2010Prop47
 90
       50
102
RTVSPost2010PropOp47
 70
     1
102
RTVSPost2010Prop48
 90
       50
102
RTVSPost2010PropOp48
 70
     1
102
RTVSPost2010Prop49
280
     0
102
RTVSPost2010PropOp49
 70
     1
102
RTVSPost2010Prop50
 90
       50
102
RTVSPost2010PropOp50
 70
     1
102
RTVSPost2010Prop51ColorIndex
 90
      256
102
RTVSPost2010Prop51ColorRGB
 90
-16777216
102
RTVSPost2010PropOp51
 70
     0
102
RTVSPost2010Prop52
140
1.0
102
RTVSPost2010PropOp52
 70
     0
102
RTVSPost2010Prop53
 90
        2
102
RTVSPost2010PropOp53
 70
     1
102
RTVSPost2010Prop54
  1
strokes_ogs.tif
102
RTVSPost2010PropOp54
 70
     1
102
RTVSPost2010Prop55
280
     0
102
RTVSPost2010PropOp55
 70
     1
102
RTVSPost2010Prop56
140
1.0
102
RTVSPost2010PropOp56
 70
     1
102
RTVSPost2010Prop57
140
1.0
102
RTVSPost2010PropOp57
 70
     1
  0
XRECORD
  5
15A
102
{ACAD_REACTORS
330
159
102
}
330
159
100
AcDbXrecord
280
     1
102
RTVSPost2010Prop28
280
     0
102
RTVSPost2010PropOp28
 70
     1
102
RTVSPost2010Prop29
280
     1
102
RTVSPost2010PropOp29
 70
     1
102
RTVSPost2010Prop30
280
     1
102
RTVSPost2010PropOp30
 70
     1
102
RTVSPost2010Prop31
280
     0
102
RTVSPost2010PropOp31
 70
     1
102
RTVSPost2010Prop32
280
     0
102
RTVSPost2010PropOp32
 70
     1
102
RTVSPost2010Prop33
280
     0
102
RTVSPost2010PropOp33
 70
     1
102
RTVSPost2010Prop34
280
     0
102
RTVSPost2010PropOp34
 70
     1
102
RTVSPost2010Prop35
280
     0
102
RTVSPost2010PropOp35
 70
     1
102
RTVSPost2010Prop36
280
     0
102
RTVSPost2010PropOp36
 70
     1
102
RTVSPost2010Prop37
 90
       50
102
RTVSPost2010PropOp37
 70
     1
102
RTVSPost2010Prop38
140
0.0
102
RTVSPost2010PropOp38
 70
     1
102
RTVSPost2010Prop39
140
1.0
102
RTVSPost2010PropOp39
 70
     1
102
RTVSPost2010Prop40
 90
        0
102
RTVSPost2010PropOp40
 70
     1
102
RTVSPost2010Prop41ColorIndex
 90
       18
102
RTVSPost2010Prop41ColorRGB
 90
        0
102
RTVSPost2010PropOp41
 70
     1
102
RTVSPost2010Prop42
 90
       50
102
RTVSPost2010PropOp42
 70
     1
102
RTVSPost2010Prop43
 90
        3
102
RTVSPost2010PropOp43
 70
     1
102
RTVSPost2010Prop44ColorIndex
 90
        5
102
RTVSPost2010Prop44ColorRGB
 90
      255
102
RTVSPost2010PropOp44
 70
     1
102
RTVSPost2010Prop45
280
     0
102
RTVSPost2010PropOp45
 70
     1
102
RTVSPost2010Prop46
 90
       50
102
RTVSPost2010PropOp46
 70
     1
102
RTVSPost2010Prop47
 90
       50
102
RTVSPost2010PropOp47
 70
     1
102
RTVSPost2010Prop48
 90
       50
102
RTVSPost2010PropOp48
 70
     1
102
RTVSPost2010Prop49
280
     0
102
RTVSPost2010PropOp49
 70
     1
102
RTVSPost2010Prop50
 90
       50
102
RTVSPost2010PropOp50
 70
     1
102
RTVSPost2010Prop51ColorIndex
 90
      256
102
RTVSPost2010Prop51ColorRGB
 90
-16777216
102
RTVSPost2010PropOp51
 70
     0
102
RTVSPost2010Prop52
140
1.0
102
RTVSPost2010PropOp52
 70
     0
102
RTVSPost2010Prop53
 90
        2
102
RTVSPost2010PropOp53
 70
     1
102
RTVSPost2010Prop54
  1
strokes_ogs.tif
102
RTVSPost2010PropOp54
 70
     1
102
RTVSPost2010Prop55
280
     0
102
RTVSPost2010PropOp55
 70
     1
102
RTVSPost2010Prop56
140
1.0
102
RTVSPost2010PropOp56
 70
     1
102
RTVSPost2010Prop57
140
1.0
102
RTVSPost2010PropOp57
 70
     1
  0
XRECORD
  5
15C
102
{ACAD_REACTORS
330
15B
102
}
330
15B
100
AcDbXrecord
280
     1
102
RTVSPost2010Prop28
280
     0
102
RTVSPost2010PropOp28
 70
     1
102
RTVSPost2010Prop29
280
     1
102
RTVSPost2010PropOp29
 70
     1
102
RTVSPost2010Prop30
280
     1
102
RTVSPost2010PropOp30
 70
     1
102
RTVSPost2010Prop31
280
     0
102
RTVSPost2010PropOp31
 70
     1
102
RTVSPost2010Prop32
280
     0
102
RTVSPost2010PropOp32
 70
     1
102
RTVSPost2010Prop33
280
     0
102
RTVSPost2010PropOp33
 70
     1
102
RTVSPost2010Prop34
280
     0
102
RTVSPost2010PropOp34
 70
     1
102
RTVSPost2010Prop35
280
     0
102
RTVSPost2010PropOp35
 70
     1
102
RTVSPost2010Prop36
280
     0
102
RTVSPost2010PropOp36
 70
     1
102
RTVSPost2010Prop37
 90
       50
102
RTVSPost2010PropOp37
 70
     1
102
RTVSPost2010Prop38
140
0.0
102
RTVSPost2010PropOp38
 70
     1
102
RTVSPost2010Prop39
140
1.0
102
RTVSPost2010PropOp39
 70
     1
102
RTVSPost2010Prop40
 90
        0
102
RTVSPost2010PropOp40
 70
     1
102
RTVSPost2010Prop41ColorIndex
 90
       18
102
RTVSPost2010Prop41ColorRGB
 90
        0
102
RTVSPost2010PropOp41
 70
     1
102
RTVSPost2010Prop42
 90
       50
102
RTVSPost2010PropOp42
 70
     1
102
RTVSPost2010Prop43
 90
        3
102
RTVSPost2010PropOp43
 70
     1
102
RTVSPost2010Prop44ColorIndex
 90
        5
102
RTVSPost2010Prop44ColorRGB
 90
      255
102
RTVSPost2010PropOp44
 70
     1
102
RTVSPost2010Prop45
280
     0
102
RTVSPost2010PropOp45
 70
     1
102
RTVSPost2010Prop46
 90
       50
102
RTVSPost2010PropOp46
 70
     1
102
RTVSPost2010Prop47
 90
       50
102
RTVSPost2010PropOp47
 70
     1
102
RTVSPost2010Prop48
 90
       50
102
RTVSPost2010PropOp48
 70
     1
102
RTVSPost2010Prop49
280
     0
102
RTVSPost2010PropOp49
 70
     1
102
RTVSPost2010Prop50
 90
       50
102
RTVSPost2010PropOp50
 70
     1
102
RTVSPost2010Prop51ColorIndex
 90
      256
102
RTVSPost2010Prop51ColorRGB
 90
-16777216
102
RTVSPost2010PropOp51
 70
     0
102
RTVSPost2010Prop52
140
1.0
102
RTVSPost2010PropOp52
 70
     0
102
RTVSPost2010Prop53
 90
        2
102
RTVSPost2010PropOp53
 70
     1
102
RTVSPost2010Prop54
  1
strokes_ogs.tif
102
RTVSPost2010PropOp54
 70
     1
102
RTVSPost2010Prop55
280
     0
102
RTVSPost2010PropOp55
 70
     1
102
RTVSPost2010Prop56
140
1.0
102
RTVSPost2010PropOp56
 70
     1
102
RTVSPost2010Prop57
140
1.0
102
RTVSPost2010PropOp57
 70
     1
  0
XRECORD
  5
15E
102
{ACAD_REACTORS
330
15D
102
}
330
15D
100
AcDbXrecord
280
     1
102
RTVSPost2010Prop28
280
     0
102
RTVSPost2010PropOp28
 70
     1
102
RTVSPost2010Prop29
280
     1
102
RTVSPost2010PropOp29
 70
     1
102
RTVSPost2010Prop30
280
     1
102
RTVSPost2010PropOp30
 70
     1
102
RTVSPost2010Prop31
280
     0
102
RTVSPost2010PropOp31
 70
     1
102
RTVSPost2010Prop32
280
     0
102
RTVSPost2010PropOp32
 70
     1
102
RTVSPost2010Prop33
280
     0
102
RTVSPost2010PropOp33
 70
     1
102
RTVSPost2010Prop34
280
     0
102
RTVSPost2010PropOp34
 70
     1
102
RTVSPost2010Prop35
280
     0
102
RTVSPost2010PropOp35
 70
     1
102
RTVSPost2010Prop36
280
     0
102
RTVSPost2010PropOp36
 70
     1
102
RTVSPost2010Prop37
 90
       50
102
RTVSPost2010PropOp37
 70
     1
102
RTVSPost2010Prop38
140
0.0
102
RTVSPost2010PropOp38
 70
     1
102
RTVSPost2010Prop39
140
1.0
102
RTVSPost2010PropOp39
 70
     1
102
RTVSPost2010Prop40
 90
        0
102
RTVSPost2010PropOp40
 70
     1
102
RTVSPost2010Prop41ColorIndex
 90
       18
102
RTVSPost2010Prop41ColorRGB
 90
        0
102
RTVSPost2010PropOp41
 70
     1
102
RTVSPost2010Prop42
 90
       50
102
RTVSPost2010PropOp42
 70
     1
102
RTVSPost2010Prop43
 90
        3
102
RTVSPost2010PropOp43
 70
     1
102
RTVSPost2010Prop44ColorIndex
 90
        5
102
RTVSPost2010Prop44ColorRGB
 90
      255
102
RTVSPost2010PropOp44
 70
     1
102
RTVSPost2010Prop45
280
     0
102
RTVSPost2010PropOp45
 70
     1
102
RTVSPost2010Prop46
 90
       50
102
RTVSPost2010PropOp46
 70
     1
102
RTVSPost2010Prop47
 90
       50
102
RTVSPost2010PropOp47
 70
     1
102
RTVSPost2010Prop48
 90
       50
102
RTVSPost2010PropOp48
 70
     1
102
RTVSPost2010Prop49
280
     0
102
RTVSPost2010PropOp49
 70
     1
102
RTVSPost2010Prop50
 90
       50
102
RTVSPost2010PropOp50
 70
     1
102
RTVSPost2010Prop51ColorIndex
 90
      256
102
RTVSPost2010Prop51ColorRGB
 90
-16777216
102
RTVSPost2010PropOp51
 70
     0
102
RTVSPost2010Prop52
140
1.0
102
RTVSPost2010PropOp52
 70
     0
102
RTVSPost2010Prop53
 90
        2
102
RTVSPost2010PropOp53
 70
     1
102
RTVSPost2010Prop54
  1
strokes_ogs.tif
102
RTVSPost2010PropOp54
 70
     1
102
RTVSPost2010Prop55
280
     0
102
RTVSPost2010PropOp55
 70
     1
102
RTVSPost2010Prop56
140
1.0
102
RTVSPost2010PropOp56
 70
     1
102
RTVSPost2010Prop57
140
1.0
102
RTVSPost2010PropOp57
 70
     1
  0
XRECORD
  5
160
102
{ACAD_REACTORS
330
15F
102
}
330
15F
100
AcDbXrecord
280
     1
102
RTVSPost2010Prop28
280
     0
102
RTVSPost2010PropOp28
 70
     1
102
RTVSPost2010Prop29
280
     1
102
RTVSPost2010PropOp29
 70
     1
102
RTVSPost2010Prop30
280
     1
102
RTVSPost2010PropOp30
 70
     1
102
RTVSPost2010Prop31
280
     0
102
RTVSPost2010PropOp31
 70
     1
102
RTVSPost2010Prop32
280
     0
102
RTVSPost2010PropOp32
 70
     1
102
RTVSPost2010Prop33
280
     0
102
RTVSPost2010PropOp33
 70
     1
102
RTVSPost2010Prop34
280
     0
102
RTVSPost2010PropOp34
 70
     1
102
RTVSPost2010Prop35
280
     0
102
RTVSPost2010PropOp35
 70
     1
102
RTVSPost2010Prop36
280
     0
102
RTVSPost2010PropOp36
 70
     1
102
RTVSPost2010Prop37
 90
       50
102
RTVSPost2010PropOp37
 70
     1
102
RTVSPost2010Prop38
140
0.0
102
RTVSPost2010PropOp38
 70
     1
102
RTVSPost2010Prop39
140
1.0
102
RTVSPost2010PropOp39
 70
     1
102
RTVSPost2010Prop40
 90
        0
102
RTVSPost2010PropOp40
 70
     1
102
RTVSPost2010Prop41ColorIndex
 90
       18
102
RTVSPost2010Prop41ColorRGB
 90
        0
102
RTVSPost2010PropOp41
 70
     1
102
RTVSPost2010Prop42
 90
       50
102
RTVSPost2010PropOp42
 70
     1
102
RTVSPost2010Prop43
 90
        3
102
RTVSPost2010PropOp43
 70
     1
102
RTVSPost2010Prop44ColorIndex
 90
        5
102
RTVSPost2010Prop44ColorRGB
 90
      255
102
RTVSPost2010PropOp44
 70
     1
102
RTVSPost2010Prop45
280
     0
102
RTVSPost2010PropOp45
 70
     1
102
RTVSPost2010Prop46
 90
       50
102
RTVSPost2010PropOp46
 70
     1
102
RTVSPost2010Prop47
 90
       50
102
RTVSPost2010PropOp47
 70
     1
102
RTVSPost2010Prop48
 90
       50
102
RTVSPost2010PropOp48
 70
     1
102
RTVSPost2010Prop49
280
     0
102
RTVSPost2010PropOp49
 70
     1
102
RTVSPost2010Prop50
 90
       50
102
RTVSPost2010PropOp50
 70
     1
102
RTVSPost2010Prop51ColorIndex
 90
      256
102
RTVSPost2010Prop51ColorRGB
 90
-16777216
102
RTVSPost2010PropOp51
 70
     0
102
RTVSPost2010Prop52
140
1.0
102
RTVSPost2010PropOp52
 70
     0
102
RTVSPost2010Prop53
 90
        2
102
RTVSPost2010PropOp53
 70
     1
102
RTVSPost2010Prop54
  1
strokes_ogs.tif
102
RTVSPost2010PropOp54
 70
     1
102
RTVSPost2010Prop55
280
     0
102
RTVSPost2010PropOp55
 70
     1
102
RTVSPost2010Prop56
140
1.0
102
RTVSPost2010PropOp56
 70
     1
102
RTVSPost2010Prop57
140
1.0
102
RTVSPost2010PropOp57
 70
     1
  0
XRECORD
  5
166
102
{ACAD_REACTORS
330
165
102
}
330
165
100
AcDbXrecord
280
     1
102
RTVSPost2010Prop28
280
     0
102
RTVSPost2010PropOp28
 70
     1
102
RTVSPost2010Prop29
280
     1
102
RTVSPost2010PropOp29
 70
     1
102
RTVSPost2010Prop30
280
     1
102
RTVSPost2010PropOp30
 70
     1
102
RTVSPost2010Prop31
280
     0
102
RTVSPost2010PropOp31
 70
     1
102
RTVSPost2010Prop32
280
     0
102
RTVSPost2010PropOp32
 70
     1
102
RTVSPost2010Prop33
280
     0
102
RTVSPost2010PropOp33
 70
     1
102
RTVSPost2010Prop34
280
     0
102
RTVSPost2010PropOp34
 70
     1
102
RTVSPost2010Prop35
280
     0
102
RTVSPost2010PropOp35
 70
     1
102
RTVSPost2010Prop36
280
     0
102
RTVSPost2010PropOp36
 70
     1
102
RTVSPost2010Prop37
 90
       50
102
RTVSPost2010PropOp37
 70
     1
102
RTVSPost2010Prop38
140
0.0
102
RTVSPost2010PropOp38
 70
     1
102
RTVSPost2010Prop39
140
1.0
102
RTVSPost2010PropOp39
 70
     1
102
RTVSPost2010Prop40
 90
        0
102
RTVSPost2010PropOp40
 70
     1
102
RTVSPost2010Prop41ColorIndex
 90
       18
102
RTVSPost2010Prop41ColorRGB
 90
        0
102
RTVSPost2010PropOp41
 70
     1
102
RTVSPost2010Prop42
 90
       50
102
RTVSPost2010PropOp42
 70
     1
102
RTVSPost2010Prop43
 90
        3
102
RTVSPost2010PropOp43
 70
     1
102
RTVSPost2010Prop44ColorIndex
 90
        5
102
RTVSPost2010Prop44ColorRGB
 90
      255
102
RTVSPost2010PropOp44
 70
     1
102
RTVSPost2010Prop45
280
     0
102
RTVSPost2010PropOp45
 70
     1
102
RTVSPost2010Prop46
 90
       50
102
RTVSPost2010PropOp46
 70
     1
102
RTVSPost2010Prop47
 90
       50
102
RTVSPost2010PropOp47
 70
     1
102
RTVSPost2010Prop48
 90
       50
102
RTVSPost2010PropOp48
 70
     1
102
RTVSPost2010Prop49
280
     0
102
RTVSPost2010PropOp49
 70
     1
102
RTVSPost2010Prop50
 90
       50
102
RTVSPost2010PropOp50
 70
     1
102
RTVSPost2010Prop51ColorIndex
 90
      256
102
RTVSPost2010Prop51ColorRGB
 90
-16777216
102
RTVSPost2010PropOp51
 70
     0
102
RTVSPost2010Prop52
140
1.0
102
RTVSPost2010PropOp52
 70
     0
102
RTVSPost2010Prop53
 90
        2
102
RTVSPost2010PropOp53
 70
     1
102
RTVSPost2010Prop54
  1
strokes_ogs.tif
102
RTVSPost2010PropOp54
 70
     1
102
RTVSPost2010Prop55
280
     0
102
RTVSPost2010PropOp55
 70
     1
102
RTVSPost2010Prop56
140
1.0
102
RTVSPost2010PropOp56
 70
     1
102
RTVSPost2010Prop57
140
1.0
102
RTVSPost2010PropOp57
 70
     1
  0
XRECORD
  5
17A
102
{ACAD_REACTORS
330
179
102
}
330
179
100
AcDbXrecord
280
     1
102
RTVSPost2010Prop28
280
     0
102
RTVSPost2010PropOp28
 70
     0
102
RTVSPost2010Prop29
280
     1
102
RTVSPost2010PropOp29
 70
     0
102
RTVSPost2010Prop30
280
     1
102
RTVSPost2010PropOp30
 70
     0
102
RTVSPost2010Prop31
280
     0
102
RTVSPost2010PropOp31
 70
     0
102
RTVSPost2010Prop32
280
     0
102
RTVSPost2010PropOp32
 70
     0
102
RTVSPost2010Prop33
280
     0
102
RTVSPost2010PropOp33
 70
     0
102
RTVSPost2010Prop34
280
     0
102
RTVSPost2010PropOp34
 70
     0
102
RTVSPost2010Prop35
280
     0
102
RTVSPost2010PropOp35
 70
     0
102
RTVSPost2010Prop36
280
     0
102
RTVSPost2010PropOp36
 70
     0
102
RTVSPost2010Prop37
 90
       50
102
RTVSPost2010PropOp37
 70
     0
102
RTVSPost2010Prop38
140
0.0
102
RTVSPost2010PropOp38
 70
     0
102
RTVSPost2010Prop39
140
1.0
102
RTVSPost2010PropOp39
 70
     0
102
RTVSPost2010Prop40
 90
        0
102
RTVSPost2010PropOp40
 70
     0
102
RTVSPost2010Prop41ColorIndex
 90
       18
102
RTVSPost2010Prop41ColorRGB
 90
        0
102
RTVSPost2010PropOp41
 70
     0
102
RTVSPost2010Prop42
 90
       50
102
RTVSPost2010PropOp42
 70
     0
102
RTVSPost2010Prop43
 90
        3
102
RTVSPost2010PropOp43
 70
     0
102
RTVSPost2010Prop44ColorIndex
 90
        5
102
RTVSPost2010Prop44ColorRGB
 90
      255
102
RTVSPost2010PropOp44
 70
     0
102
RTVSPost2010Prop45
280
     0
102
RTVSPost2010PropOp45
 70
     0
102
RTVSPost2010Prop46
 90
       50
102
RTVSPost2010PropOp46
 70
     0
102
RTVSPost2010Prop47
 90
       50
102
RTVSPost2010PropOp47
 70
     0
102
RTVSPost2010Prop48
 90
       50
102
RTVSPost2010PropOp48
 70
     0
102
RTVSPost2010Prop49
280
     0
102
RTVSPost2010PropOp49
 70
     0
102
RTVSPost2010Prop50
 90
       50
102
RTVSPost2010PropOp50
 70
     0
102
RTVSPost2010Prop51ColorIndex
 90
      256
102
RTVSPost2010Prop51ColorRGB
 90
-16777216
102
RTVSPost2010PropOp51
 70
     0
102
RTVSPost2010Prop52
140
1.0
102
RTVSPost2010PropOp52
 70
     0
102
RTVSPost2010Prop53
 90
        2
102
RTVSPost2010PropOp53
 70
     0
102
RTVSPost2010Prop54
  1
strokes_ogs.tif
102
RTVSPost2010PropOp54
 70
     0
102
RTVSPost2010Prop55
280
     0
102
RTVSPost2010PropOp55
 70
     0
102
RTVSPost2010Prop56
140
1.0
102
RTVSPost2010PropOp56
 70
     0
102
RTVSPost2010Prop57
140
1.0
102
RTVSPost2010PropOp57
 70
     0
  0
XRECORD
  5
174
102
{ACAD_REACTORS
330
173
102
}
330
173
100
AcDbXrecord
280
     1
102
RTVSPost2010Prop28
280
     0
102
RTVSPost2010PropOp28
 70
     1
102
RTVSPost2010Prop29
280
     1
102
RTVSPost2010PropOp29
 70
     1
102
RTVSPost2010Prop30
280
     1
102
RTVSPost2010PropOp30
 70
     1
102
RTVSPost2010Prop31
280
     0
102
RTVSPost2010PropOp31
 70
     1
102
RTVSPost2010Prop32
280
     0
102
RTVSPost2010PropOp32
 70
     1
102
RTVSPost2010Prop33
280
     0
102
RTVSPost2010PropOp33
 70
     1
102
RTVSPost2010Prop34
280
     0
102
RTVSPost2010PropOp34
 70
     1
102
RTVSPost2010Prop35
280
     0
102
RTVSPost2010PropOp35
 70
     1
102
RTVSPost2010Prop36
280
     0
102
RTVSPost2010PropOp36
 70
     1
102
RTVSPost2010Prop37
 90
       50
102
RTVSPost2010PropOp37
 70
     1
102
RTVSPost2010Prop38
140
0.0
102
RTVSPost2010PropOp38
 70
     1
102
RTVSPost2010Prop39
140
1.0
102
RTVSPost2010PropOp39
 70
     1
102
RTVSPost2010Prop40
 90
        0
102
RTVSPost2010PropOp40
 70
     1
102
RTVSPost2010Prop41ColorIndex
 90
       18
102
RTVSPost2010Prop41ColorRGB
 90
        0
102
RTVSPost2010PropOp41
 70
     1
102
RTVSPost2010Prop42
 90
       50
102
RTVSPost2010PropOp42
 70
     1
102
RTVSPost2010Prop43
 90
        3
102
RTVSPost2010PropOp43
 70
     1
102
RTVSPost2010Prop44ColorIndex
 90
        5
102
RTVSPost2010Prop44ColorRGB
 90
      255
102
RTVSPost2010PropOp44
 70
     1
102
RTVSPost2010Prop45
280
     0
102
RTVSPost2010PropOp45
 70
     1
102
RTVSPost2010Prop46
 90
       50
102
RTVSPost2010PropOp46
 70
     1
102
RTVSPost2010Prop47
 90
       50
102
RTVSPost2010PropOp47
 70
     1
102
RTVSPost2010Prop48
 90
       50
102
RTVSPost2010PropOp48
 70
     1
102
RTVSPost2010Prop49
280
     0
102
RTVSPost2010PropOp49
 70
     1
102
RTVSPost2010Prop50
 90
       50
102
RTVSPost2010PropOp50
 70
     1
102
RTVSPost2010Prop51ColorIndex
 90
      256
102
RTVSPost2010Prop51ColorRGB
 90
-16777216
102
RTVSPost2010PropOp51
 70
     0
102
RTVSPost2010Prop52
140
1.0
102
RTVSPost2010PropOp52
 70
     0
102
RTVSPost2010Prop53
 90
        2
102
RTVSPost2010PropOp53
 70
     1
102
RTVSPost2010Prop54
  1
strokes_ogs.tif
102
RTVSPost2010PropOp54
 70
     1
102
RTVSPost2010Prop55
280
     0
102
RTVSPost2010PropOp55
 70
     1
102
RTVSPost2010Prop56
140
1.0
102
RTVSPost2010PropOp56
 70
     1
102
RTVSPost2010Prop57
140
1.0
102
RTVSPost2010PropOp57
 70
     1
  0
XRECORD
  5
17C
102
{ACAD_REACTORS
330
17B
102
}
330
17B
100
AcDbXrecord
280
     1
102
RTVSPost2010Prop28
280
     0
102
RTVSPost2010PropOp28
 70
     0
102
RTVSPost2010Prop29
280
     1
102
RTVSPost2010PropOp29
 70
     0
102
RTVSPost2010Prop30
280
     1
102
RTVSPost2010PropOp30
 70
     0
102
RTVSPost2010Prop31
280
     0
102
RTVSPost2010PropOp31
 70
     0
102
RTVSPost2010Prop32
280
     0
102
RTVSPost2010PropOp32
 70
     0
102
RTVSPost2010Prop33
280
     0
102
RTVSPost2010PropOp33
 70
     0
102
RTVSPost2010Prop34
280
     0
102
RTVSPost2010PropOp34
 70
     0
102
RTVSPost2010Prop35
280
     0
102
RTVSPost2010PropOp35
 70
     0
102
RTVSPost2010Prop36
280
     0
102
RTVSPost2010PropOp36
 70
     0
102
RTVSPost2010Prop37
 90
       50
102
RTVSPost2010PropOp37
 70
     0
102
RTVSPost2010Prop38
140
0.0
102
RTVSPost2010PropOp38
 70
     0
102
RTVSPost2010Prop39
140
1.0
102
RTVSPost2010PropOp39
 70
     0
102
RTVSPost2010Prop40
 90
        0
102
RTVSPost2010PropOp40
 70
     0
102
RTVSPost2010Prop41ColorIndex
 90
       18
102
RTVSPost2010Prop41ColorRGB
 90
        0
102
RTVSPost2010PropOp41
 70
     0
102
RTVSPost2010Prop42
 90
       50
102
RTVSPost2010PropOp42
 70
     0
102
RTVSPost2010Prop43
 90
        3
102
RTVSPost2010PropOp43
 70
     0
102
RTVSPost2010Prop44ColorIndex
 90
        5
102
RTVSPost2010Prop44ColorRGB
 90
      255
102
RTVSPost2010PropOp44
 70
     0
102
RTVSPost2010Prop45
280
     0
102
RTVSPost2010PropOp45
 70
     0
102
RTVSPost2010Prop46
 90
       50
102
RTVSPost2010PropOp46
 70
     0
102
RTVSPost2010Prop47
 90
       50
102
RTVSPost2010PropOp47
 70
     0
102
RTVSPost2010Prop48
 90
       50
102
RTVSPost2010PropOp48
 70
     0
102
RTVSPost2010Prop49
280
     0
102
RTVSPost2010PropOp49
 70
     0
102
RTVSPost2010Prop50
 90
       50
102
RTVSPost2010PropOp50
 70
     0
102
RTVSPost2010Prop51ColorIndex
 90
      256
102
RTVSPost2010Prop51ColorRGB
 90
-16777216
102
RTVSPost2010PropOp51
 70
     0
102
RTVSPost2010Prop52
140
1.0
102
RTVSPost2010PropOp52
 70
     0
102
RTVSPost2010Prop53
 90
        2
102
RTVSPost2010PropOp53
 70
     0
102
RTVSPost2010Prop54
  1
strokes_ogs.tif
102
RTVSPost2010PropOp54
 70
     0
102
RTVSPost2010Prop55
280
     0
102
RTVSPost2010PropOp55
 70
     0
102
RTVSPost2010Prop56
140
1.0
102
RTVSPost2010PropOp56
 70
     0
102
RTVSPost2010Prop57
140
1.0
102
RTVSPost2010PropOp57
 70
     0
  0
XRECORD
  5
16A
102
{ACAD_REACTORS
330
169
102
}
330
169
100
AcDbXrecord
280
     1
102
RTVSPost2010Prop28
280
     0
102
RTVSPost2010PropOp28
 70
     1
102
RTVSPost2010Prop29
280
     1
102
RTVSPost2010PropOp29
 70
     1
102
RTVSPost2010Prop30
280
     1
102
RTVSPost2010PropOp30
 70
     1
102
RTVSPost2010Prop31
280
     0
102
RTVSPost2010PropOp31
 70
     1
102
RTVSPost2010Prop32
280
     0
102
RTVSPost2010PropOp32
 70
     1
102
RTVSPost2010Prop33
280
     0
102
RTVSPost2010PropOp33
 70
     1
102
RTVSPost2010Prop34
280
     0
102
RTVSPost2010PropOp34
 70
     1
102
RTVSPost2010Prop35
280
     0
102
RTVSPost2010PropOp35
 70
     1
102
RTVSPost2010Prop36
280
     0
102
RTVSPost2010PropOp36
 70
     1
102
RTVSPost2010Prop37
 90
       50
102
RTVSPost2010PropOp37
 70
     1
102
RTVSPost2010Prop38
140
0.0
102
RTVSPost2010PropOp38
 70
     1
102
RTVSPost2010Prop39
140
1.0
102
RTVSPost2010PropOp39
 70
     1
102
RTVSPost2010Prop40
 90
        0
102
RTVSPost2010PropOp40
 70
     1
102
RTVSPost2010Prop41ColorIndex
 90
       18
102
RTVSPost2010Prop41ColorRGB
 90
        0
102
RTVSPost2010PropOp41
 70
     1
102
RTVSPost2010Prop42
 90
       50
102
RTVSPost2010PropOp42
 70
     1
102
RTVSPost2010Prop43
 90
        3
102
RTVSPost2010PropOp43
 70
     1
102
RTVSPost2010Prop44ColorIndex
 90
        5
102
RTVSPost2010Prop44ColorRGB
 90
      255
102
RTVSPost2010PropOp44
 70
     1
102
RTVSPost2010Prop45
280
     0
102
RTVSPost2010PropOp45
 70
     1
102
RTVSPost2010Prop46
 90
       50
102
RTVSPost2010PropOp46
 70
     1
102
RTVSPost2010Prop47
 90
       50
102
RTVSPost2010PropOp47
 70
     1
102
RTVSPost2010Prop48
 90
       50
102
RTVSPost2010PropOp48
 70
     1
102
RTVSPost2010Prop49
280
     0
102
RTVSPost2010PropOp49
 70
     1
102
RTVSPost2010Prop50
 90
       50
102
RTVSPost2010PropOp50
 70
     1
102
RTVSPost2010Prop51ColorIndex
 90
      256
102
RTVSPost2010Prop51ColorRGB
 90
-16777216
102
RTVSPost2010PropOp51
 70
     0
102
RTVSPost2010Prop52
140
1.0
102
RTVSPost2010PropOp52
 70
     0
102
RTVSPost2010Prop53
 90
        2
102
RTVSPost2010PropOp53
 70
     1
102
RTVSPost2010Prop54
  1
strokes_ogs.tif
102
RTVSPost2010PropOp54
 70
     1
102
RTVSPost2010Prop55
280
     0
102
RTVSPost2010PropOp55
 70
     1
102
RTVSPost2010Prop56
140
1.0
102
RTVSPost2010PropOp56
 70
     1
102
RTVSPost2010Prop57
140
1.0
102
RTVSPost2010PropOp57
 70
     1
  0
XRECORD
  5
188
102
{ACAD_REACTORS
330
187
102
}
330
187
100
AcDbXrecord
280
     1
102
RTVSPost2010Prop28
280
     0
102
RTVSPost2010PropOp28
 70
     1
102
RTVSPost2010Prop29
280
     1
102
RTVSPost2010PropOp29
 70
     1
102
RTVSPost2010Prop30
280
     1
102
RTVSPost2010PropOp30
 70
     1
102
RTVSPost2010Prop31
280
     0
102
RTVSPost2010PropOp31
 70
     1
102
RTVSPost2010Prop32
280
     0
102
RTVSPost2010PropOp32
 70
     1
102
RTVSPost2010Prop33
280
     0
102
RTVSPost2010PropOp33
 70
     1
102
RTVSPost2010Prop34
280
     0
102
RTVSPost2010PropOp34
 70
     1
102
RTVSPost2010Prop35
280
     0
102
RTVSPost2010PropOp35
 70
     1
102
RTVSPost2010Prop36
280
     0
102
RTVSPost2010PropOp36
 70
     1
102
RTVSPost2010Prop37
 90
       50
102
RTVSPost2010PropOp37
 70
     1
102
RTVSPost2010Prop38
140
0.0
102
RTVSPost2010PropOp38
 70
     1
102
RTVSPost2010Prop39
140
1.0
102
RTVSPost2010PropOp39
 70
     1
102
RTVSPost2010Prop40
 90
        0
102
RTVSPost2010PropOp40
 70
     1
102
RTVSPost2010Prop41ColorIndex
 90
       18
102
RTVSPost2010Prop41ColorRGB
 90
        0
102
RTVSPost2010PropOp41
 70
     1
102
RTVSPost2010Prop42
 90
       50
102
RTVSPost2010PropOp42
 70
     1
102
RTVSPost2010Prop43
 90
        3
102
RTVSPost2010PropOp43
 70
     1
102
RTVSPost2010Prop44ColorIndex
 90
        5
102
RTVSPost2010Prop44ColorRGB
 90
      255
102
RTVSPost2010PropOp44
 70
     1
102
RTVSPost2010Prop45
280
     0
102
RTVSPost2010PropOp45
 70
     1
102
RTVSPost2010Prop46
 90
       50
102
RTVSPost2010PropOp46
 70
     1
102
RTVSPost2010Prop47
 90
       50
102
RTVSPost2010PropOp47
 70
     1
102
RTVSPost2010Prop48
 90
       50
102
RTVSPost2010PropOp48
 70
     1
102
RTVSPost2010Prop49
280
     0
102
RTVSPost2010PropOp49
 70
     1
102
RTVSPost2010Prop50
 90
       50
102
RTVSPost2010PropOp50
 70
     1
102
RTVSPost2010Prop51ColorIndex
 90
      256
102
RTVSPost2010Prop51ColorRGB
 90
-16777216
102
RTVSPost2010PropOp51
 70
     0
102
RTVSPost2010Prop52
140
1.0
102
RTVSPost2010PropOp52
 70
     0
102
RTVSPost2010Prop53
 90
        2
102
RTVSPost2010PropOp53
 70
     1
102
RTVSPost2010Prop54
  1
strokes_ogs.tif
102
RTVSPost2010PropOp54
 70
     1
102
RTVSPost2010Prop55
280
     0
102
RTVSPost2010PropOp55
 70
     1
102
RTVSPost2010Prop56
140
1.0
102
RTVSPost2010PropOp56
 70
     1
102
RTVSPost2010Prop57
140
1.0
102
RTVSPost2010PropOp57
 70
     1
  0
XRECORD
  5
186
102
{ACAD_REACTORS
330
185
102
}
330
185
100
AcDbXrecord
280
     1
102
RTVSPost2010Prop28
280
     0
102
RTVSPost2010PropOp28
 70
     1
102
RTVSPost2010Prop29
280
     1
102
RTVSPost2010PropOp29
 70
     1
102
RTVSPost2010Prop30
280
     1
102
RTVSPost2010PropOp30
 70
     1
102
RTVSPost2010Prop31
280
     0
102
RTVSPost2010PropOp31
 70
     1
102
RTVSPost2010Prop32
280
     0
102
RTVSPost2010PropOp32
 70
     1
102
RTVSPost2010Prop33
280
     0
102
RTVSPost2010PropOp33
 70
     1
102
RTVSPost2010Prop34
280
     0
102
RTVSPost2010PropOp34
 70
     1
102
RTVSPost2010Prop35
280
     0
102
RTVSPost2010PropOp35
 70
     1
102
RTVSPost2010Prop36
280
     0
102
RTVSPost2010PropOp36
 70
     1
102
RTVSPost2010Prop37
 90
       50
102
RTVSPost2010PropOp37
 70
     1
102
RTVSPost2010Prop38
140
0.0
102
RTVSPost2010PropOp38
 70
     1
102
RTVSPost2010Prop39
140
1.0
102
RTVSPost2010PropOp39
 70
     1
102
RTVSPost2010Prop40
 90
        0
102
RTVSPost2010PropOp40
 70
     1
102
RTVSPost2010Prop41ColorIndex
 90
       18
102
RTVSPost2010Prop41ColorRGB
 90
        0
102
RTVSPost2010PropOp41
 70
     1
102
RTVSPost2010Prop42
 90
       50
102
RTVSPost2010PropOp42
 70
     1
102
RTVSPost2010Prop43
 90
        3
102
RTVSPost2010PropOp43
 70
     1
102
RTVSPost2010Prop44ColorIndex
 90
        5
102
RTVSPost2010Prop44ColorRGB
 90
      255
102
RTVSPost2010PropOp44
 70
     1
102
RTVSPost2010Prop45
280
     0
102
RTVSPost2010PropOp45
 70
     1
102
RTVSPost2010Prop46
 90
       50
102
RTVSPost2010PropOp46
 70
     1
102
RTVSPost2010Prop47
 90
       50
102
RTVSPost2010PropOp47
 70
     1
102
RTVSPost2010Prop48
 90
       50
102
RTVSPost2010PropOp48
 70
     1
102
RTVSPost2010Prop49
280
     0
102
RTVSPost2010PropOp49
 70
     1
102
RTVSPost2010Prop50
 90
       50
102
RTVSPost2010PropOp50
 70
     1
102
RTVSPost2010Prop51ColorIndex
 90
      256
102
RTVSPost2010Prop51ColorRGB
 90
-16777216
102
RTVSPost2010PropOp51
 70
     0
102
RTVSPost2010Prop52
140
1.0
102
RTVSPost2010PropOp52
 70
     0
102
RTVSPost2010Prop53
 90
        2
102
RTVSPost2010PropOp53
 70
     1
102
RTVSPost2010Prop54
  1
strokes_ogs.tif
102
RTVSPost2010PropOp54
 70
     1
102
RTVSPost2010Prop55
280
     0
102
RTVSPost2010PropOp55
 70
     1
102
RTVSPost2010Prop56
140
1.0
102
RTVSPost2010PropOp56
 70
     1
102
RTVSPost2010Prop57
140
1.0
102
RTVSPost2010PropOp57
 70
     1
  0
XRECORD
  5
180
102
{ACAD_REACTORS
330
17F
102
}
330
17F
100
AcDbXrecord
280
     1
102
RTVSPost2010Prop28
280
     0
102
RTVSPost2010PropOp28
 70
     1
102
RTVSPost2010Prop29
280
     1
102
RTVSPost2010PropOp29
 70
     1
102
RTVSPost2010Prop30
280
     1
102
RTVSPost2010PropOp30
 70
     1
102
RTVSPost2010Prop31
280
     0
102
RTVSPost2010PropOp31
 70
     1
102
RTVSPost2010Prop32
280
     0
102
RTVSPost2010PropOp32
 70
     1
102
RTVSPost2010Prop33
280
     0
102
RTVSPost2010PropOp33
 70
     1
102
RTVSPost2010Prop34
280
     0
102
RTVSPost2010PropOp34
 70
     1
102
RTVSPost2010Prop35
280
     0
102
RTVSPost2010PropOp35
 70
     1
102
RTVSPost2010Prop36
280
     0
102
RTVSPost2010PropOp36
 70
     1
102
RTVSPost2010Prop37
 90
       50
102
RTVSPost2010PropOp37
 70
     1
102
RTVSPost2010Prop38
140
0.0
102
RTVSPost2010PropOp38
 70
     1
102
RTVSPost2010Prop39
140
1.0
102
RTVSPost2010PropOp39
 70
     1
102
RTVSPost2010Prop40
 90
        0
102
RTVSPost2010PropOp40
 70
     1
102
RTVSPost2010Prop41ColorIndex
 90
       18
102
RTVSPost2010Prop41ColorRGB
 90
        0
102
RTVSPost2010PropOp41
 70
     1
102
RTVSPost2010Prop42
 90
       50
102
RTVSPost2010PropOp42
 70
     1
102
RTVSPost2010Prop43
 90
        3
102
RTVSPost2010PropOp43
 70
     1
102
RTVSPost2010Prop44ColorIndex
 90
        5
102
RTVSPost2010Prop44ColorRGB
 90
      255
102
RTVSPost2010PropOp44
 70
     1
102
RTVSPost2010Prop45
280
     0
102
RTVSPost2010PropOp45
 70
     1
102
RTVSPost2010Prop46
 90
       50
102
RTVSPost2010PropOp46
 70
     1
102
RTVSPost2010Prop47
 90
       50
102
RTVSPost2010PropOp47
 70
     1
102
RTVSPost2010Prop48
 90
       50
102
RTVSPost2010PropOp48
 70
     1
102
RTVSPost2010Prop49
280
     0
102
RTVSPost2010PropOp49
 70
     1
102
RTVSPost2010Prop50
 90
       50
102
RTVSPost2010PropOp50
 70
     1
102
RTVSPost2010Prop51ColorIndex
 90
      256
102
RTVSPost2010Prop51ColorRGB
 90
-16777216
102
RTVSPost2010PropOp51
 70
     0
102
RTVSPost2010Prop52
140
1.0
102
RTVSPost2010PropOp52
 70
     0
102
RTVSPost2010Prop53
 90
        2
102
RTVSPost2010PropOp53
 70
     1
102
RTVSPost2010Prop54
  1
strokes_ogs.tif
102
RTVSPost2010PropOp54
 70
     1
102
RTVSPost2010Prop55
280
     0
102
RTVSPost2010PropOp55
 70
     1
102
RTVSPost2010Prop56
140
1.0
102
RTVSPost2010PropOp56
 70
     1
102
RTVSPost2010Prop57
140
1.0
102
RTVSPost2010PropOp57
 70
     1
  0
XRECORD
  5
182
102
{ACAD_REACTORS
330
181
102
}
330
181
100
AcDbXrecord
280
     1
102
RTVSPost2010Prop28
280
     0
102
RTVSPost2010PropOp28
 70
     1
102
RTVSPost2010Prop29
280
     1
102
RTVSPost2010PropOp29
 70
     1
102
RTVSPost2010Prop30
280
     1
102
RTVSPost2010PropOp30
 70
     1
102
RTVSPost2010Prop31
280
     0
102
RTVSPost2010PropOp31
 70
     1
102
RTVSPost2010Prop32
280
     0
102
RTVSPost2010PropOp32
 70
     1
102
RTVSPost2010Prop33
280
     0
102
RTVSPost2010PropOp33
 70
     1
102
RTVSPost2010Prop34
280
     0
102
RTVSPost2010PropOp34
 70
     1
102
RTVSPost2010Prop35
280
     0
102
RTVSPost2010PropOp35
 70
     1
102
RTVSPost2010Prop36
280
     0
102
RTVSPost2010PropOp36
 70
     1
102
RTVSPost2010Prop37
 90
       50
102
RTVSPost2010PropOp37
 70
     1
102
RTVSPost2010Prop38
140
0.0
102
RTVSPost2010PropOp38
 70
     1
102
RTVSPost2010Prop39
140
1.0
102
RTVSPost2010PropOp39
 70
     1
102
RTVSPost2010Prop40
 90
        0
102
RTVSPost2010PropOp40
 70
     1
102
RTVSPost2010Prop41ColorIndex
 90
       18
102
RTVSPost2010Prop41ColorRGB
 90
        0
102
RTVSPost2010PropOp41
 70
     1
102
RTVSPost2010Prop42
 90
       50
102
RTVSPost2010PropOp42
 70
     1
102
RTVSPost2010Prop43
 90
        3
102
RTVSPost2010PropOp43
 70
     1
102
RTVSPost2010Prop44ColorIndex
 90
        5
102
RTVSPost2010Prop44ColorRGB
 90
      255
102
RTVSPost2010PropOp44
 70
     1
102
RTVSPost2010Prop45
280
     0
102
RTVSPost2010PropOp45
 70
     1
102
RTVSPost2010Prop46
 90
       50
102
RTVSPost2010PropOp46
 70
     1
102
RTVSPost2010Prop47
 90
       50
102
RTVSPost2010PropOp47
 70
     1
102
RTVSPost2010Prop48
 90
       50
102
RTVSPost2010PropOp48
 70
     1
102
RTVSPost2010Prop49
280
     0
102
RTVSPost2010PropOp49
 70
     1
102
RTVSPost2010Prop50
 90
       50
102
RTVSPost2010PropOp50
 70
     1
102
RTVSPost2010Prop51ColorIndex
 90
      256
102
RTVSPost2010Prop51ColorRGB
 90
-16777216
102
RTVSPost2010PropOp51
 70
     0
102
RTVSPost2010Prop52
140
1.0
102
RTVSPost2010PropOp52
 70
     0
102
RTVSPost2010Prop53
 90
        2
102
RTVSPost2010PropOp53
 70
     1
102
RTVSPost2010Prop54
  1
strokes_ogs.tif
102
RTVSPost2010PropOp54
 70
     1
102
RTVSPost2010Prop55
280
     0
102
RTVSPost2010PropOp55
 70
     1
102
RTVSPost2010Prop56
140
1.0
102
RTVSPost2010PropOp56
 70
     1
102
RTVSPost2010Prop57
140
1.0
102
RTVSPost2010PropOp57
 70
     1
  0
XRECORD
  5
172
102
{ACAD_REACTORS
330
171
102
}
330
171
100
AcDbXrecord
280
     1
102
RTVSPost2010Prop28
280
     0
102
RTVSPost2010PropOp28
 70
     1
102
RTVSPost2010Prop29
280
     1
102
RTVSPost2010PropOp29
 70
     1
102
RTVSPost2010Prop30
280
     1
102
RTVSPost2010PropOp30
 70
     1
102
RTVSPost2010Prop31
280
     0
102
RTVSPost2010PropOp31
 70
     1
102
RTVSPost2010Prop32
280
     0
102
RTVSPost2010PropOp32
 70
     1
102
RTVSPost2010Prop33
280
     0
102
RTVSPost2010PropOp33
 70
     1
102
RTVSPost2010Prop34
280
     0
102
RTVSPost2010PropOp34
 70
     1
102
RTVSPost2010Prop35
280
     0
102
RTVSPost2010PropOp35
 70
     1
102
RTVSPost2010Prop36
280
     0
102
RTVSPost2010PropOp36
 70
     1
102
RTVSPost2010Prop37
 90
       50
102
RTVSPost2010PropOp37
 70
     1
102
RTVSPost2010Prop38
140
0.0
102
RTVSPost2010PropOp38
 70
     1
102
RTVSPost2010Prop39
140
1.0
102
RTVSPost2010PropOp39
 70
     1
102
RTVSPost2010Prop40
 90
        0
102
RTVSPost2010PropOp40
 70
     1
102
RTVSPost2010Prop41ColorIndex
 90
       18
102
RTVSPost2010Prop41ColorRGB
 90
        0
102
RTVSPost2010PropOp41
 70
     1
102
RTVSPost2010Prop42
 90
       50
102
RTVSPost2010PropOp42
 70
     1
102
RTVSPost2010Prop43
 90
        3
102
RTVSPost2010PropOp43
 70
     1
102
RTVSPost2010Prop44ColorIndex
 90
        5
102
RTVSPost2010Prop44ColorRGB
 90
      255
102
RTVSPost2010PropOp44
 70
     1
102
RTVSPost2010Prop45
280
     0
102
RTVSPost2010PropOp45
 70
     1
102
RTVSPost2010Prop46
 90
       50
102
RTVSPost2010PropOp46
 70
     1
102
RTVSPost2010Prop47
 90
       50
102
RTVSPost2010PropOp47
 70
     1
102
RTVSPost2010Prop48
 90
       50
102
RTVSPost2010PropOp48
 70
     1
102
RTVSPost2010Prop49
280
     0
102
RTVSPost2010PropOp49
 70
     1
102
RTVSPost2010Prop50
 90
       50
102
RTVSPost2010PropOp50
 70
     1
102
RTVSPost2010Prop51ColorIndex
 90
      256
102
RTVSPost2010Prop51ColorRGB
 90
-16777216
102
RTVSPost2010PropOp51
 70
     0
102
RTVSPost2010Prop52
140
1.0
102
RTVSPost2010PropOp52
 70
     0
102
RTVSPost2010Prop53
 90
        2
102
RTVSPost2010PropOp53
 70
     1
102
RTVSPost2010Prop54
  1
strokes_ogs.tif
102
RTVSPost2010PropOp54
 70
     1
102
RTVSPost2010Prop55
280
     0
102
RTVSPost2010PropOp55
 70
     1
102
RTVSPost2010Prop56
140
1.0
102
RTVSPost2010PropOp56
 70
     1
102
RTVSPost2010Prop57
140
1.0
102
RTVSPost2010PropOp57
 70
     1
  0
XRECORD
  5
164
102
{ACAD_REACTORS
330
163
102
}
330
163
100
AcDbXrecord
280
     1
102
RTVSPost2010Prop28
280
     0
102
RTVSPost2010PropOp28
 70
     1
102
RTVSPost2010Prop29
280
     1
102
RTVSPost2010PropOp29
 70
     1
102
RTVSPost2010Prop30
280
     1
102
RTVSPost2010PropOp30
 70
     1
102
RTVSPost2010Prop31
280
     0
102
RTVSPost2010PropOp31
 70
     1
102
RTVSPost2010Prop32
280
     0
102
RTVSPost2010PropOp32
 70
     1
102
RTVSPost2010Prop33
280
     0
102
RTVSPost2010PropOp33
 70
     1
102
RTVSPost2010Prop34
280
     0
102
RTVSPost2010PropOp34
 70
     1
102
RTVSPost2010Prop35
280
     0
102
RTVSPost2010PropOp35
 70
     1
102
RTVSPost2010Prop36
280
     0
102
RTVSPost2010PropOp36
 70
     1
102
RTVSPost2010Prop37
 90
       50
102
RTVSPost2010PropOp37
 70
     1
102
RTVSPost2010Prop38
140
0.0
102
RTVSPost2010PropOp38
 70
     1
102
RTVSPost2010Prop39
140
1.0
102
RTVSPost2010PropOp39
 70
     1
102
RTVSPost2010Prop40
 90
        0
102
RTVSPost2010PropOp40
 70
     1
102
RTVSPost2010Prop41ColorIndex
 90
       18
102
RTVSPost2010Prop41ColorRGB
 90
        0
102
RTVSPost2010PropOp41
 70
     1
102
RTVSPost2010Prop42
 90
       50
102
RTVSPost2010PropOp42
 70
     1
102
RTVSPost2010Prop43
 90
        3
102
RTVSPost2010PropOp43
 70
     1
102
RTVSPost2010Prop44ColorIndex
 90
        5
102
RTVSPost2010Prop44ColorRGB
 90
      255
102
RTVSPost2010PropOp44
 70
     1
102
RTVSPost2010Prop45
280
     0
102
RTVSPost2010PropOp45
 70
     1
102
RTVSPost2010Prop46
 90
       50
102
RTVSPost2010PropOp46
 70
     1
102
RTVSPost2010Prop47
 90
       50
102
RTVSPost2010PropOp47
 70
     1
102
RTVSPost2010Prop48
 90
       50
102
RTVSPost2010PropOp48
 70
     1
102
RTVSPost2010Prop49
280
     0
102
RTVSPost2010PropOp49
 70
     1
102
RTVSPost2010Prop50
 90
       50
102
RTVSPost2010PropOp50
 70
     1
102
RTVSPost2010Prop51ColorIndex
 90
      256
102
RTVSPost2010Prop51ColorRGB
 90
-16777216
102
RTVSPost2010PropOp51
 70
     0
102
RTVSPost2010Prop52
140
1.0
102
RTVSPost2010PropOp52
 70
     0
102
RTVSPost2010Prop53
 90
        2
102
RTVSPost2010PropOp53
 70
     1
102
RTVSPost2010Prop54
  1
strokes_ogs.tif
102
RTVSPost2010PropOp54
 70
     1
102
RTVSPost2010Prop55
280
     0
102
RTVSPost2010PropOp55
 70
     1
102
RTVSPost2010Prop56
140
1.0
102
RTVSPost2010PropOp56
 70
     1
102
RTVSPost2010Prop57
140
1.0
102
RTVSPost2010PropOp57
 70
     1
  0
XRECORD
  5
184
102
{ACAD_REACTORS
330
183
102
}
330
183
100
AcDbXrecord
280
     1
102
RTVSPost2010Prop28
280
     0
102
RTVSPost2010PropOp28
 70
     1
102
RTVSPost2010Prop29
280
     1
102
RTVSPost2010PropOp29
 70
     1
102
RTVSPost2010Prop30
280
     1
102
RTVSPost2010PropOp30
 70
     1
102
RTVSPost2010Prop31
280
     0
102
RTVSPost2010PropOp31
 70
     1
102
RTVSPost2010Prop32
280
     0
102
RTVSPost2010PropOp32
 70
     1
102
RTVSPost2010Prop33
280
     0
102
RTVSPost2010PropOp33
 70
     1
102
RTVSPost2010Prop34
280
     0
102
RTVSPost2010PropOp34
 70
     1
102
RTVSPost2010Prop35
280
     0
102
RTVSPost2010PropOp35
 70
     1
102
RTVSPost2010Prop36
280
     0
102
RTVSPost2010PropOp36
 70
     1
102
RTVSPost2010Prop37
 90
       50
102
RTVSPost2010PropOp37
 70
     1
102
RTVSPost2010Prop38
140
0.0
102
RTVSPost2010PropOp38
 70
     1
102
RTVSPost2010Prop39
140
1.0
102
RTVSPost2010PropOp39
 70
     1
102
RTVSPost2010Prop40
 90
        0
102
RTVSPost2010PropOp40
 70
     1
102
RTVSPost2010Prop41ColorIndex
 90
       18
102
RTVSPost2010Prop41ColorRGB
 90
        0
102
RTVSPost2010PropOp41
 70
     1
102
RTVSPost2010Prop42
 90
       50
102
RTVSPost2010PropOp42
 70
     1
102
RTVSPost2010Prop43
 90
        3
102
RTVSPost2010PropOp43
 70
     1
102
RTVSPost2010Prop44ColorIndex
 90
        5
102
RTVSPost2010Prop44ColorRGB
 90
      255
102
RTVSPost2010PropOp44
 70
     1
102
RTVSPost2010Prop45
280
     0
102
RTVSPost2010PropOp45
 70
     1
102
RTVSPost2010Prop46
 90
       50
102
RTVSPost2010PropOp46
 70
     1
102
RTVSPost2010Prop47
 90
       50
102
RTVSPost2010PropOp47
 70
     1
102
RTVSPost2010Prop48
 90
       50
102
RTVSPost2010PropOp48
 70
     1
102
RTVSPost2010Prop49
280
     0
102
RTVSPost2010PropOp49
 70
     1
102
RTVSPost2010Prop50
 90
       50
102
RTVSPost2010PropOp50
 70
     1
102
RTVSPost2010Prop51ColorIndex
 90
      256
102
RTVSPost2010Prop51ColorRGB
 90
-16777216
102
RTVSPost2010PropOp51
 70
     0
102
RTVSPost2010Prop52
140
1.0
102
RTVSPost2010PropOp52
 70
     0
102
RTVSPost2010Prop53
 90
        2
102
RTVSPost2010PropOp53
 70
     1
102
RTVSPost2010Prop54
  1
strokes_ogs.tif
102
RTVSPost2010PropOp54
 70
     1
102
RTVSPost2010Prop55
280
     0
102
RTVSPost2010PropOp55
 70
     1
102
RTVSPost2010Prop56
140
1.0
102
RTVSPost2010PropOp56
 70
     1
102
RTVSPost2010Prop57
140
1.0
102
RTVSPost2010PropOp57
 70
     1
  0
ENDSEC
  0
EOF
