  0
SECTION
  2
HEADER
  9
$ACADVER
  1
AC1024
  9
$ACADMAINTVER
 70
     6
  9
$DWGCODEPAGE
  3
ANSI_1252
  9
$LASTSAVEDBY
  1
eckl
  9
$INSBASE
 10
0.0
 20
0.0
 30
0.0
  9
$EXTMIN
 10
7.582617082382764
 20
3.563845277298853
 30
7.582617082382764
  9
$EXTMAX
 10
8.632617082592766
 20
5.048830427298854
 30
8.632617082592766
  9
$LIMMIN
 10
7.582617082382764
 20
3.563845277298853
  9
$LIMMAX
 10
8.632617082592766
 20
5.048830427298854
  9
$ORTHOMODE
 70
     0
  9
$REGENMODE
 70
     1
  9
$FILLMODE
 70
     1
  9
$QTEXTMODE
 70
     0
  9
$MIRRTEXT
 70
     1
  9
$LTSCALE
 40
1.0
  9
$ATTMODE
 70
     1
  9
$TEXTSIZE
 40
0.2
  9
$TRACEWID
 40
0.05
  9
$TEXTSTYLE
  7
Standard
  9
$CLAYER
  8
0
  9
$CELTYPE
  6
ByLayer
  9
$CECOLOR
 62
   256
  9
$CELTSCALE
 40
1.0
  9
$DISPSILH
 70
     0
  9
$DIMSCALE
 40
1.0
  9
$DIMASZ
 40
0.18
  9
$DIMEXO
 40
0.0625
  9
$DIMDLI
 40
0.38
  9
$DIMRND
 40
0.0
  9
$DIMDLE
 40
0.0
  9
$DIMEXE
 40
0.18
  9
$DIMTP
 40
0.0
  9
$DIMTM
 40
0.0
  9
$DIMTXT
 40
0.18
  9
$DIMCEN
 40
0.09
  9
$DIMTSZ
 40
0.0
  9
$DIMTOL
 70
     0
  9
$DIMLIM
 70
     0
  9
$DIMTIH
 70
     1
  9
$DIMTOH
 70
     1
  9
$DIMSE1
 70
     0
  9
$DIMSE2
 70
     0
  9
$DIMTAD
 70
     0
  9
$DIMZIN
 70
     0
  9
$DIMBLK
  1

  9
$DIMASO
 70
     1
  9
$DIMSHO
 70
     1
  9
$DIMPOST
  1

  9
$DIMAPOST
  1

  9
$DIMALT
 70
     0
  9
$DIMALTD
 70
     2
  9
$DIMALTF
 40
25.4
  9
$DIMLFAC
 40
1.0
  9
$DIMTOFL
 70
     0
  9
$DIMTVP
 40
0.0
  9
$DIMTIX
 70
     0
  9
$DIMSOXD
 70
     0
  9
$DIMSAH
 70
     0
  9
$DIMBLK1
  1

  9
$DIMBLK2
  1

  9
$DIMSTYLE
  2
Standard
  9
$DIMCLRD
 70
     0
  9
$DIMCLRE
 70
     0
  9
$DIMCLRT
 70
     0
  9
$DIMTFAC
 40
1.0
  9
$DIMGAP
 40
0.09
  9
$DIMJUST
 70
     0
  9
$DIMSD1
 70
     0
  9
$DIMSD2
 70
     0
  9
$DIMTOLJ
 70
     1
  9
$DIMTZIN
 70
     0
  9
$DIMALTZ
 70
     0
  9
$DIMALTTZ
 70
     0
  9
$DIMUPT
 70
     0
  9
$DIMDEC
 70
     4
  9
$DIMTDEC
 70
     4
  9
$DIMALTU
 70
     2
  9
$DIMALTTD
 70
     2
  9
$DIMTXSTY
  7
Standard
  9
$DIMAUNIT
 70
     0
  9
$DIMADEC
 70
     0
  9
$DIMALTRND
 40
0.0
  9
$DIMAZIN
 70
     0
  9
$DIMDSEP
 70
    46
  9
$DIMATFIT
 70
     3
  9
$DIMFRAC
 70
     0
  9
$DIMLDRBLK
  1

  9
$DIMLUNIT
 70
     2
  9
$DIMLWD
 70
    -2
  9
$DIMLWE
 70
    -2
  9
$DIMTMOVE
 70
     0
  9
$DIMFXL
 40
1.0
  9
$DIMFXLON
 70
     0
  9
$DIMJOGANG
 40
0.7853981633974483
  9
$DIMTFILL
 70
     0
  9
$DIMTFILLCLR
 70
     0
  9
$DIMARCSYM
 70
     0
  9
$DIMLTYPE
  6

  9
$DIMLTEX1
  6

  9
$DIMLTEX2
  6

  9
$DIMTXTDIRECTION
 70
     0
  9
$LUNITS
 70
     2
  9
$LUPREC
 70
     4
  9
$SKETCHINC
 40
0.1
  9
$FILLETRAD
 40
0.5
  9
$AUNITS
 70
     0
  9
$AUPREC
 70
     0
  9
$MENU
  1
.
  9
$ELEVATION
 40
0.0
  9
$PELEVATION
 40
0.0
  9
$THICKNESS
 40
0.0
  9
$LIMCHECK
 70
     0
  9
$CHAMFERA
 40
0.0
  9
$CHAMFERB
 40
0.0
  9
$CHAMFERC
 40
0.0
  9
$CHAMFERD
 40
0.0
  9
$SKPOLY
 70
     0
  9
$TDCREATE
 40
2459153.435482431
  9
$TDUCREATE
 40
2459153.393815764
  9
$TDUPDATE
 40
2459153.435498947
  9
$TDUUPDATE
 40
2459153.39383228
  9
$TDINDWG
 40
0.0000000116
  9
$TDUSRTIMER
 40
0.0000000116
  9
$USRTIMER
 70
     1
  9
$ANGBASE
 50
0.0
  9
$ANGDIR
 70
     0
  9
$PDMODE
 70
    65
  9
$PDSIZE
 40
0.0
  9
$PLINEWID
 40
0.0
  9
$SPLFRAME
 70
     0
  9
$SPLINETYPE
 70
     6
  9
$SPLINESEGS
 70
     8
  9
$HANDSEED
  5
209
  9
$SURFTAB1
 70
     6
  9
$SURFTAB2
 70
     6
  9
$SURFTYPE
 70
     6
  9
$SURFU
 70
     6
  9
$SURFV
 70
     6
  9
$UCSBASE
  2

  9
$UCSNAME
  2

  9
$UCSORG
 10
0.0
 20
0.0
 30
0.0
  9
$UCSXDIR
 10
1.0
 20
0.0
 30
0.0
  9
$UCSYDIR
 10
0.0
 20
1.0
 30
0.0
  9
$UCSORTHOREF
  2

  9
$UCSORTHOVIEW
 70
     0
  9
$UCSORGTOP
 10
0.0
 20
0.0
 30
0.0
  9
$UCSORGBOTTOM
 10
0.0
 20
0.0
 30
0.0
  9
$UCSORGLEFT
 10
0.0
 20
0.0
 30
0.0
  9
$UCSORGRIGHT
 10
0.0
 20
0.0
 30
0.0
  9
$UCSORGFRONT
 10
0.0
 20
0.0
 30
0.0
  9
$UCSORGBACK
 10
0.0
 20
0.0
 30
0.0
  9
$PUCSBASE
  2

  9
$PUCSNAME
  2

  9
$PUCSORG
 10
0.0
 20
0.0
 30
0.0
  9
$PUCSXDIR
 10
1.0
 20
0.0
 30
0.0
  9
$PUCSYDIR
 10
0.0
 20
1.0
 30
0.0
  9
$PUCSORTHOREF
  2

  9
$PUCSORTHOVIEW
 70
     0
  9
$PUCSORGTOP
 10
0.0
 20
0.0
 30
0.0
  9
$PUCSORGBOTTOM
 10
0.0
 20
0.0
 30
0.0
  9
$PUCSORGLEFT
 10
0.0
 20
0.0
 30
0.0
  9
$PUCSORGRIGHT
 10
0.0
 20
0.0
 30
0.0
  9
$PUCSORGFRONT
 10
0.0
 20
0.0
 30
0.0
  9
$PUCSORGBACK
 10
0.0
 20
0.0
 30
0.0
  9
$USERI1
 70
     0
  9
$USERI2
 70
     0
  9
$USERI3
 70
     0
  9
$USERI4
 70
     0
  9
$USERI5
 70
     0
  9
$USERR1
 40
0.0
  9
$USERR2
 40
0.0
  9
$USERR3
 40
0.0
  9
$USERR4
 40
0.0
  9
$USERR5
 40
0.0
  9
$WORLDVIEW
 70
     1
  9
$SHADEDGE
 70
     3
  9
$SHADEDIF
 70
    70
  9
$TILEMODE
 70
     1
  9
$MAXACTVP
 70
    64
  9
$PINSBASE
 10
0.0
 20
0.0
 30
0.0
  9
$PLIMCHECK
 70
     0
  9
$PEXTMIN
 10
1.000000000000000E+20
 20
1.000000000000000E+20
 30
1.000000000000000E+20
  9
$PEXTMAX
 10
-1.000000000000000E+20
 20
-1.000000000000000E+20
 30
-1.000000000000000E+20
  9
$PLIMMIN
 10
0.0
 20
0.0
  9
$PLIMMAX
 10
12.0
 20
9.0
  9
$UNITMODE
 70
     0
  9
$VISRETAIN
 70
     1
  9
$PLINEGEN
 70
     0
  9
$PSLTSCALE
 70
     1
  9
$TREEDEPTH
 70
  3020
  9
$CMLSTYLE
  2
Standard
  9
$CMLJUST
 70
     0
  9
$CMLSCALE
 40
1.0
  9
$PROXYGRAPHICS
 70
     1
  9
$MEASUREMENT
 70
     1
  9
$CELWEIGHT
370
    -1
  9
$ENDCAPS
280
     0
  9
$JOINSTYLE
280
     0
  9
$LWDISPLAY
290
     0
  9
$INSUNITS
 70
     6
  9
$HYPERLINKBASE
  1

  9
$STYLESHEET
  1

  9
$XEDIT
290
     1
  9
$CEPSNTYPE
380
     0
  9
$PSTYLEMODE
290
     1
  9
$FINGERPRINTGUID
  2
{d82cac0c-a389-4725-bdd5-96682b83dabd}
  9
$VERSIONGUID
  2
{FAEB1C32-E019-11D5-929B-00C0DF256EC4}
  9
$EXTNAMES
290
     1
  9
$PSVPSCALE
 40
0.0
  9
$OLESTARTUP
290
     0
  9
$SORTENTS
280
   127
  9
$INDEXCTL
280
     0
  9
$HIDETEXT
280
     1
  9
$XCLIPFRAME
280
     2
  9
$HALOGAP
280
     0
  9
$OBSCOLOR
 70
   257
  9
$OBSLTYPE
280
     0
  9
$INTERSECTIONDISPLAY
280
     0
  9
$INTERSECTIONCOLOR
 70
   257
  9
$DIMASSOC
280
     2
  9
$PROJECTNAME
  1

  9
$CAMERADISPLAY
290
     0
  9
$LENSLENGTH
 40
50.0
  9
$CAMERAHEIGHT
 40
0.0
  9
$STEPSPERSEC
 40
2.0
  9
$STEPSIZE
 40
6.0
  9
$3DDWFPREC
 40
2.0
  9
$PSOLWIDTH
 40
0.25
  9
$PSOLHEIGHT
 40
4.0
  9
$LOFTANG1
 40
1.570796326794897
  9
$LOFTANG2
 40
1.570796326794897
  9
$LOFTMAG1
 40
0.0
  9
$LOFTMAG2
 40
0.0
  9
$LOFTPARAM
 70
     7
  9
$LOFTNORMALS
280
     1
  9
$LATITUDE
 40
37.795
  9
$LONGITUDE
 40
-122.394
  9
$NORTHDIRECTION
 40
0.0
  9
$TIMEZONE
 70
 -8000
  9
$LIGHTGLYPHDISPLAY
280
     1
  9
$TILEMODELIGHTSYNCH
280
     1
  9
$CMATERIAL
347
44
  9
$SOLIDHIST
280
     0
  9
$SHOWHIST
280
     1
  9
$DWFFRAME
280
     2
  9
$DGNFRAME
280
     2
  9
$REALWORLDSCALE
290
     1
  9
$INTERFERECOLOR
 62
   256
  9
$CSHADOW
280
     0
  9
$SHADOWPLANELOCATION
 40
0.0
  0
ENDSEC
  0
SECTION
  2
CLASSES
  0
CLASS
  1
ACDBDICTIONARYWDFLT
  2
AcDbDictionaryWithDefault
  3
ObjectDBX Classes
 90
        0
 91
        3
280
     0
281
     0
  0
CLASS
  1
VISUALSTYLE
  2
AcDbVisualStyle
  3
ObjectDBX Classes
 90
     4095
 91
        3
280
     0
281
     0
  0
CLASS
  1
MATERIAL
  2
AcDbMaterial
  3
ObjectDBX Classes
 90
     1153
 91
        3
280
     0
281
     0
  0
CLASS
  1
SCALE
  2
AcDbScale
  3
ObjectDBX Classes
 90
     1153
 91
        3
280
     0
281
     0
  0
CLASS
  1
TABLESTYLE
  2
AcDbTableStyle
  3
ObjectDBX Classes
 90
     4095
 91
        3
280
     0
281
     0
  0
CLASS
  1
MLEADERSTYLE
  2
AcDbMLeaderStyle
  3
ACDB_MLEADERSTYLE_CLASS
 90
     4095
 91
        3
280
     0
281
     0
  0
CLASS
  1
SUN
  2
AcDbSun
  3
SCENEOE
 90
     1153
 91
        3
280
     0
281
     0
  0
CLASS
  1
SORTENTSTABLE
  2
AcDbSortentsTable
  3
ObjectDBX Classes
 90
        0
 91
        3
280
     0
281
     0
  0
CLASS
  1
DICTIONARYVAR
  2
AcDbDictionaryVar
  3
ObjectDBX Classes
 90
        0
 91
        3
280
     0
281
     0
  0
CLASS
  1
CELLSTYLEMAP
  2
AcDbCellStyleMap
  3
ObjectDBX Classes
 90
     1152
 91
        3
280
     0
281
     0
  0
ENDSEC
  0
SECTION
  2
TABLES
  0
TABLE
  2
VPORT
  5
8
330
0
100
AcDbSymbolTable
 70
     1
  0
VPORT
  5
29
330
8
100
AcDbSymbolTableRecord
100
AcDbViewportTableRecord
  2
*Active
 70
     0
 10
0.0
 20
0.0
 11
1.0
 21
1.0
 12
8.107617082487765
 22
4.306337852298853
 13
0.0
 23
0.0
 14
0.5
 24
0.5
 15
0.5
 25
0.5
 16
0.0
 26
0.0
 36
1.0
 17
0.0
 27
0.0
 37
0.0
 40
1.781982180000001
 41
0.8484933335878827
 42
50.0
 43
0.0
 44
0.0
 50
0.0
 51
0.0
 71
     0
 72
   100
 73
     1
 74
     3
 75
     0
 76
     0
 77
     0
 78
     0
281
     0
 65
     1
110
0.0
120
0.0
130
0.0
111
1.0
121
0.0
131
0.0
112
0.0
122
1.0
132
0.0
 79
     0
146
0.0
348
2F
 60
     3
 61
     5
292
     1
282
     1
141
0.0
142
0.0
 63
   250
361
6D
  0
ENDTAB
  0
TABLE
  2
LTYPE
  5
5
330
0
100
AcDbSymbolTable
 70
     4
  0
LTYPE
  5
14
330
5
100
AcDbSymbolTableRecord
100
AcDbLinetypeTableRecord
  2
ByBlock
 70
     0
  3

 72
    65
 73
     0
 40
0.0
  0
LTYPE
  5
15
330
5
100
AcDbSymbolTableRecord
100
AcDbLinetypeTableRecord
  2
ByLayer
 70
     0
  3

 72
    65
 73
     0
 40
0.0
  0
LTYPE
  5
16
330
5
100
AcDbSymbolTableRecord
100
AcDbLinetypeTableRecord
  2
Continuous
 70
     0
  3
Solid line
 72
    65
 73
     0
 40
0.0
  0
LTYPE
  5
6E
330
5
100
AcDbSymbolTableRecord
100
AcDbLinetypeTableRecord
  2
AUSGEZOGEN
 70
     0
  3
durchgezogene Linie
 72
    65
 73
     0
 40
0.0
  0
LTYPE
  5
6F
330
5
100
AcDbSymbolTableRecord
100
AcDbLinetypeTableRecord
  2
STRICHPUNKT
 70
     0
  3
Strichpunktiert ___ . ___ . ___ . ___ . ___ . _
 72
    65
 73
     4
 40
25.4
 49
12.7
 74
     0
 49
-6.35
 74
     0
 49
0.0
 74
     0
 49
-6.35
 74
     0
  0
LTYPE
  5
70
330
5
100
AcDbSymbolTableRecord
100
AcDbLinetypeTableRecord
  2
VERDECKT
 70
     0
  3
Kurzgestrichelt __ __ __ __ __ __ __ __ __ __ _
 72
    65
 73
     2
 40
9.524999999999999
 49
6.35
 74
     0
 49
-3.175
 74
     0
  0
ENDTAB
  0
TABLE
  2
LAYER
  5
2
330
0
100
AcDbSymbolTable
 70
     2
  0
LAYER
  5
10
330
2
100
AcDbSymbolTableRecord
100
AcDbLayerTableRecord
  2
0
 70
     0
 62
     7
  6
Continuous
370
    -3
390
F
347
46
  0
LAYER
  5
73
330
2
100
AcDbSymbolTableRecord
100
AcDbLayerTableRecord
  2
STANDARD
 70
     0
 62
     7
  6
AUSGEZOGEN
370
    18
390
F
347
46
1001
AcCmTransparency
1071
 33554687
1001
AcAecLayerStandard
1000

1000
STANDARD
  0
ENDTAB
  0
TABLE
  2
STYLE
  5
3
330
0
100
AcDbSymbolTable
 70
     2
  0
STYLE
  5
11
330
3
100
AcDbSymbolTableRecord
100
AcDbTextStyleTableRecord
  2
Standard
 70
     0
 40
0.0
 41
1.0
 50
0.0
 71
     0
 42
0.2
  3
txt
  4

  0
STYLE
  5
71
330
3
100
AcDbSymbolTableRecord
100
AcDbTextStyleTableRecord
  2
ARIAL
 70
     0
 40
0.0
 41
1.0
 50
0.0
 71
     0
 42
0.2
  3
ARIAL.TTF
  4

1001
ACAD
1000
Arial
1071
       34
  0
ENDTAB
  0
TABLE
  2
VIEW
  5
6
330
0
100
AcDbSymbolTable
 70
     0
  0
ENDTAB
  0
TABLE
  2
UCS
  5
7
330
0
100
AcDbSymbolTable
 70
     0
  0
ENDTAB
  0
TABLE
  2
APPID
  5
9
330
0
100
AcDbSymbolTable
 70
     4
  0
APPID
  5
12
330
9
100
AcDbSymbolTableRecord
100
AcDbRegAppTableRecord
  2
ACAD
 70
     0
  0
APPID
  5
72
330
9
100
AcDbSymbolTableRecord
100
AcDbRegAppTableRecord
  2
AcCmTransparency
 70
     0
  0
APPID
  5
74
330
9
100
AcDbSymbolTableRecord
100
AcDbRegAppTableRecord
  2
AcAecLayerStandard
 70
     0
  0
APPID
  5
8E
330
9
100
AcDbSymbolTableRecord
100
AcDbRegAppTableRecord
  2
NEM_ODX
 70
     0
  0
ENDTAB
  0
TABLE
  2
DIMSTYLE
  5
A
330
0
100
AcDbSymbolTable
 70
     1
100
AcDbDimStyleTable
  0
DIMSTYLE
105
27
330
A
100
AcDbSymbolTableRecord
100
AcDbDimStyleTableRecord
  2
Standard
 70
     0
178
     0
340
11
  0
ENDTAB
  0
TABLE
  2
BLOCK_RECORD
  5
1
330
0
100
AcDbSymbolTable
 70
     1
  0
BLOCK_RECORD
  5
1F
102
{ACAD_XDICTIONARY
360
1CE
102
}
330
1
100
AcDbSymbolTableRecord
100
AcDbBlockTableRecord
  2
*Model_Space
340
22
 70
     0
280
     1
281
     0
  0
BLOCK_RECORD
  5
1B
330
1
100
AcDbSymbolTableRecord
100
AcDbBlockTableRecord
  2
*Paper_Space
340
1E
 70
     0
280
     1
281
     0
  0
BLOCK_RECORD
  5
23
330
1
100
AcDbSymbolTableRecord
100
AcDbBlockTableRecord
  2
*Paper_Space0
340
26
 70
     0
280
     1
281
     0
  0
ENDTAB
  0
ENDSEC
  0
SECTION
  2
BLOCKS
  0
BLOCK
  5
20
330
1F
100
AcDbEntity
  8
0
100
AcDbBlockBegin
  2
*Model_Space
 70
     0
 10
0.0
 20
0.0
 30
0.0
  3
*Model_Space
  1

  0
ENDBLK
  5
21
330
1F
100
AcDbEntity
  8
0
100
AcDbBlockEnd
  0
BLOCK
  5
1C
330
1B
100
AcDbEntity
 67
     1
  8
0
100
AcDbBlockBegin
  2
*Paper_Space
 70
     0
 10
0.0
 20
0.0
 30
0.0
  3
*Paper_Space
  1

  0
ENDBLK
  5
1D
330
1B
100
AcDbEntity
 67
     1
  8
0
100
AcDbBlockEnd
  0
BLOCK
  5
24
330
23
100
AcDbEntity
  8
0
100
AcDbBlockBegin
  2
*Paper_Space0
 70
     0
 10
0.0
 20
0.0
 30
0.0
  3
*Paper_Space0
  1

  0
ENDBLK
  5
25
330
23
100
AcDbEntity
  8
0
100
AcDbBlockEnd
  0
ENDSEC
  0
SECTION
  2
ENTITIES
  0
HATCH
  5
75
330
1F
100
AcDbEntity
  8
STANDARD
  6
AUSGEZOGEN
 62
    18
420
        0
440
 33554687
370
    35
100
AcDbHatch
 10
0.0
 20
0.0
 30
0.0
210
0.0
220
0.0
230
1.0
  2
SOLID
 70
     1
 71
     0
 91
       18
 92
        3
 72
     0
 73
     1
 93
       27
 10
7.701873136647319
 20
3.701846930763919
 10
7.705866880108261
 20
3.701846930763919
 10
7.706444006498813
 20
3.701874327144731
 10
7.706974991616423
 20
3.701956876765866
 10
7.707469928864536
 20
3.702085207181253
 10
7.707918724839701
 20
3.702268330358273
 10
7.708330751987987
 20
3.702488222362172
 10
7.708696998342018
 20
3.702762907127693
 10
7.709329277972892
 20
3.703413210693308
 10
7.709576566357607
 20
3.703788829493411
 10
7.709796458361494
 20
3.704200856641694
 10
7.710135308334714
 20
3.70509880907072
 10
7.710327443479103
 20
3.70609697457694
 10
7.710391608686795
 20
3.70716867773691
 10
7.710327443479103
 20
3.70831391855065
 10
7.710135308334714
 20
3.709348852883743
 10
7.709979581538516
 20
3.709816033272348
 10
7.709796458361494
 20
3.710255456801449
 10
7.709576566357607
 20
3.710658832461055
 10
7.709329277972892
 20
3.711025078815083
 10
7.708696998342018
 20
3.711647985999893
 10
7.708330751987987
 20
3.711895274384601
 10
7.707918724839701
 20
3.712105793942423
 10
7.707469928864536
 20
3.712270893184703
 10
7.706974991616423
 20
3.712389851154025
 10
7.705866880108261
 20
3.712490785188602
 10
7.701873136647319
 20
3.712490785188602
 97
        0
 92
        3
 72
     0
 73
     1
 93
       12
 10
7.713579321785911
 20
3.701846930763919
 10
7.721301135909624
 20
3.701846930763919
 10
7.721301135909624
 20
3.703175294754672
 10
7.715182370542182
 20
3.703175294754672
 10
7.715182370542182
 20
3.706637692619306
 10
7.72022943274965
 20
3.706637692619306
 10
7.72022943274965
 20
3.707965696131363
 10
7.715182370542182
 20
3.707965696131363
 10
7.715182370542182
 20
3.711162421197844
 10
7.721035463111472
 20
3.711162421197844
 10
7.721035463111472
 20
3.712490785188602
 10
7.713579321785911
 20
3.712490785188602
 97
        0
 92
        3
 72
     0
 73
     1
 93
       38
 10
7.730872926695637
 20
3.712490785188602
 10
7.730872926695637
 20
3.705575001426701
 10
7.730836157868752
 20
3.704924697861085
 10
7.730726572345507
 20
3.70437496785134
 10
7.730524704276356
 20
3.703907787462733
 10
7.73024100754345
 20
3.703541541108696
 10
7.729874400710728
 20
3.703266856343174
 10
7.729416592768187
 20
3.703065348752721
 10
7.72886686275845
 20
3.702946030304702
 10
7.728216559192829
 20
3.70290962195652
 10
7.727566255627205
 20
3.702946030304702
 10
7.727016525617467
 20
3.703065348752721
 10
7.726558717674923
 20
3.703266856343174
 10
7.726183098874827
 20
3.703541541108696
 10
7.725908414109298
 20
3.703907787462733
 10
7.725706906518846
 20
3.70437496785134
 10
7.725596960516898
 20
3.704924697861085
 10
7.725551179722644
 20
3.705575001426701
 10
7.725551179722644
 20
3.712490785188602
 10
7.724222815731898
 20
3.712490785188602
 10
7.724222815731898
 20
3.705309328628555
 10
7.724296353385665
 20
3.704457517472476
 10
7.724506872943487
 20
3.703715652318348
 10
7.724855095362765
 20
3.703074360720099
 10
7.725322275751373
 20
3.702543015123791
 10
7.72589904166323
 20
3.702130987975512
 10
7.726586114055737
 20
3.701828546350482
 10
7.727355736069379
 20
3.701645423173463
 10
7.728216559192829
 20
3.701581257965767
 10
7.729077742794977
 20
3.701645423173463
 10
7.72984700432991
 20
3.701828546350482
 10
7.73053407672242
 20
3.702130987975512
 10
7.731111203112971
 20
3.702543015123791
 10
7.731578383501584
 20
3.703074360720099
 10
7.731917233474805
 20
3.703715652318348
 10
7.732137125478695
 20
3.704457517472476
 10
7.73221030265376
 20
3.705309328628555
 10
7.73221030265376
 20
3.712490785188602
 97
        0
 92
        3
 72
     0
 73
     1
 93
        8
 10
7.734866670156572
 20
3.712490785188602
 10
7.734866670156572
 20
3.711162421197844
 10
7.738063395223054
 20
3.711162421197844
 10
7.738063395223054
 20
3.701846930763919
 10
7.739391398735109
 20
3.701846930763919
 10
7.739391398735109
 20
3.711162421197844
 10
7.742579111834221
 20
3.711162421197844
 10
7.742579111834221
 20
3.712490785188602
 97
        0
 92
        3
 72
     0
 73
     1
 93
       96
 10
7.745583701756314
 20
3.708927453289394
 10
7.745794221314137
 20
3.708405480139156
 10
7.746124059319984
 20
3.707993092512174
 10
7.746545458914346
 20
3.707654242538958
 10
7.747049047651134
 20
3.707388569740813
 10
7.74761716207432
 20
3.707187062150351
 10
7.748835219584432
 20
3.706866596590573
 10
7.750053637573227
 20
3.706591551346364
 10
7.750621391517715
 20
3.706436185028846
 10
7.751125340733209
 20
3.706234677438391
 10
7.751546379848861
 20
3.705987028574991
 10
7.751876217854709
 20
3.705666563015213
 10
7.752087097891232
 20
3.705272559801668
 10
7.752160275066301
 20
3.704777983032249
 10
7.752105121825972
 20
3.704310802643644
 10
7.751931371095031
 20
3.703926171876174
 10
7.751665698296872
 20
3.703596333870328
 10
7.751326848323665
 20
3.703340033518247
 10
7.750923833142749
 20
3.70314753789516
 10
7.75047467668889
 20
3.703019567958467
 10
7.749998484332909
 20
3.702937018337336
 10
7.749503907563493
 20
3.70290962195652
 10
7.748835219584432
 20
3.702946030304702
 10
7.7482490812265
 20
3.703065348752721
 10
7.747745132011013
 20
3.703266856343174
 10
7.747305708481913
 20
3.703541541108696
 10
7.746948474095255
 20
3.703907787462733
 10
7.746655044437598
 20
3.70437496785134
 10
7.746444524879768
 20
3.704924697861085
 10
7.746307182497004
 20
3.705575001426701
 10
7.744978818506254
 20
3.705309328628555
 10
7.745070740573455
 20
3.704384340297405
 10
7.745189698542786
 20
3.70397195267043
 10
7.745345425338984
 20
3.703605706316395
 10
7.745546932929437
 20
3.703266856343174
 10
7.745775836900703
 20
3.702955402750773
 10
7.746343951323889
 20
3.702442441567912
 10
7.747012278824259
 20
3.702057810800445
 10
7.747781900837898
 20
3.701792138002293
 10
7.748615327580534
 20
3.701636411206089
 10
7.749503907563493
 20
3.701581257965767
 10
7.750282541544498
 20
3.701636411206089
 10
7.751024406698635
 20
3.701782765556225
 10
7.75170210664507
 20
3.702048438354372
 10
7.752297617449062
 20
3.702415045187099
 10
7.752792194218478
 20
3.702891237543079
 10
7.75316781301858
 20
3.703486748347073
 10
7.753305155401349
 20
3.703834610287666
 10
7.753406089435911
 20
3.704200856641694
 10
7.75348827857836
 20
3.705043655830403
 10
7.753415101403295
 20
3.705767497049785
 10
7.753204581845465
 20
3.706362647375086
 10
7.752874743839618
 20
3.706839200209766
 10
7.752453344245257
 20
3.707214458531167
 10
7.751949395029778
 20
3.707507527710131
 10
7.751390653052663
 20
3.707736792160087
 10
7.750163583575175
 20
3.70806663016594
 10
7.748945165586375
 20
3.708331942485394
 10
7.748386423609268
 20
3.708487669281594
 10
7.747882474393777
 20
3.708671152937308
 10
7.747452062832051
 20
3.708909068875952
 10
7.74712222482621
 20
3.70921151050098
 10
7.746911705268373
 20
3.709605153235823
 10
7.746838528093312
 20
3.710100090483938
 10
7.746902693301004
 20
3.710457324870597
 10
7.747067432064571
 20
3.710750394049561
 10
7.747314720449286
 20
3.710988309988203
 10
7.747635186009063
 20
3.711162421197844
 10
7.748010804809165
 20
3.711281379167171
 10
7.748413819990071
 20
3.711363928788304
 10
7.749238234765341
 20
3.711428093995997
 10
7.749806349188523
 20
3.711400697615185
 10
7.750318949892689
 20
3.71131814799405
 10
7.750777118313924
 20
3.711171433165224
 10
7.751161749081385
 20
3.710960913607387
 10
7.751473202673796
 20
3.710667844428424
 10
7.75170210664507
 20
3.710301598074395
 10
7.751848821473891
 20
3.709843429653159
 10
7.751894602268149
 20
3.709293699643422
 10
7.75348827857836
 20
3.709293699643422
 10
7.753240990193645
 20
3.710136498832127
 10
7.752902140220431
 20
3.710850967605444
 10
7.752471728658698
 20
3.711446478409436
 10
7.751958767475841
 20
3.711922670765418
 10
7.751372629117917
 20
3.712289277598144
 10
7.750722325552292
 20
3.712554589917598
 10
7.750007856778979
 20
3.712701304746422
 10
7.749238234765341
 20
3.712756097508052
 10
7.74854215040547
 20
3.712710316713803
 10
7.747864450459027
 20
3.712554589917598
 10
7.747241543274217
 20
3.712307301532884
 10
7.746673428851035
 20
3.711959439592298
 10
7.74619723649506
 20
3.71151064361713
 10
7.745830990141022
 20
3.710960913607387
 10
7.745592713723691
 20
3.710310610041761
 10
7.745510164102551
 20
3.709559372441569
 97
        0
 92
        3
 72
     0
 73
     1
 93
       78
 10
7.757811860045139
 20
3.708038873306432
 10
7.757994983222151
 20
3.708844903668254
 10
7.758306436814558
 20
3.709568744887642
 10
7.758746220822349
 20
3.71019165207245
 10
7.759304962799467
 20
3.710713625222679
 10
7.759991674713271
 20
3.711098255990148
 10
7.760807077521168
 20
3.711336532407491
 10
7.761741438298378
 20
3.711428093995997
 10
7.762245027035167
 20
3.711391325169114
 10
7.762757988218033
 20
3.711272367199792
 10
7.76326193743352
 20
3.711089244022782
 10
7.763738129789491
 20
3.710823571224622
 10
7.764159529383852
 20
3.710493733218782
 10
7.764507751803141
 20
3.710081706070496
 10
7.764773064122594
 20
3.70959614126845
 10
7.7649287909188
 20
3.709028387323959
 10
7.766266166876915
 20
3.709293699643422
 10
7.766000494078767
 20
3.710136498832127
 10
7.765634247724735
 20
3.710850967605444
 10
7.765158055368754
 20
3.711446478409436
 10
7.764599313391639
 20
3.711922670765418
 10
7.763967033760765
 20
3.712289277598144
 10
7.763270949400886
 20
3.712554589917598
 10
7.762520072279383
 20
3.712701304746422
 10
7.761741438298378
 20
3.712756097508052
 10
7.761109158667508
 20
3.712728701127246
 10
7.760514008342206
 20
3.712646511984804
 10
7.759964278332461
 20
3.712518181569418
 10
7.759451317149594
 20
3.712335058392398
 10
7.758975124793626
 20
3.712105793942423
 10
7.758535340785814
 20
3.711831109176905
 10
7.75814169805098
 20
3.71151064361713
 10
7.757784463664328
 20
3.711162421197844
 10
7.757463637625854
 20
3.710768417984303
 10
7.757188952860329
 20
3.710338006422584
 10
7.756960048889058
 20
3.70988019848004
 10
7.756767553265975
 20
3.709385621710622
 10
7.756501880467834
 20
3.708322930518016
 10
7.756419691325388
 20
3.70716867773691
 10
7.756501880467834
 20
3.7060147854345
 10
7.756767553265975
 20
3.704952094241891
 10
7.756960048889058
 20
3.704457517472476
 10
7.757188952860329
 20
3.703999349051244
 10
7.757463637625854
 20
3.703568937489512
 10
7.757784463664328
 20
3.703175294754672
 10
7.75814169805098
 20
3.702827072335393
 10
7.758535340785814
 20
3.702506606775604
 10
7.758975124793626
 20
3.702231561531393
 10
7.759451317149594
 20
3.70200265756012
 10
7.759964278332461
 20
3.701819534383105
 10
7.760514008342206
 20
3.701691203967719
 10
7.761109158667508
 20
3.701608654346582
 10
7.761741438298378
 20
3.701581257965767
 10
7.762538096214129
 20
3.701654795619526
 10
7.763307718227772
 20
3.701874327144731
 10
7.764049583381902
 20
3.702222549564014
 10
7.7647366557744
 20
3.702708114366058
 10
7.765341178545766
 20
3.703321649104806
 10
7.765854139728633
 20
3.704054502291569
 10
7.766257154909546
 20
3.704887929034201
 10
7.766531839675063
 20
3.705840674224854
 10
7.7649287909188
 20
3.705840674224854
 10
7.764782436568659
 20
3.705180998213162
 10
7.764544160151324
 20
3.704594859855237
 10
7.764223694591547
 20
3.704091271118441
 10
7.763839063824079
 20
3.703678883491468
 10
7.763380895402837
 20
3.703349045485613
 10
7.762877306666044
 20
3.703111129546969
 10
7.762327576656307
 20
3.702964414718152
 10
7.761741438298378
 20
3.70290962195652
 10
7.760807077521168
 20
3.702991811098962
 10
7.759991674713271
 20
3.703239099483673
 10
7.759304962799467
 20
3.703624090729836
 10
7.758746220822349
 20
3.704146063880069
 10
7.758306436814558
 20
3.704768971064883
 10
7.757994983222151
 20
3.705492451805571
 10
7.757811860045139
 20
3.706298482167389
 10
7.757747694837444
 20
3.70716867773691
 97
        0
 92
        3
 72
     0
 73
     1
 93
       12
 10
7.769719552774183
 20
3.701846930763919
 10
7.771047556286242
 20
3.701846930763919
 10
7.771047556286242
 20
3.706637692619306
 10
7.77663497605738
 20
3.706637692619306
 10
7.77663497605738
 20
3.701846930763919
 10
7.778238024813659
 20
3.701846930763919
 10
7.778238024813659
 20
3.712490785188602
 10
7.77663497605738
 20
3.712490785188602
 10
7.77663497605738
 20
3.707965696131363
 10
7.771047556286242
 20
3.707965696131363
 10
7.771047556286242
 20
3.712490785188602
 10
7.769719552774183
 20
3.712490785188602
 97
        0
 92
        3
 72
     0
 73
     1
 93
       12
 10
7.78169141071092
 20
3.701846930763919
 10
7.789147191557791
 20
3.701846930763919
 10
7.789147191557791
 20
3.703175294754672
 10
7.783028786669032
 20
3.703175294754672
 10
7.783028786669032
 20
3.706637692619306
 10
7.788341161195961
 20
3.706637692619306
 10
7.788341161195961
 20
3.707965696131363
 10
7.783028786669032
 20
3.707965696131363
 10
7.783028786669032
 20
3.711162421197844
 10
7.789147191557791
 20
3.711162421197844
 10
7.789147191557791
 20
3.712490785188602
 10
7.78169141071092
 20
3.712490785188602
 97
        0
 92
        3
 72
     0
 73
     1
 93
       90
 10
7.704401173734747
 20
3.694280843436402
 10
7.704099092588401
 20
3.694574273094058
 10
7.704025554934645
 20
3.694739011857633
 10
7.704007530999895
 20
3.694931507480717
 10
7.70405331179415
 20
3.695206192246244
 10
7.70418128173085
 20
3.695435096217512
 10
7.704364765386553
 20
3.695618219394524
 10
7.704602681325197
 20
3.69576493422336
 10
7.705125014954127
 20
3.695939045432993
 10
7.705601207310102
 20
3.695993838194632
 10
7.706388853258487
 20
3.695902276606126
 10
7.706773484025963
 20
3.695783318636792
 10
7.707130718412625
 20
3.695627591840597
 10
7.707772010010864
 20
3.695206192246244
 10
7.708257574812911
 20
3.69466583468257
 10
7.710391608686795
 20
3.695993838194632
 10
7.709878647503939
 20
3.696470030550605
 10
7.709347662386333
 20
3.69689143014496
 10
7.708797932376592
 20
3.697248664531611
 10
7.708230178432108
 20
3.697560118124022
 10
7.707643679595477
 20
3.697798394541358
 10
7.707057541237556
 20
3.697981517718374
 10
7.706462030433563
 20
3.698082451752953
 10
7.705866880108261
 20
3.698118860101137
 10
7.704996684538747
 20
3.698073079306878
 10
7.704190654176918
 20
3.697917352510674
 10
7.703466812957534
 20
3.697661052158594
 10
7.702843905772717
 20
3.69729444532587
 10
7.702321932622494
 20
3.696809241002518
 10
7.701937301855023
 20
3.696213730198519
 10
7.701799959472262
 20
3.695874880225307
 10
7.701690013470308
 20
3.695499261425208
 10
7.701607463849182
 20
3.69466583468257
 10
7.701662617089498
 20
3.694088708292007
 10
7.701818343885699
 20
3.693566374663087
 10
7.702065632270414
 20
3.693099554753173
 10
7.702404482243616
 20
3.692687167126196
 10
7.702825881837978
 20
3.692339305185604
 10
7.703329470574766
 20
3.692064259941388
 10
7.703915608932698
 20
3.691853740383553
 10
7.704556900530942
 20
3.691716398000794
 10
7.70669129488352
 20
3.691276613993005
 10
7.707158475272125
 20
3.691166667991054
 10
7.707478940831906
 20
3.690992556781413
 10
7.707671436454989
 20
3.690754640842766
 10
7.707726229216617
 20
3.690406418423483
 10
7.707680448422359
 20
3.690122361211894
 10
7.707552118006978
 20
3.689866060859811
 10
7.707350610416511
 20
3.689637156888546
 10
7.70709431006443
 20
3.689444661265454
 10
7.706810252852841
 20
3.68928893446925
 10
7.706489787293064
 20
3.689169976499937
 10
7.705866880108261
 20
3.689078414911422
 10
7.704959915711854
 20
3.689169976499937
 10
7.704566272977017
 20
3.68928893446925
 10
7.704199666144287
 20
3.689444661265454
 10
7.703549362578674
 20
3.689866060859811
 10
7.702935827839924
 20
3.690406418423483
 10
7.700810445454722
 20
3.689343727230882
 10
7.701396944291341
 20
3.688794357699837
 10
7.70197407068189
 20
3.688336189278605
 10
7.702532812659011
 20
3.687969942924568
 10
7.703109578570865
 20
3.6876768737456
 10
7.703686704961424
 20
3.68746599370908
 10
7.704291227732793
 20
3.687319639358948
 10
7.704923507363671
 20
3.687237089737815
 10
7.705601207310102
 20
3.687209693356999
 10
7.706343072464243
 20
3.687246462183879
 10
7.707130718412625
 20
3.687347035739762
 10
7.70793674877444
 20
3.68754854333022
 10
7.708696998342018
 20
3.687878381336062
 10
7.709045220761302
 20
3.688098273339961
 10
7.709365686321079
 20
3.688354573692042
 10
7.709649743532668
 20
3.688657015317074
 10
7.709906404363447
 20
3.689014249703727
 10
7.7101079119539
 20
3.689407892438576
 10
7.710263638750098
 20
3.689866060859811
 10
7.710355200338615
 20
3.690369649596603
 10
7.710391608686795
 20
3.690937764019784
 10
7.710355200338615
 20
3.691368175581509
 10
7.710254266304034
 20
3.691752806348986
 10
7.710098539507825
 20
3.69208264435483
 10
7.709897031917376
 20
3.692375713533786
 10
7.709640731565288
 20
3.692632374364568
 10
7.709356674353706
 20
3.692851905889769
 10
7.708678974407271
 20
3.693200128309056
 10
7.707918724839701
 20
3.693438404726394
 10
7.707112694477868
 20
3.69361251593604
 10
7.705601207310102
 20
3.693868816288121
 10
7.704905122950234
 20
3.694051939465133
 97
        0
 92
        3
 72
     0
 73
     1
 93
        8
 10
7.71677604685239
 20
3.695728165396476
 10
7.719432414355198
 20
3.695728165396476
 10
7.719432414355198
 20
3.697853187302988
 10
7.711454299879403
 20
3.697853187302988
 10
7.711454299879403
 20
3.695728165396476
 10
7.714110667382204
 20
3.695728165396476
 10
7.714110667382204
 20
3.687484378122523
 10
7.71677604685239
 20
3.687484378122523
 97
        0
 92
        3
 72
     0
 73
     1
 93
       12
 10
7.721301135909624
 20
3.687484378122523
 10
7.729279250385426
 20
3.687484378122523
 10
7.729279250385426
 20
3.689343727230882
 10
7.723691830614288
 20
3.689343727230882
 10
7.723691830614288
 20
3.691734421935545
 10
7.728482231990977
 20
3.691734421935545
 10
7.728482231990977
 20
3.693868816288121
 10
7.723691830614288
 20
3.693868816288121
 10
7.723691830614288
 20
3.695728165396476
 10
7.728747904789129
 20
3.695728165396476
 10
7.728747904789129
 20
3.697853187302988
 10
7.721301135909624
 20
3.697853187302988
 97
        0
 92
        3
 72
     0
 73
     1
 93
        4
 10
7.731138599493786
 20
3.687484378122523
 10
7.733803978963967
 20
3.687484378122523
 10
7.733803978963967
 20
3.697853187302988
 10
7.731138599493786
 20
3.697853187302988
 97
        0
 92
        3
 72
     0
 73
     1
 93
       10
 10
7.738594740819358
 20
3.687484378122523
 10
7.738594740819358
 20
3.693868816288121
 10
7.742313439036069
 20
3.687484378122523
 10
7.744978818506254
 20
3.687484378122523
 10
7.744978818506254
 20
3.697853187302988
 10
7.742579111834221
 20
3.697853187302988
 10
7.742579111834221
 20
3.69120343681793
 10
7.73886041361751
 20
3.697853187302988
 10
7.73619467366863
 20
3.697853187302988
 10
7.73619467366863
 20
3.687484378122523
 97
        0
 92
        3
 72
     0
 73
     1
 93
       10
 10
7.755888345729088
 20
3.695728165396476
 10
7.755888345729088
 20
3.697853187302988
 10
7.747369513210918
 20
3.697853187302988
 10
7.747369513210918
 20
3.695728165396476
 10
7.752691620662598
 20
3.695728165396476
 10
7.747104200891457
 20
3.689343727230882
 10
7.747104200891457
 20
3.687484378122523
 10
7.755888345729088
 20
3.687484378122523
 10
7.755888345729088
 20
3.689343727230882
 10
7.750300925957935
 20
3.689343727230882
 97
        0
 92
        3
 72
     0
 73
     1
 93
       12
 10
7.758013367635592
 20
3.687484378122523
 10
7.766000494078767
 20
3.687484378122523
 10
7.766000494078767
 20
3.689343727230882
 10
7.76067874710578
 20
3.689343727230882
 10
7.76067874710578
 20
3.691734421935545
 10
7.765194463716941
 20
3.691734421935545
 10
7.765194463716941
 20
3.693868816288121
 10
7.76067874710578
 20
3.693868816288121
 10
7.76067874710578
 20
3.695728165396476
 10
7.765725809313246
 20
3.695728165396476
 10
7.765725809313246
 20
3.697853187302988
 10
7.758013367635592
 20
3.697853187302988
 97
        0
 92
        3
 72
     0
 73
     1
 93
       42
 10
7.770516571168636
 20
3.697853187302988
 10
7.767860203665828
 20
3.697853187302988
 10
7.767860203665828
 20
3.690937764019784
 10
7.767887600046631
 20
3.690461211185113
 10
7.767970149667764
 20
3.690012415209945
 10
7.768098119604464
 20
3.689609400029031
 10
7.76826321884673
 20
3.689234141707626
 10
7.768730399235334
 20
3.688592850109379
 10
7.769325549560643
 20
3.688079888926521
 10
7.77001262195315
 20
3.68769525815905
 10
7.770772871520717
 20
3.687420212914827
 10
7.771578901882536
 20
3.687264486118631
 10
7.772384932244361
 20
3.687209693356999
 10
7.77309940101767
 20
3.687264486118631
 10
7.773832254204438
 20
3.687420212914827
 10
7.774546722977754
 20
3.68769525815905
 10
7.775206038510741
 20
3.688079888926521
 10
7.775783164901307
 20
3.688592850109379
 10
7.776231960876467
 20
3.689234141707626
 10
7.776406072086114
 20
3.689609400029031
 10
7.776534402501494
 20
3.690012415209945
 10
7.776607579676574
 20
3.690461211185113
 10
7.77663497605738
 20
3.690937764019784
 10
7.77663497605738
 20
3.697853187302988
 10
7.774244281352717
 20
3.697853187302988
 10
7.774244281352717
 20
3.69120343681793
 10
7.774216884971906
 20
3.690809433604396
 10
7.774143707796838
 20
3.69042480283692
 10
7.774006365414077
 20
3.69006756845027
 10
7.773813869790997
 20
3.689737730444425
 10
7.773557569438909
 20
3.689472057646273
 10
7.773236743400438
 20
3.68926153808844
 10
7.772843100665597
 20
3.689124195705683
 10
7.772384932244361
 20
3.689078414911422
 10
7.771917751855753
 20
3.689124195705683
 10
7.771533121088288
 20
3.68926153808844
 10
7.771212655528505
 20
3.689472057646273
 10
7.770955994697729
 20
3.689737730444425
 10
7.770754487107276
 20
3.69006756845027
 10
7.770626156691881
 20
3.69042480283692
 10
7.770543967549439
 20
3.690809433604396
 10
7.770516571168636
 20
3.69120343681793
 97
        0
 92
        3
 72
     0
 73
     1
 93
       75
 10
7.778842547585024
 20
3.691386559994951
 10
7.779062439588922
 20
3.690360637629232
 10
7.779236550798561
 20
3.68988444527325
 10
7.779438058389017
 20
3.689444661265454
 10
7.779685346773732
 20
3.689041646084546
 10
7.779969403985318
 20
3.688675399730515
 10
7.780638091964386
 20
3.688052492545709
 10
7.781031734699228
 20
3.687805204160999
 10
7.781462146260955
 20
3.687594324124473
 10
7.781929326649553
 20
3.687429585360898
 10
7.782433275865047
 20
3.687310266912879
 10
7.783559771786641
 20
3.687209693356999
 10
7.784503505009923
 20
3.687264486118631
 10
7.785318547339118
 20
3.687447969774341
 10
7.785675781725787
 20
3.687594324124473
 10
7.785987235318187
 20
3.687777447301494
 10
7.786261920083712
 20
3.68800671175145
 10
7.786481812087612
 20
3.688281396516975
 10
7.786481812087612
 20
3.687484378122523
 10
7.788616206440181
 20
3.687484378122523
 10
7.788616206440181
 20
3.693071797893668
 10
7.784091117382949
 20
3.693071797893668
 10
7.784091117382949
 20
3.69120343681793
 10
7.786216139289453
 20
3.69120343681793
 10
7.786161346527829
 20
3.690745268396699
 10
7.78599624728556
 20
3.690351625661859
 10
7.785758331346909
 20
3.690030799623388
 10
7.78545588972189
 20
3.6897744992713
 10
7.785117039748669
 20
3.689582003648224
 10
7.784759805362018
 20
3.689444661265454
 10
7.784091117382949
 20
3.689343727230882
 10
7.783440813817322
 20
3.689398880471205
 10
7.78289108380758
 20
3.689582003648224
 10
7.782424263897677
 20
3.689866060859811
 10
7.782057657064951
 20
3.690241679659906
 10
7.781782972299426
 20
3.690708860048517
 10
7.781581464708962
 20
3.691249217612187
 10
7.781462146260955
 20
3.691862752350933
 10
7.781425737912764
 20
3.692531440329989
 10
7.781480530674392
 20
3.693374239518698
 10
7.781617873057153
 20
3.694088708292007
 10
7.781847137507128
 20
3.694683858617313
 10
7.782158591099521
 20
3.695160411451992
 10
7.782543221866993
 20
3.695526657806018
 10
7.78300102980953
 20
3.69579233060417
 10
7.783513990992387
 20
3.695948057400372
 10
7.784091117382949
 20
3.695993838194632
 10
7.784832982537075
 20
3.695902276606126
 10
7.785172192988995
 20
3.695783318636792
 10
7.7854832861027
 20
3.695627591840597
 10
7.786033016112437
 20
3.695206192246244
 10
7.786481812087612
 20
3.69466583468257
 10
7.788616206440181
 20
3.695462492598324
 10
7.788185434399766
 20
3.696112796163947
 10
7.787709242043781
 20
3.696662526173692
 10
7.787187268893549
 20
3.697120694594923
 10
7.786619154470363
 20
3.697486940948953
 10
7.78599624728556
 20
3.697770998160538
 10
7.785318547339118
 20
3.697972505750999
 10
7.784595066598443
 20
3.698082451752953
 10
7.783825444584801
 20
3.698118860101137
 10
7.783193525432614
 20
3.698091463720321
 10
7.782616399042058
 20
3.698008914099181
 10
7.782076041478388
 20
3.697880944162493
 10
7.781572092262898
 20
3.697697460506788
 10
7.781114284320357
 20
3.69746855653551
 10
7.780701896693381
 20
3.697193871769992
 10
7.780326638371983
 20
3.69688241817758
 10
7.779996800366143
 20
3.696525183790929
 10
7.779703731187169
 20
3.696131180577389
 10
7.779456442802454
 20
3.695709780983039
 10
7.779245562765934
 20
3.695242961073121
 10
7.779071451556291
 20
3.694757396271076
 10
7.778842547585024
 20
3.693694705078475
 10
7.778769370409956
 20
3.692531440329989
 97
        0
 92
       18
 72
     0
 73
     1
 93
       19
 10
7.705601207310102
 20
3.711162421197844
 10
7.706434634052742
 20
3.711089244022782
 10
7.707149102826062
 20
3.710869352018881
 10
7.707744613630061
 20
3.710530502045664
 10
7.708230178432108
 20
3.710063321657055
 10
7.708596424786139
 20
3.709486195266507
 10
7.708852725138212
 20
3.708799122873998
 10
7.709008451934418
 20
3.708029861339061
 10
7.709054232728676
 20
3.70716867773691
 10
7.709008451934418
 20
3.706307854613466
 10
7.708852725138212
 20
3.705538232599816
 10
7.708596424786139
 20
3.704851520686009
 10
7.708230178432108
 20
3.704274394295461
 10
7.707744613630061
 20
3.703807213906854
 10
7.707149102826062
 20
3.703468363933634
 10
7.706434634052742
 20
3.703248471929741
 10
7.705601207310102
 20
3.703175294754672
 10
7.703201140159385
 20
3.703175294754672
 10
7.703201140159385
 20
3.711162421197844
 97
        0
 75
     0
 76
     1
 98
        0
  0
HATCH
  5
76
330
1F
100
AcDbEntity
  8
STANDARD
  6
AUSGEZOGEN
 62
    18
420
        0
440
 33554687
370
    35
100
AcDbHatch
 10
0.0
 20
0.0
 30
0.0
210
0.0
220
0.0
230
1.0
  2
SOLID
 70
     1
 71
     0
 91
       20
 92
        3
 72
     0
 73
     1
 93
        8
 10
7.834909601398228
 20
3.712225112390445
 10
7.825062765367996
 20
3.687484378122523
 10
7.827453460072652
 20
3.687484378122523
 10
7.83038451234099
 20
3.694931507480717
 10
7.841294039563819
 20
3.694931507480717
 10
7.843950407066627
 20
3.687484378122523
 10
7.846615786536812
 20
3.687484378122523
 10
7.837034623304732
 20
3.712225112390445
 97
        0
 92
        3
 72
     0
 73
     1
 93
      116
 10
7.849537826837777
 20
3.699721908857415
 10
7.84957423518596
 20
3.700674654048065
 10
7.849665796774469
 20
3.701636411206089
 10
7.849821523570668
 20
3.702607180331494
 10
7.850050788020629
 20
3.703559925522146
 10
7.850343857199595
 20
3.70448491385329
 10
7.850701091586253
 20
3.70539187824969
 10
7.85113150314798
 20
3.706252701373143
 10
7.851635452363474
 20
3.707068104181033
 10
7.852212218275324
 20
3.707818981302527
 10
7.852853509873575
 20
3.708506053695033
 10
7.853567978646883
 20
3.709119948912468
 10
7.854364997041348
 20
3.709632910095328
 10
7.855235192610865
 20
3.710053949210987
 10
7.856187577322825
 20
3.710365402803393
 10
7.857213499688541
 20
3.710557898426476
 10
7.858321971675401
 20
3.710631075601545
 10
7.859640963220079
 20
3.710548886459103
 10
7.860822612382004
 20
3.710319622009136
 10
7.861362969945681
 20
3.710145871278195
 10
7.861866558682476
 20
3.709925979274294
 10
7.862333739071074
 20
3.709669318443519
 10
7.862773523078872
 20
3.709367237297183
 10
7.863561169027261
 20
3.708625372143053
 10
7.864229857006311
 20
3.707709395779282
 10
7.864788598983433
 20
3.706600923792428
 10
7.865237394958597
 20
3.705309328628555
 10
7.867628089663254
 20
3.706637692619306
 10
7.86688622450913
 20
3.708048245752499
 10
7.866025401385673
 20
3.709275675708674
 10
7.865063644227649
 20
3.710328994455211
 10
7.864532298631345
 20
3.710786802397748
 10
7.863973556654227
 20
3.711189817578665
 10
7.863387418296313
 20
3.711556424411387
 10
7.862764511111492
 20
3.711867878003783
 10
7.862104835099804
 20
3.712142562769315
 10
7.861417762707301
 20
3.712362454773209
 10
7.859943044366418
 20
3.712655523952171
 10
7.858321971675401
 20
3.712756097508052
 10
7.856920430509574
 20
3.712682920332985
 10
7.855628835345707
 20
3.712472400775159
 10
7.854419789802968
 20
3.712124178355872
 10
7.853320690262187
 20
3.711656997967266
 10
7.852313152309905
 20
3.711070859609336
 10
7.851397175946128
 20
3.710383787216835
 10
7.850572761170869
 20
3.709605153235823
 10
7.849839907984109
 20
3.708734957666306
 10
7.849198616385854
 20
3.707782572954346
 10
7.848649246854814
 20
3.706765662555996
 10
7.848182066466205
 20
3.705693959396023
 10
7.847806447666111
 20
3.704558091028359
 10
7.847513378487156
 20
3.703394826279875
 10
7.847311870896688
 20
3.702185780737133
 10
7.847183540481307
 20
3.700958350780957
 10
7.847147132133113
 20
3.699721908857415
 10
7.847183540481307
 20
3.698384532899289
 10
7.847311870896688
 20
3.69709293773542
 10
7.847513378487156
 20
3.695847483844491
 10
7.847797435698729
 20
3.694647450269129
 10
7.848163682052761
 20
3.693511581901459
 10
7.848621850474
 20
3.692439878741483
 10
7.849152835591599
 20
3.691432340789208
 10
7.849775742776417
 20
3.690507352458057
 10
7.850471827136292
 20
3.689664553269349
 10
7.851259833563364
 20
3.688913315669155
 10
7.852139041100259
 20
3.688263012103531
 10
7.853091786290909
 20
3.687704270126424
 10
7.854135732591375
 20
3.687273858564693
 10
7.855271600959049
 20
3.686944020558853
 10
7.856480646501784
 20
3.686751524935767
 10
7.857790626079104
 20
3.6866783477607
 10
7.858889725619888
 20
3.686742512968396
 10
7.85999819760674
 20
3.686935008591476
 10
7.861078912734087
 20
3.687255474151256
 10
7.862114207545871
 20
3.687713282093786
 10
7.863066592257831
 20
3.688308792897786
 10
7.863927775859983
 20
3.689041646084546
 10
7.86466062904674
 20
3.689911841654057
 10
7.86496271019308
 20
3.690406418423483
 10
7.865237394958597
 20
3.690937764019784
 10
7.865237394958597
 20
3.687484378122523
 10
7.867362416865112
 20
3.687484378122523
 10
7.867362416865112
 20
3.700253254453712
 10
7.856187577322825
 20
3.700253254453712
 10
7.856187577322825
 20
3.698118860101137
 10
7.865237394958597
 20
3.698118860101137
 10
7.865237394958597
 20
3.696790856589081
 10
7.865136821402718
 20
3.695453480630951
 10
7.864825367810311
 20
3.694088708292007
 10
7.8645780794256
 20
3.693411008345578
 10
7.864285010246642
 20
3.692751332333888
 10
7.863927775859983
 20
3.692110040735641
 10
7.863506376265629
 20
3.691505517964275
 10
7.863030183909644
 20
3.690937764019784
 10
7.86248045389991
 20
3.69042480283692
 10
7.861875931128536
 20
3.689966634415689
 10
7.861198231182106
 20
3.689572991680847
 10
7.860456005549278
 20
3.689252165642376
 10
7.859631590774011
 20
3.689014249703727
 10
7.85875238323712
 20
3.688858522907531
 10
7.857790626079104
 20
3.688812742113276
 10
7.856727934886499
 20
3.688876907320968
 10
7.855757165761098
 20
3.689069042465359
 10
7.854850201364687
 20
3.689380496057764
 10
7.854026147068127
 20
3.689801895652112
 10
7.853283921435309
 20
3.69032386880235
 10
7.85260622148886
 20
3.69092839157372
 10
7.852001698717501
 20
3.691615463966218
 10
7.851470353121201
 20
3.692366701566414
 10
7.851003172732592
 20
3.693181743895615
 10
7.850609529997747
 20
3.694042927497764
 10
7.850270319545828
 20
3.69494953141547
 10
7.850005007226374
 20
3.695883892192682
 10
7.849803499635929
 20
3.696836637383325
 10
7.849656784807096
 20
3.697798394541358
 10
7.84956522321858
 20
3.698760151699384
 97
        0
 92
        3
 72
     0
 73
     1
 93
       37
 10
7.870824814729739
 20
3.687484378122523
 10
7.873215509434402
 20
3.687484378122523
 10
7.873215509434402
 20
3.698384532899289
 10
7.878803289684239
 20
3.698384532899289
 10
7.886790416127407
 20
3.687484378122523
 10
7.889712456428378
 20
3.687484378122523
 10
7.881734341952573
 20
3.698384532899289
 10
7.883337390708844
 20
3.698586040489743
 10
7.884079255862978
 20
3.698760151699384
 10
7.884765967776786
 20
3.698980043703281
 10
7.885407259375032
 20
3.699254728468806
 10
7.885993397732968
 20
3.699575194028583
 10
7.886534115775333
 20
3.699941800861307
 10
7.887019320098677
 20
3.700353828009591
 10
7.887459104106472
 20
3.700811996430824
 10
7.887834722906574
 20
3.701315585167618
 10
7.888164560912422
 20
3.701865315177362
 10
7.888429873231876
 20
3.702469837948729
 10
7.888640753268397
 20
3.703111129546969
 10
7.888796480064598
 20
3.703797841460786
 10
7.888888041653104
 20
3.704530694647543
 10
7.888915438033914
 20
3.705309328628555
 10
7.888814864478035
 20
3.706600923792428
 10
7.888503410885636
 20
3.707846738162041
 10
7.888265134468301
 20
3.708441888487347
 10
7.887981077256705
 20
3.709019014877895
 10
7.88762384287005
 20
3.709559372441569
 10
7.88722082768914
 20
3.710063321657055
 10
7.886753647300536
 20
3.710530502045664
 10
7.886231674150296
 20
3.71094252919395
 10
7.885636163346303
 20
3.71131814799405
 10
7.884985859780679
 20
3.71162960158645
 10
7.884271391007363
 20
3.711885901938536
 10
7.883492757026355
 20
3.712069385594245
 10
7.882650318316348
 20
3.712188343563563
 10
7.881734341952573
 20
3.712225112390445
 10
7.870824814729739
 20
3.712225112390445
 97
        0
 92
        3
 72
     0
 73
     1
 93
       64
 10
7.890674213586402
 20
3.697248664531611
 10
7.890884733144224
 20
3.696048991434949
 10
7.891168790355824
 20
3.694876354240396
 10
7.891544409155912
 20
3.693749858318799
 10
7.892002217098453
 20
3.692668782712754
 10
7.892542935140825
 20
3.691652232793098
 10
7.893174854293001
 20
3.690708860048517
 10
7.893889323066321
 20
3.689838664478999
 10
7.894695353428147
 20
3.689050658051918
 10
7.895592945378475
 20
3.68836394613811
 10
7.896573086949947
 20
3.687786819747557
 10
7.897653802077301
 20
3.687319639358948
 10
7.898817066825774
 20
3.686971416939667
 10
7.900072253641459
 20
3.686751524935767
 10
7.901408908642196
 20
3.6866783477607
 10
7.902718888219505
 20
3.686751524935767
 10
7.903937306208308
 20
3.686971416939667
 10
7.905063802129914
 20
3.687319639358948
 10
7.906108108909071
 20
3.687786819747557
 10
7.907060493621038
 20
3.68836394613811
 10
7.907940061636616
 20
3.689050658051918
 10
7.908727707585005
 20
3.689838664478999
 10
7.90942379194488
 20
3.690708860048517
 10
7.910046699129679
 20
3.691652232793098
 10
7.91057804472599
 20
3.692668782712754
 10
7.911035852668528
 20
3.693749858318799
 10
7.911402459501254
 20
3.694876354240396
 10
7.911686156234149
 20
3.696048991434949
 10
7.911897036270669
 20
3.697248664531611
 10
7.912015994239989
 20
3.698476094487787
 10
7.91205276306687
 20
3.699721908857415
 10
7.912015994239989
 20
3.700958350780957
 10
7.911897036270669
 20
3.702185780737133
 10
7.911686156234149
 20
3.703394826279875
 10
7.911402459501254
 20
3.704558091028359
 10
7.911035852668528
 20
3.705693959396023
 10
7.91057804472599
 20
3.706765662555996
 10
7.910046699129679
 20
3.707782572954346
 10
7.90942379194488
 20
3.708734957666306
 10
7.908727707585005
 20
3.709605153235823
 10
7.907940061636616
 20
3.710383787216835
 10
7.907060493621038
 20
3.711070859609336
 10
7.906108108909071
 20
3.711656997967266
 10
7.905063802129914
 20
3.712124178355872
 10
7.903937306208308
 20
3.712472400775159
 10
7.902718888219505
 20
3.712682920332985
 10
7.901408908642196
 20
3.712756097508052
 10
7.900072253641459
 20
3.712682920332985
 10
7.898817066825774
 20
3.712472400775159
 10
7.897653802077301
 20
3.712124178355872
 10
7.896573086949947
 20
3.711656997967266
 10
7.895592945378475
 20
3.711070859609336
 10
7.894695353428147
 20
3.710383787216835
 10
7.893889323066321
 20
3.709605153235823
 10
7.893174854293001
 20
3.708734957666306
 10
7.892542935140825
 20
3.707782572954346
 10
7.892002217098453
 20
3.706765662555996
 10
7.891544409155912
 20
3.705693959396023
 10
7.891168790355824
 20
3.704558091028359
 10
7.890884733144224
 20
3.703394826279875
 10
7.890674213586402
 20
3.702185780737133
 10
7.890555255617078
 20
3.700958350780957
 10
7.890518486790193
 20
3.699721908857415
 10
7.890555255617078
 20
3.698476094487787
 97
        0
 92
        3
 72
     0
 73
     1
 93
       57
 10
7.925892982079339
 20
3.687484378122523
 10
7.926900520031618
 20
3.687521146949404
 10
7.927834880808831
 20
3.687621720505283
 10
7.928705076378353
 20
3.68779583171493
 10
7.92949308280544
 20
3.688034108132268
 10
7.930216563546118
 20
3.68832717731123
 10
7.930875879079119
 20
3.688675399730515
 10
7.931462377915735
 20
3.689069042465359
 10
7.931975339098602
 20
3.689508826473149
 10
7.932433147041139
 20
3.689994391275197
 10
7.932817777808615
 20
3.690507352458057
 10
7.933147615814455
 20
3.691056721989107
 10
7.933413288612611
 20
3.691633848379657
 10
7.93361479620306
 20
3.692229359183655
 10
7.933761511031888
 20
3.692851905889769
 10
7.933843700174323
 20
3.693484185520644
 10
7.933871096555149
 20
3.694134489086266
 10
7.933797919380075
 20
3.695389315423259
 10
7.933569015408805
 20
3.69655258017174
 10
7.933385892231797
 20
3.697102310181486
 10
7.933175012195262
 20
3.697615271364346
 10
7.932909339397114
 20
3.698100475687692
 10
7.932607258250782
 20
3.698558644108927
 10
7.932259035831501
 20
3.698970671257212
 10
7.931874405064028
 20
3.699355662503376
 10
7.93143462105623
 20
3.69970352444397
 10
7.930958428700252
 20
3.700005966069004
 10
7.930427083103944
 20
3.700271638867149
 10
7.929849956713392
 20
3.700482158424986
 10
7.929227410007284
 20
3.700656269634619
 10
7.928549349582148
 20
3.700784600050016
 10
7.929666833536377
 20
3.701040900402097
 10
7.930152398338422
 20
3.701224023579114
 10
7.93060119431359
 20
3.70143490361564
 10
7.931388840261971
 20
3.701938492352425
 10
7.932011747446785
 20
3.702579783950678
 10
7.932488300281454
 20
3.703340033518247
 10
7.932671423458474
 20
3.703770445079974
 10
7.932817777808615
 20
3.704228613501202
 10
7.933010273431698
 20
3.705236151453486
 10
7.93307443863939
 20
3.706372019821156
 10
7.933028657845135
 20
3.707003938973336
 10
7.932845534668123
 20
3.707846738162041
 10
7.932689807871914
 20
3.70831391855065
 10
7.932469915868014
 20
3.708808495320072
 10
7.932194870623805
 20
3.709303072089486
 10
7.931847008683203
 20
3.70979764885891
 10
7.931416597121483
 20
3.710273841214888
 10
7.930903635938624
 20
3.710722637190056
 10
7.930299113167262
 20
3.711135024817033
 10
7.929593656361312
 20
3.711492259203691
 10
7.92877861403212
 20
3.71179434035003
 10
7.927853265222276
 20
3.712023604799995
 10
7.926808958443112
 20
3.712169959150122
 10
7.925627309281195
 20
3.712225112390445
 10
7.914983815335208
 20
3.712225112390445
 10
7.914983815335208
 20
3.687484378122523
 97
        0
 92
        3
 72
     0
 73
     1
 93
       56
 10
7.941858583477014
 20
3.687484378122523
 10
7.953033423019294
 20
3.687484378122523
 10
7.95529578730857
 20
3.687566927743657
 10
7.956331082120364
 20
3.687685885712983
 10
7.957301851245747
 20
3.687850984955249
 10
7.958199443196086
 20
3.688070516480451
 10
7.95903323041742
 20
3.688336189278605
 10
7.959793479984987
 20
3.688657015317074
 10
7.96048055237749
 20
3.689041646084546
 10
7.961094087116236
 20
3.689481430092337
 10
7.961625432712537
 20
3.689985018829133
 10
7.962083240655073
 20
3.690553133252315
 10
7.962458859455173
 20
3.691185052404498
 10
7.962751928634135
 20
3.691881136764372
 10
7.962962808670667
 20
3.692650398299316
 10
7.963100151053424
 20
3.693484185520644
 10
7.963136559401604
 20
3.694400161884421
 10
7.963109163020794
 20
3.695068849863481
 10
7.963017601432287
 20
3.695700769015666
 10
7.962871247082146
 20
3.696277895406214
 10
7.9626697394917
 20
3.696809241002518
 10
7.962422090628294
 20
3.69729444532587
 10
7.962129021449325
 20
3.697734229333659
 10
7.961790171476111
 20
3.6981282325472
 10
7.961414552676009
 20
3.698485466933862
 10
7.960993153081655
 20
3.698805932493633
 10
7.960544357106498
 20
3.699080617259164
 10
7.960059152783143
 20
3.699318893676496
 10
7.95954619160028
 20
3.699520401266955
 10
7.958456104026864
 20
3.699822842891981
 10
7.957283466832309
 20
3.699987581655563
 10
7.957283466832309
 20
3.700253254453712
 10
7.958419335199983
 20
3.700592104426929
 10
7.959426873152266
 20
3.701013504021277
 10
7.96028805675441
 20
3.70152646520414
 10
7.961011537495092
 20
3.702149372388951
 10
7.961579651918278
 20
3.702881865097015
 10
7.961808555889548
 20
3.703284880277923
 10
7.962001051512631
 20
3.703734036731783
 10
7.96225735186472
 20
3.70471381782456
 10
7.962339901485852
 20
3.705840674224854
 10
7.962303132658978
 20
3.706655716554051
 10
7.962184174689651
 20
3.707406954154247
 10
7.961991679066568
 20
3.708103038514126
 10
7.961726006268416
 20
3.708744330112373
 10
7.961396528741266
 20
3.709321456502927
 10
7.960993153081655
 20
3.709843429653159
 10
7.960535345139117
 20
3.710310610041761
 10
7.960013371988892
 20
3.710722637190056
 10
7.959436245598329
 20
3.711089244022782
 10
7.958804326446153
 20
3.711400697615185
 10
7.958126266021017
 20
3.711656997967266
 10
7.957402785280335
 20
3.71185850555772
 10
7.955827132904874
 20
3.71213355080194
 10
7.954096114211895
 20
3.712225112390445
 10
7.941858583477014
 20
3.712225112390445
 97
        0
 92
        3
 72
     0
 73
     1
 93
       58
 10
7.96739597566069
 20
3.695993838194632
 10
7.967460140868386
 20
3.694793804619259
 10
7.967643264045405
 20
3.693685693111102
 10
7.967945705670432
 20
3.692668782712754
 10
7.968348720851352
 20
3.691734421935545
 10
7.968843297620767
 20
3.690882610779465
 10
7.969420424011322
 20
3.690122361211894
 10
7.970070727576947
 20
3.689444661265454
 10
7.970785196350259
 20
3.688840138494093
 10
7.971563830331271
 20
3.688318165343853
 10
7.972388245106534
 20
3.687878381336062
 10
7.973240056262604
 20
3.68750276253596
 10
7.974128275766875
 20
3.687200681389633
 10
7.975035240163282
 20
3.686971416939667
 10
7.975951216527054
 20
3.686806678176088
 10
7.976867192890824
 20
3.686715116587582
 10
7.977774157287223
 20
3.6866783477607
 10
7.978680761204925
 20
3.686715116587582
 10
7.9795967375687
 20
3.686806678176088
 10
7.98051271393247
 20
3.686971416939667
 10
7.981410305882801
 20
3.687200681389633
 10
7.98229888586576
 20
3.68750276253596
 10
7.983160069467912
 20
3.687878381336062
 10
7.983984484243182
 20
3.688318165343853
 10
7.984753745778112
 20
3.688840138494093
 10
7.985477226518809
 20
3.689444661265454
 10
7.986127890563127
 20
3.690122361211894
 10
7.986704656474981
 20
3.690882610779465
 10
7.987199593723094
 20
3.691734421935545
 10
7.987602608904011
 20
3.692668782712754
 10
7.987904690050351
 20
3.693685693111102
 10
7.988087813227362
 20
3.694793804619259
 10
7.988151978435054
 20
3.695993838194632
 10
7.988151978435054
 20
3.712225112390445
 10
7.982033213067615
 20
3.712225112390445
 10
7.982033213067615
 20
3.696525183790929
 10
7.981978420305984
 20
3.695554054186838
 10
7.981813321063718
 20
3.694656462236499
 10
7.981529624330812
 20
3.693841419907301
 10
7.981098852290399
 20
3.693135963101355
 10
7.980522086378537
 20
3.692549824743435
 10
7.980173863959249
 20
3.692311548326099
 10
7.979789233191788
 20
3.692110040735641
 10
7.979349449183993
 20
3.691954313939439
 10
7.978873256828008
 20
3.691835355970115
 10
7.977774157287223
 20
3.691734421935545
 10
7.97667469726774
 20
3.691835355970115
 10
7.976198504911755
 20
3.691954313939439
 10
7.975758720903968
 20
3.692110040735641
 10
7.975374090136492
 20
3.692311548326099
 10
7.975026228195897
 20
3.692549824743435
 10
7.97444910180535
 20
3.693135963101355
 10
7.97401869024363
 20
3.693841419907301
 10
7.97373463303203
 20
3.694656462236499
 10
7.973569533789772
 20
3.695554054186838
 10
7.97351474102814
 20
3.696525183790929
 10
7.97351474102814
 20
3.712225112390445
 10
7.96739597566069
 20
3.712225112390445
 97
        0
 92
        3
 72
     0
 73
     1
 93
      105
 10
7.998530160061587
 20
3.699721908857415
 10
7.998557556442401
 20
3.700729446809692
 10
7.998649118030899
 20
3.7016638075869
 10
7.998795832859732
 20
3.702534003156417
 10
7.998997340450188
 20
3.703321649104806
 10
7.999244628834903
 20
3.70404549032419
 10
7.999546709981242
 20
3.704695793889807
 10
7.999894932400527
 20
3.705281932247735
 10
8.000288575135373
 20
3.705803905397976
 10
8.000719347175798
 20
3.706262073819207
 10
8.001186527564395
 20
3.706646704586681
 10
8.001690116301184
 20
3.706976542592527
 10
8.002230473864861
 20
3.707242215390675
 10
8.002798588288043
 20
3.707443722981134
 10
8.003393738613353
 20
3.707590077331262
 10
8.004007633830778
 20
3.707672626952399
 10
8.004648925429025
 20
3.707700023333217
 10
8.005445583344784
 20
3.707626846158142
 10
8.0062242173258
 20
3.707415966121616
 10
8.006966082479918
 20
3.707086488594472
 10
8.00767153928587
 20
3.706637692619306
 10
8.008312830884112
 20
3.706087962609565
 10
8.008871572861235
 20
3.705456043457378
 10
8.009338392771138
 20
3.704750586651442
 10
8.009704999603867
 20
3.70397195267043
 10
8.014752061811347
 20
3.706372019821156
 10
8.013817701034128
 20
3.707791584921724
 10
8.012800790635776
 20
3.70905578370478
 10
8.011683306681553
 20
3.710145871278195
 10
8.011088156356251
 20
3.710622063634175
 10
8.01046524917144
 20
3.711061847641964
 10
8.009814945605818
 20
3.711446478409436
 10
8.009136885180684
 20
3.711785328382657
 10
8.008422416407365
 20
3.71207839756162
 10
8.00768055125325
 20
3.712316673978957
 10
8.006911289718294
 20
3.712508809123343
 10
8.006105259356469
 20
3.712646511984804
 10
8.005262460167776
 20
3.712728701127246
 10
8.00438325263088
 20
3.712756097508052
 10
8.002972699497686
 20
3.712682920332985
 10
8.001653347474303
 20
3.712481412742531
 10
8.000407893583388
 20
3.712142562769315
 10
7.999253640802277
 20
3.711693766794151
 10
7.998181937642306
 20
3.711125652370965
 10
7.997201796070834
 20
3.710457324870597
 10
7.996304204120499
 20
3.709687702856963
 10
7.995498173758668
 20
3.708835891700883
 10
7.994783704985353
 20
3.707892518956292
 10
7.99416079780055
 20
3.706884981004014
 10
7.993629452204249
 20
3.705803905397976
 10
7.993190028675156
 20
3.704677409476369
 10
7.992850818223241
 20
3.703486748347073
 10
7.992603529838526
 20
3.702268330358273
 10
7.992457175488392
 20
3.701004131575215
 10
7.992402022248069
 20
3.699721908857415
 10
7.992457175488392
 20
3.698430313693541
 10
7.992612902284594
 20
3.697175487356546
 10
7.99287857508275
 20
3.695948057400372
 10
7.993235809469407
 20
3.694766408238449
 10
7.993702989858009
 20
3.693630539870779
 10
7.994261731835135
 20
3.692549824743435
 10
7.994912035400755
 20
3.691542286791155
 10
7.995662912522251
 20
3.690607926013936
 10
7.996514723678328
 20
3.689747102890493
 10
7.997449084455542
 20
3.688986492844222
 10
7.998475006821261
 20
3.688308792897786
 10
7.99959249077549
 20
3.687750050920675
 10
8.000792524350855
 20
3.687292242978136
 10
8.002084119514727
 20
3.68696240497229
 10
8.003457903821033
 20
3.686751524935767
 10
8.004914237748487
 20
3.6866783477607
 10
8.005656463381309
 20
3.686705744141511
 10
8.00638895608937
 20
3.686788293762647
 10
8.007836278049444
 20
3.687118131768493
 10
8.008532362409323
 20
3.687356047707135
 10
8.009219434801825
 20
3.687649477364797
 10
8.009888122780879
 20
3.687988327338013
 10
8.010529414379134
 20
3.688381970072855
 10
8.011756844335316
 20
3.68928893446925
 10
8.012883340256915
 20
3.690388034010041
 10
8.013881866241825
 20
3.691642860347032
 10
8.014339674184358
 20
3.692339305185604
 10
8.014752061811347
 20
3.693071797893668
 10
8.00997067240202
 20
3.695462492598324
 10
8.009512503980794
 20
3.69462906585569
 10
8.008953762003676
 20
3.69391459708237
 10
8.008321842851498
 20
3.693319086278374
 10
8.007634770458983
 20
3.692833881955028
 10
8.006929674131738
 20
3.692467275122302
 10
8.0062242173258
 20
3.692210974770218
 10
8.005546517379358
 20
3.692055247974015
 10
8.004914237748487
 20
3.69200009473369
 10
8.004007633830778
 20
3.692055247974015
 10
8.003183219055515
 20
3.692192590356774
 10
8.002441353901382
 20
3.692421494328046
 10
8.001781677889698
 20
3.692723935953074
 10
8.001186527564395
 20
3.693099554753173
 10
8.000673566381531
 20
3.6935299663149
 10
8.0002153979603
 20
3.694024543084323
 10
7.99982139474676
 20
3.694564900647993
 10
7.999491917219614
 20
3.69514202703855
 10
7.999216871975395
 20
3.695755561777291
 10
7.998987968004124
 20
3.69639685337554
 10
7.998813856794478
 20
3.697056529387226
 10
7.998594325269279
 20
3.698393905345349
 97
        0
 92
        3
 72
     0
 73
     1
 93
       12
 10
8.018214459675972
 20
3.687484378122523
 10
8.024333225043415
 20
3.687484378122523
 10
8.024333225043415
 20
3.697853187302988
 10
8.033648715477343
 20
3.697853187302988
 10
8.033648715477343
 20
3.687484378122523
 10
8.039767120366088
 20
3.687484378122523
 10
8.039767120366088
 20
3.712225112390445
 10
8.033648715477343
 20
3.712225112390445
 10
8.033648715477343
 20
3.703175294754672
 10
8.024333225043415
 20
3.703175294754672
 10
8.024333225043415
 20
3.712225112390445
 10
8.018214459675972
 20
3.712225112390445
 97
        0
 92
        3
 72
     0
 73
     1
 93
        8
 10
8.05573272176377
 20
3.707434350535061
 10
8.062117159929354
 20
3.707434350535061
 10
8.062117159929354
 20
3.712225112390445
 10
8.042954833465204
 20
3.712225112390445
 10
8.042954833465204
 20
3.707434350535061
 10
8.04961395639632
 20
3.707434350535061
 10
8.04961395639632
 20
3.687484378122523
 10
8.05573272176377
 20
3.687484378122523
 97
        0
 92
        3
 72
     0
 73
     1
 93
        8
 10
8.06024843837493
 20
3.687484378122523
 10
8.06690756130605
 20
3.687484378122523
 10
8.068235925296792
 20
3.69120343681793
 10
8.077276370486507
 20
3.69120343681793
 10
8.07861374644463
 20
3.687484378122523
 10
8.085263857408373
 20
3.687484378122523
 10
8.075948366974457
 20
3.712225112390445
 10
8.069563928808861
 20
3.712225112390445
 97
        0
 92
        3
 72
     0
 73
     1
 93
        6
 10
8.087920224911185
 20
3.687484378122523
 10
8.103885465830166
 20
3.687484378122523
 10
8.103885465830166
 20
3.692531440329989
 10
8.094304663076784
 20
3.692531440329989
 10
8.094304663076784
 20
3.712225112390445
 10
8.087920224911185
 20
3.712225112390445
 97
        0
 92
       18
 72
     0
 73
     1
 93
        3
 10
7.835971932112138
 20
3.709028387323959
 10
7.840497021169363
 20
3.696790856589081
 10
7.831181530735439
 20
3.696790856589081
 97
        0
 92
       18
 72
     0
 73
     1
 93
       29
 10
7.880937323558124
 20
3.709825045239723
 10
7.882412041899004
 20
3.709751868064654
 10
7.883648483822553
 20
3.709531976060762
 10
7.884179829418853
 20
3.709367237297183
 10
7.884656382253529
 20
3.709165729706731
 10
7.885086793815256
 20
3.70893646525676
 10
7.885462412615355
 20
3.708661780491237
 10
7.885782878175132
 20
3.708359699344908
 10
7.88605756294065
 20
3.708020488892986
 10
7.886286827390618
 20
3.707654242538958
 10
7.886469950567633
 20
3.70725122735805
 10
7.886707866506281
 20
3.706344262961649
 10
7.886790416127407
 20
3.705309328628555
 10
7.886726250919722
 20
3.704411736678221
 10
7.886506358915821
 20
3.703550553076075
 10
7.886332608184873
 20
3.703138525927788
 10
7.886112716180979
 20
3.702735510746881
 10
7.885847043382827
 20
3.702359891946779
 10
7.885526577823047
 20
3.70201166952749
 10
7.885150959022959
 20
3.701691203967719
 10
7.884711175015154
 20
3.701398134788755
 10
7.884207225799663
 20
3.701141834436674
 10
7.883648483822553
 20
3.70093095440015
 10
7.88301656467037
 20
3.700756843190504
 10
7.882311468343124
 20
3.700628873253811
 10
7.881523461916045
 20
3.700546323632674
 10
7.880671650759965
 20
3.700518927251856
 10
7.873215509434402
 20
3.700518927251856
 10
7.873215509434402
 20
3.709825045239723
 97
        0
 92
       18
 72
     0
 73
     1
 93
       64
 10
7.892936577875667
 20
3.700674654048065
 10
7.893037511910247
 20
3.701636411206089
 10
7.893193238706449
 20
3.702607180331494
 10
7.893413130710343
 20
3.703559925522146
 10
7.893706199889309
 20
3.70448491385329
 10
7.894063434275971
 20
3.70539187824969
 10
7.894484473391623
 20
3.706252701373143
 10
7.894970038193665
 20
3.707068104181033
 10
7.895528780170783
 20
3.707818981302527
 10
7.896161059801664
 20
3.708506053695033
 10
7.896857144161532
 20
3.709119948912468
 10
7.897626405696476
 20
3.709632910095328
 10
7.898459832439117
 20
3.710053949210987
 10
7.899375808802889
 20
3.710365402803393
 10
7.900355589895656
 20
3.710557898426476
 10
7.901408908642196
 20
3.710631075601545
 10
7.902471599834794
 20
3.710557898426476
 10
7.903451741406262
 20
3.710365402803393
 10
7.90434933335659
 20
3.710053949210987
 10
7.905173748131861
 20
3.709632910095328
 10
7.905915613285988
 20
3.709119948912468
 10
7.906593673711116
 20
3.708506053695033
 10
7.907198196482489
 20
3.707818981302527
 10
7.907729181600099
 20
3.707068104181033
 10
7.908196361988697
 20
3.706252701373143
 10
7.908590365202237
 20
3.70539187824969
 10
7.908929215175454
 20
3.70448491385329
 10
7.909194887973613
 20
3.703559925522146
 10
7.909405407531436
 20
3.702607180331494
 10
7.909543110392891
 20
3.701636411206089
 10
7.9096346719814
 20
3.700674654048065
 10
7.909662068362215
 20
3.699721908857415
 10
7.9096346719814
 20
3.698760151699384
 10
7.909543110392891
 20
3.697798394541358
 10
7.909405407531436
 20
3.696836637383325
 10
7.909194887973613
 20
3.695883892192682
 10
7.908929215175454
 20
3.69494953141547
 10
7.908590365202237
 20
3.694042927497764
 10
7.908196361988697
 20
3.693181743895615
 10
7.907729181600099
 20
3.692366701566414
 10
7.907198196482489
 20
3.691615463966218
 10
7.906593673711116
 20
3.69092839157372
 10
7.905915613285988
 20
3.69032386880235
 10
7.905173748131861
 20
3.689801895652112
 10
7.90434933335659
 20
3.689380496057764
 10
7.903451741406262
 20
3.689069042465359
 10
7.902471599834794
 20
3.688876907320968
 10
7.901408908642196
 20
3.688812742113276
 10
7.900355589895656
 20
3.688876907320968
 10
7.899375808802889
 20
3.689069042465359
 10
7.898459832439117
 20
3.689380496057764
 10
7.897626405696476
 20
3.689801895652112
 10
7.896857144161532
 20
3.69032386880235
 10
7.896161059801664
 20
3.69092839157372
 10
7.895528780170783
 20
3.691615463966218
 10
7.894970038193665
 20
3.692366701566414
 10
7.894484473391623
 20
3.693181743895615
 10
7.894063434275971
 20
3.694042927497764
 10
7.893706199889309
 20
3.69494953141547
 10
7.893413130710343
 20
3.695883892192682
 10
7.893193238706449
 20
3.696836637383325
 10
7.893037511910247
 20
3.697798394541358
 10
7.892936577875667
 20
3.698760151699384
 10
7.892909181494856
 20
3.699721908857415
 97
        0
 92
       18
 72
     0
 73
     1
 93
       26
 10
7.925096324163578
 20
3.709825045239723
 10
7.926405943262202
 20
3.709788636891533
 10
7.927532799662496
 20
3.709650934030075
 10
7.928494556820531
 20
3.709413018091438
 10
7.928915956414884
 20
3.709238906881792
 10
7.929282202768908
 20
3.709028387323959
 10
7.929612040774756
 20
3.708790110906623
 10
7.929896097986338
 20
3.708506053695033
 10
7.930134013924985
 20
3.708176215689191
 10
7.930326509548065
 20
3.707809969335162
 10
7.93048223634427
 20
3.707388569740813
 10
7.930592182346228
 20
3.706930761798271
 10
7.930683743934734
 20
3.705840674224854
 10
7.930582809900149
 20
3.704887929034201
 10
7.930463851930833
 20
3.704457517472476
 10
7.930289740721183
 20
3.704054502291569
 10
7.930079221163357
 20
3.703669871524095
 10
7.929822560332578
 20
3.703321649104806
 10
7.929181629213029
 20
3.702708114366058
 10
7.928384610818569
 20
3.702222549564014
 10
7.927917430429972
 20
3.702030053940931
 10
7.927422853660541
 20
3.701874327144731
 10
7.92632375411976
 20
3.701654795619526
 10
7.925096324163578
 20
3.701581257965767
 10
7.91737451003986
 20
3.701581257965767
 10
7.91737451003986
 20
3.709825045239723
 97
        0
 92
       18
 72
     0
 73
     1
 93
       28
 10
7.925096324163578
 20
3.699456236059255
 10
7.926589426917916
 20
3.699355662503376
 10
7.927890034049158
 20
3.699071605291787
 10
7.928457787993638
 20
3.698860725255263
 10
7.928980121622573
 20
3.698613436870553
 10
7.929456313978554
 20
3.698320367691593
 10
7.929877713572901
 20
3.697990890164441
 10
7.930253332372996
 20
3.697624283331714
 10
7.930582809900149
 20
3.697221268150801
 10
7.930857855144369
 20
3.696781484143004
 10
7.931077386669572
 20
3.696314303754405
 10
7.931251497879218
 20
3.695810715017609
 10
7.931379828294606
 20
3.695279369421312
 10
7.931480401850478
 20
3.694134489086266
 10
7.931398212708046
 20
3.693328458724442
 10
7.931169308736776
 20
3.692531440329989
 10
7.930765933077161
 20
3.691762178795047
 10
7.930179794719241
 20
3.691075106402548
 10
7.929822560332578
 20
3.690763652810141
 10
7.929410533184299
 20
3.690479595598552
 10
7.928952364763068
 20
3.690232307213839
 10
7.928448776026272
 20
3.690012415209945
 10
7.927890034049158
 20
3.68984767644637
 10
7.927276138831727
 20
3.689719346030985
 10
7.926607450852655
 20
3.689637156888546
 10
7.925892982079339
 20
3.689609400029031
 10
7.91737451003986
 20
3.689609400029031
 10
7.91737451003986
 20
3.699456236059255
 97
        0
 92
       18
 72
     0
 73
     1
 93
       19
 10
7.953033423019294
 20
3.707434350535061
 10
7.953702110998359
 20
3.707406954154247
 10
7.954316006215796
 20
3.707324404533114
 10
7.95485636377947
 20
3.70716867773691
 10
7.955323544168075
 20
3.706939773765646
 10
7.955699162968177
 20
3.706619308205866
 10
7.955982859701075
 20
3.706197908611512
 10
7.956156970910718
 20
3.705675574982581
 10
7.95622113611841
 20
3.705043655830403
 10
7.956156970910718
 20
3.704393352264784
 10
7.955982859701075
 20
3.703834610287666
 10
7.955699162968177
 20
3.703376802345127
 10
7.955323544168075
 20
3.703010195512399
 10
7.95485636377947
 20
3.702726138300814
 10
7.954316006215796
 20
3.702534003156417
 10
7.953702110998359
 20
3.702415045187099
 10
7.953033423019294
 20
3.70237827636022
 10
7.947711676046311
 20
3.70237827636022
 10
7.947711676046311
 20
3.707434350535061
 97
        0
 92
       18
 72
     0
 73
     1
 93
       19
 10
7.954096114211895
 20
3.697853187302988
 10
7.954828967398655
 20
3.697807406508731
 10
7.955451514104761
 20
3.697661052158594
 10
7.955955463320254
 20
3.697422775741261
 10
7.956358478501167
 20
3.69709293773542
 10
7.95665154768013
 20
3.696671538141061
 10
7.956862427716661
 20
3.696176961371644
 10
7.95698138568597
 20
3.695590823013712
 10
7.957018154512856
 20
3.694931507480717
 10
7.95698138568597
 20
3.694345008644101
 10
7.956844043303213
 20
3.693795639113048
 10
7.956596754918509
 20
3.693301062343629
 10
7.95622113611841
 20
3.69287029030321
 10
7.955699162968177
 20
3.692504043949179
 10
7.955002718129611
 20
3.692238371151026
 10
7.95411449862534
 20
3.692064259941388
 10
7.953033423019294
 20
3.69200009473369
 10
7.94797734884446
 20
3.69200009473369
 10
7.94797734884446
 20
3.697853187302988
 97
        0
 92
       18
 72
     0
 73
     1
 93
        3
 10
8.07276065387534
 20
3.706106347023006
 10
8.075682694176301
 20
3.695728165396476
 10
8.069563928808861
 20
3.695728165396476
 97
        0
 75
     0
 76
     1
 98
        0
  0
HATCH
  5
78
102
{ACAD_REACTORS
330
77
102
}
330
1F
100
AcDbEntity
  8
STANDARD
  6
AUSGEZOGEN
 62
    92
420
    55552
440
 33554687
370
    35
100
AcDbHatch
 10
0.0
 20
0.0
 30
0.0
210
0.0
220
0.0
230
1.0
  2
SOLID
 70
     1
 71
     0
 91
        1
 92
        3
 72
     0
 73
     1
 93
       22
 10
7.796062975319686
 20
3.687209693356999
 10
7.811231558322904
 20
3.687209693356999
 10
7.8099493356051
 20
3.688052492545709
 10
7.808703521235487
 20
3.688968468909477
 10
7.807503487660114
 20
3.689976006861756
 10
7.80636761929244
 20
3.691075106402548
 10
7.805314300545922
 20
3.692265767531842
 10
7.804343531420518
 20
3.693575747109155
 10
7.803473335851003
 20
3.694995312209719
 10
7.802713086283428
 20
3.696525183790929
 10
7.802245905894823
 20
3.697523709775831
 10
7.80184289071391
 20
3.69853124772811
 10
7.801494668294615
 20
3.699538785680395
 10
7.801201599115664
 20
3.700546323632674
 10
7.800798583934751
 20
3.702570771983299
 10
7.800615460757724
 20
3.704576475441796
 10
7.800651869105922
 20
3.706555142998172
 10
7.800881133555883
 20
3.708497041727667
 10
7.801302533150237
 20
3.710393159662903
 10
7.801586229883139
 20
3.71131814799405
 10
7.801916067888976
 20
3.712225112390445
 10
7.796062975319686
 20
3.712225112390445
 97
        0
 75
     0
 76
     1
 98
        0
  0
HATCH
  5
79
102
{ACAD_REACTORS
330
77
102
}
330
1F
100
AcDbEntity
  8
STANDARD
  6
AUSGEZOGEN
 62
    92
420
    55552
440
 33554687
370
    35
100
AcDbHatch
 10
0.0
 20
0.0
 30
0.0
210
0.0
220
0.0
230
1.0
  2
SOLID
 70
     1
 71
     0
 91
        1
 92
        3
 72
     0
 73
     1
 93
       24
 10
7.80863034406041
 20
3.69092839157372
 10
7.809839389603145
 20
3.689810907619491
 10
7.811167393115208
 20
3.688803369667208
 10
7.812605342629218
 20
3.687942546543762
 10
7.814153598623868
 20
3.687209693356999
 10
7.821069021907072
 20
3.687209693356999
 10
7.821069021907072
 20
3.712225112390445
 10
7.807503487660114
 20
3.712225112390445
 10
7.806944745683003
 20
3.711583820792197
 10
7.806468553327028
 20
3.710860340051508
 10
7.805644138551762
 20
3.709293699643422
 10
7.805268519751666
 20
3.708497041727667
 10
7.804938681745819
 20
3.707681638919769
 10
7.804663996980301
 20
3.706866596590573
 10
7.804435093009023
 20
3.706042181815314
 10
7.804114266970549
 20
3.704393352264784
 10
7.803976924587788
 20
3.702744522714253
 10
7.804013693414674
 20
3.701095693163716
 10
7.804215201005126
 20
3.699483632440075
 10
7.804581447359161
 20
3.697898968097237
 10
7.805103780988085
 20
3.696360445027354
 10
7.805781480934527
 20
3.694885726686464
 10
7.806596883742412
 20
3.693474813074576
 10
7.807549268454369
 20
3.692155821529894
 97
        0
 75
     0
 76
     1
 98
        0
  0
MTEXT
  5
7A
330
1F
100
AcDbEntity
  8
STANDARD
  6
AUSGEZOGEN
 62
     7
440
 33554687
370
    18
100
AcDbMText
 10
7.70267854239667
 20
4.970458751617366
 30
0.0
 40
0.025
 41
0.4054427016917466
 46
0.0
 71
     7
 72
     5
  1
\W1.00;BAUKERAMIKFASSADE
  7
ARIAL
 73
     1
 44
1.0
  0
MTEXT
  5
7B
330
1F
100
AcDbEntity
  8
STANDARD
  6
AUSGEZOGEN
 62
     7
440
 33554687
370
    18
100
AcDbMText
 10
7.701611154393134
 20
4.912892228032975
 30
0.0
 40
0.0175
 41
0.4345982216367525
 46
0.0
 71
     7
 72
     5
  1
\W1.00;FACADE CERAMIQUE DE BATIMENT
  7
ARIAL
 73
     1
 44
1.0
  0
MTEXT
  5
7C
330
1F
100
AcDbEntity
  8
STANDARD
  6
AUSGEZOGEN
 62
     7
440
 33554687
370
    18
100
AcDbMText
 10
7.701611154393134
 20
4.939142228032975
 30
0.0
 40
0.0175
 41
0.4570706825421696
 46
0.0
 71
     7
 72
     5
  1
\W1.00;ARCHITECTURAL CERAMICS FACADE
  7
ARIAL
 73
     1
 44
1.0
  0
MTEXT
  5
7D
330
1F
100
AcDbEntity
  8
STANDARD
  6
AUSGEZOGEN
 62
     7
440
 33554687
370
    18
100
AcDbMText
 10
7.700783120118614
 20
4.852543865795912
 30
0.0
 40
0.025
 41
0.5529402267952049
 46
0.0
 71
     7
 72
     5
  1
\W1.00;SOCKEL MIT WÄRMEDÄMMUNG
  7
ARIAL
 73
     1
 44
1.0
  0
MTEXT
  5
7E
330
1F
100
AcDbEntity
  8
STANDARD
  6
AUSGEZOGEN
 62
     7
440
 33554687
370
    18
100
AcDbMText
 10
7.700783120118614
 20
4.823889499212783
 30
0.0
 40
0.0175
 41
0.4427651977218565
 46
0.0
 71
     7
 72
     5
  1
\W1.00;PLINTH WITH THERMAL INSULATION
  7
ARIAL
 73
     1
 44
1.0
  0
MTEXT
  5
7F
330
1F
100
AcDbEntity
  8
STANDARD
  6
AUSGEZOGEN
 62
     7
440
 33554687
370
    18
100
AcDbMText
 10
7.700233098271975
 20
3.805490130492642
 30
0.0
 40
0.0175
 41
0.7438021843788182
 46
0.0
 71
     7
 72
     5
  1
\W1.01;Die Verlegevorschriften des Klebemittelherstellers sind einzuhalten!
  7
ARIAL
 73
     1
 44
1.0
  0
MTEXT
  5
80
330
1F
100
AcDbEntity
  8
STANDARD
  6
AUSGEZOGEN
 62
     7
440
 33554687
370
    18
100
AcDbMText
 10
7.700233098271975
 20
3.776101850712818
 30
0.0
 40
0.0175
 41
0.7662508570522044
 46
0.0
 71
     7
 72
     5
  1
\W1.00;The laying instructions of the adhesive producer have to be observed!
  7
ARIAL
 73
     1
 44
1.0
  0
MTEXT
  5
81
330
1F
100
AcDbEntity
  8
STANDARD
  6
AUSGEZOGEN
 62
     7
440
 33554687
370
    18
100
AcDbMText
 10
7.700233098271975
 20
3.746713570932995
 30
0.0
 40
0.0175
 41
0.832460511331282
 46
0.0
 71
     7
 72
     5
  1
\W1.01;Les instructions de pose du fabricant de l'adzhésive doivent être observées!
  7
ARIAL
 73
     1
 44
1.0
  0
MTEXT
  5
82
330
1F
100
AcDbEntity
  8
STANDARD
  6
AUSGEZOGEN
 62
     7
440
 33554687
370
    18
100
AcDbMText
 10
7.700783120118614
 20
4.797639499212782
 30
0.0
 40
0.0175
 41
0.4561775177860456
 46
0.0
 71
     7
 72
     5
  1
\W1.00;SOCLE AVEC ISOLATION THERMIQUE
  7
ARIAL
 73
     1
 44
1.0
  0
LINE
  5
83
330
1F
100
AcDbEntity
  8
STANDARD
  6
AUSGEZOGEN
 62
   240
440
 33554687
370
    70
100
AcDbLine
 10
7.582617082382765
 20
3.563845277298853
 30
0.0
 11
8.632617082592766
 21
3.563845277298853
 31
0.0
  0
MTEXT
  5
84
330
1F
100
AcDbEntity
  8
STANDARD
  6
AUSGEZOGEN
 62
     7
440
 33554687
370
    18
100
AcDbMText
 10
7.700425276173553
 20
3.631223659761783
 30
0.0
 40
0.009
 41
0.8964604604692502
 46
0.0
 71
     7
 72
     5
  1
\W0.85;THESE ARE NOT BINDING CONSTRUCTION PROPOSALS WHICH HAVE TO BE VERIFIED FOR EACH INDIVIDUAL PROJECT AS REGARDS APPLICABILITY AND CORRECTNESS.
  7
ARIAL
 73
     1
 44
1.0
  0
MTEXT
  5
85
330
1F
100
AcDbEntity
  8
STANDARD
  6
AUSGEZOGEN
 62
     7
440
 33554687
370
    18
100
AcDbMText
 10
7.700425276173553
 20
3.649223479765381
 30
0.0
 40
0.009
 41
0.8975001858667634
 46
0.0
 71
     7
 72
     5
  1
\W0.91;DIES SIND UNVERBINDLICHE KONSTRUKTIONSVORSCHLÄGE, DIE FÜR JEDES PROJEKT AUF ANWENDBARKEIT UND RICHTIGKEIT GEPRÜFT WERDEN MÜSSEN.
  7
ARIAL
 73
     1
 44
1.0
  0
MTEXT
  5
86
330
1F
100
AcDbEntity
  8
STANDARD
  6
AUSGEZOGEN
 62
     7
440
 33554687
370
    18
100
AcDbMText
 10
7.700425276173553
 20
3.613223839758184
 30
0.0
 40
0.009
 41
0.8958042950981262
 46
0.0
 71
     7
 72
     5
  1
\W0.80;IL S' AGIT DE PROPOSITIONS DE CONSTRUCTION SANS ENGAGEMENT DE NOTRE PART QUI DOIVENT ETRE VERIFIEES POUR CHAQUE PROJET A LEUR EXACTITUDE ET FAISABILITE.
  7
ARIAL
 73
     1
 44
1.0
  0
MTEXT
  5
87
330
1F
100
AcDbEntity
  8
STANDARD
  6
AUSGEZOGEN
 62
     7
440
 33554687
370
    18
100
AcDbMText
 10
8.115085766040135
 20
3.687152319144807
 30
0.0
 40
0.009
 41
0.3484361332019896
 46
0.0
 71
     7
 72
     5
  1
\W0.92;Tel. 09435 / 391 3238   e-mail: as.fassade@deutsche-steinzeug.de
  7
ARIAL
 73
     1
 44
1.0
  0
LINE
  5
88
330
1F
100
AcDbEntity
  8
STANDARD
  6
AUSGEZOGEN
 62
    52
440
 33554687
370
    70
100
AcDbLine
 10
7.582617082382765
 20
5.048830427298854
 30
0.0
 11
7.582617082382765
 21
3.563845277298853
 31
0.0
  0
LINE
  5
89
330
1F
100
AcDbEntity
  8
STANDARD
  6
AUSGEZOGEN
 62
    52
440
 33554687
370
    70
100
AcDbLine
 10
8.632606582382765
 20
3.563845277298853
 30
0.0
 11
8.632606582382765
 21
5.048830427298854
 31
0.0
  0
LINE
  5
8A
330
1F
100
AcDbEntity
  8
STANDARD
  6
AUSGEZOGEN
 62
    52
440
 33554687
370
    70
100
AcDbLine
 10
8.632606582382765
 20
5.048830427298854
 30
0.0
 11
7.582617082382765
 21
5.048830427298854
 31
0.0
  0
LINE
  5
8B
330
1F
100
AcDbEntity
  8
STANDARD
  6
AUSGEZOGEN
 62
    52
440
 33554687
370
    70
100
AcDbLine
 10
7.582617082382764
 20
5.048830427298854
 30
0.0
 11
8.632617081332764
 21
5.048830427298854
 31
0.0
  0
MTEXT
  5
8C
330
1F
100
AcDbEntity
  8
STANDARD
  6
AUSGEZOGEN
 62
     7
440
 33554687
370
    18
100
AcDbMText
 10
8.114634345765205
 20
3.703394321161674
 30
0.0
 40
0.009
 41
0.4180588312254691
 46
0.0
 71
     7
 72
     5
  1
\W1.00;AGROB BUCHTAL GmbH   Architektenservice   D - 92521 Schwarzenfeld
  7
ARIAL
 73
     1
 44
1.0
  0
LWPOLYLINE
  5
8D
330
1F
100
AcDbEntity
  8
STANDARD
  6
AUSGEZOGEN
 62
    56
440
 33554687
370
    18
100
AcDbPolyline
 90
        2
 70
     1
 43
0.0
 10
7.973746770137606
 20
4.394015634729661
 10
7.973746770137606
 20
4.394015634729661
  0
HATCH
  5
8F
330
1F
100
AcDbEntity
  8
STANDARD
  6
AUSGEZOGEN
 62
     7
440
 33554687
370
    18
100
AcDbHatch
 10
0.0
 20
0.0
 30
0.0
210
0.0
220
0.0
230
1.0
  2
SCHRAFFUR_304
 70
     0
 71
     0
 91
        1
 92
        0
 93
      118
 72
     1
 10
7.917358602854552
 20
4.394093159107574
 11
7.917386997892648
 21
4.394089799693906
 72
     1
 10
7.917386997892649
 20
4.394089799693906
 11
7.917643864598566
 21
4.394067635222425
 72
     1
 10
7.917643864598565
 20
4.394067635222425
 11
7.917900985051326
 21
4.394060244634058
 72
     1
 10
7.917900985051327
 20
4.394060244634058
 11
7.91815810550409
 21
4.394067635222425
 72
     1
 10
7.91815810550409
 20
4.394067635222425
 11
7.918414972210007
 21
4.394089799693906
 72
     1
 10
7.918414972210007
 20
4.394089799693906
 11
7.918671331672654
 21
4.394126716174845
 72
     1
 10
7.918671331672653
 20
4.394126716174845
 11
7.918926930896188
 21
4.39417834823313
 72
     1
 10
7.918926930896188
 20
4.39417834823313
 11
7.919181517635039
 21
4.394244644914157
 72
     1
 10
7.91918151763504
 20
4.394244644914157
 11
7.919434840642832
 21
4.394325540791102
 72
     1
 10
7.919434840642831
 20
4.394325540791102
 11
7.919686649920337
 21
4.394420956029503
 72
     1
 10
7.919686649920338
 20
4.394420956029503
 11
7.919936696962207
 21
4.394530796466039
 72
     1
 10
7.919936696962206
 20
4.394530796466039
 11
7.920184735002191
 21
4.394654953701461
 72
     1
 10
7.920184735002191
 20
4.394654953701462
 11
7.920430519256695
 21
4.394793305207566
 72
     1
 10
7.920430519256695
 20
4.394793305207566
 11
7.920673807166335
 21
4.394945714448122
 72
     1
 10
7.920673807166335
 20
4.394945714448122
 11
7.920914358635313
 21
4.395112031013608
 72
     1
 10
7.920914358635313
 20
4.395112031013609
 11
7.921151936268372
 21
4.395292090769655
 72
     1
 10
7.921151936268372
 20
4.395292090769655
 11
7.921386305605073
 21
4.395485716019023
 72
     1
 10
7.921386305605073
 20
4.395485716019023
 11
7.921617235351174
 21
4.395692715676965
 72
     1
 10
7.921617235351174
 20
4.395692715676965
 11
7.921844497606898
 21
4.395912885459811
 72
     1
 10
7.921844497606899
 20
4.395912885459811
 11
7.922067868091838
 21
4.396146008086569
 72
     1
 10
7.922067868091838
 20
4.396146008086569
 11
7.922287126366288
 21
4.396391853493347
 72
     1
 10
7.922287126366287
 20
4.396391853493347
 11
7.922502056048806
 21
4.396650179060415
 72
     1
 10
7.922502056048807
 20
4.396650179060415
 11
7.922712445029744
 21
4.396920729851623
 72
     1
 10
7.922712445029743
 20
4.396920729851623
 11
7.922918085680577
 21
4.397203238866005
 72
     1
 10
7.922918085680577
 20
4.397203238866005
 11
7.923118775058811
 21
4.397497427301271
 72
     1
 10
7.923118775058811
 20
4.397497427301271
 11
7.923314315108261
 21
4.397803004828955
 72
     1
 10
7.923314315108261
 20
4.397803004828955
 11
7.923504512854501
 21
4.398119669880927
 72
     1
 10
7.923504512854501
 20
4.398119669880927
 11
7.923689180595321
 21
4.398447109947016
 72
     1
 10
7.923689180595322
 20
4.398447109947016
 11
7.923868136085961
 21
4.398785001883406
 72
     1
 10
7.923868136085961
 20
4.398785001883406
 11
7.924041202718948
 21
4.39913301223155
 72
     1
 10
7.924041202718949
 20
4.399133012231549
 11
7.924208209698418
 21
4.399490797547251
 72
     1
 10
7.924208209698418
 20
4.399490797547251
 11
7.92436899220864
 21
4.399858004739599
 72
     1
 10
7.92436899220864
 20
4.399858004739599
 11
7.92452339157669
 21
4.400234271419428
 72
     1
 10
7.92452339157669
 20
4.400234271419428
 11
7.924671255429032
 21
4.400619226256953
 72
     1
 10
7.924671255429032
 20
4.400619226256953
 11
7.924812437841896
 21
4.401012489348224
 72
     1
 10
7.924812437841896
 20
4.401012489348224
 11
7.924946799485286
 21
4.40141367259005
 72
     1
 10
7.924946799485286
 20
4.40141367259005
 11
7.925074207760479
 21
4.401822380063006
 72
     1
 10
7.925074207760479
 20
4.401822380063006
 11
7.925194536930895
 21
4.402238208422162
 72
     1
 10
7.925194536930895
 20
4.402238208422162
 11
7.925307668246166
 21
4.402660747295129
 72
     1
 10
7.925307668246165
 20
4.402660747295129
 11
7.925413490059341
 21
4.403089579687054
 72
     1
 10
7.925413490059342
 20
4.403089579687054
 11
7.925511897937073
 21
4.40352428239214
 72
     1
 10
7.925511897937072
 20
4.40352428239214
 11
7.925602794762659
 21
4.403964426411299
 72
     1
 10
7.925602794762659
 20
4.403964426411299
 11
7.925686090831914
 21
4.404409577375524
 72
     1
 10
7.925686090831914
 20
4.404409577375524
 11
7.925761703941669
 21
4.404859295974555
 72
     1
 10
7.925761703941669
 20
4.404859295974555
 11
7.925829559470916
 21
4.405313138390433
 72
     1
 10
7.925829559470916
 20
4.405313138390433
 11
7.925889590454439
 21
4.405770656735483
 72
     1
 10
7.925889590454439
 20
4.405770656735483
 11
7.925941737648905
 21
4.406231399494339
 72
     1
 10
7.925941737648905
 20
4.406231399494339
 11
7.925985949591332
 21
4.406694911969522
 72
     1
 10
7.925985949591332
 20
4.406694911969522
 11
7.926022182649864
 21
4.407160736730178
 72
     1
 10
7.926022182649864
 20
4.407160736730178
 11
7.92605040106685
 21
4.407628414063512
 72
     1
 10
7.92605040106685
 20
4.407628414063512
 11
7.926070576994121
 21
4.408097482428456
 72
     1
 10
7.926070576994122
 20
4.408097482428457
 11
7.926082690520473
 21
4.408567478911167
 72
     1
 10
7.926082690520472
 20
4.408567478911167
 11
7.926086729691312
 21
4.40903793968186
 72
     1
 10
7.926086729691313
 20
4.40903793968186
 11
7.926082690520473
 21
4.409508400452553
 72
     1
 10
7.926082690520472
 20
4.409508400452553
 11
7.926070576994121
 21
4.409978396935263
 72
     1
 10
7.926070576994122
 20
4.409978396935263
 11
7.926050401066851
 21
4.410447465300207
 72
     1
 10
7.92605040106685
 20
4.410447465300207
 11
7.926022182649864
 21
4.410915142633541
 72
     1
 10
7.926022182649864
 20
4.410915142633542
 11
7.925985949591332
 21
4.411380967394198
 72
     1
 10
7.925985949591332
 20
4.411380967394198
 11
7.925941737648905
 21
4.411844479869381
 72
     1
 10
7.925941737648905
 20
4.411844479869381
 11
7.925889590454439
 21
4.412305222628237
 72
     1
 10
7.925889590454439
 20
4.412305222628237
 11
7.925829559470916
 21
4.412762740973287
 72
     1
 10
7.925829559470916
 20
4.412762740973287
 11
7.925761703941669
 21
4.413216583389165
 72
     1
 10
7.925761703941669
 20
4.413216583389165
 11
7.925686090831914
 21
4.413666301988196
 72
     1
 10
7.925686090831914
 20
4.413666301988196
 11
7.925602794762659
 21
4.414111452952421
 72
     1
 10
7.925602794762659
 20
4.414111452952421
 11
7.925511897937072
 21
4.41455159697158
 72
     1
 10
7.925511897937072
 20
4.41455159697158
 11
7.925413490059341
 21
4.414986299676666
 72
     1
 10
7.925413490059342
 20
4.414986299676666
 11
7.925307668246166
 21
4.415415132068591
 72
     1
 10
7.925307668246165
 20
4.415415132068591
 11
7.925194536930894
 21
4.415837670941558
 72
     1
 10
7.925194536930895
 20
4.415837670941558
 11
7.925074207760479
 21
4.416253499300714
 72
     1
 10
7.925074207760479
 20
4.416253499300714
 11
7.924946799485286
 21
4.41666220677367
 72
     1
 10
7.924946799485286
 20
4.41666220677367
 11
7.924812437841896
 21
4.417063390015496
 72
     1
 10
7.924812437841896
 20
4.417063390015496
 11
7.924671255429032
 21
4.417456653106766
 72
     1
 10
7.924671255429032
 20
4.417456653106766
 11
7.92452339157669
 21
4.417841607944292
 72
     1
 10
7.92452339157669
 20
4.417841607944292
 11
7.92436899220864
 21
4.418217874624121
 72
     1
 10
7.92436899220864
 20
4.418217874624121
 11
7.924208209698418
 21
4.418585081816469
 72
     1
 10
7.924208209698418
 20
4.418585081816469
 11
7.924041202718949
 21
4.418942867132171
 72
     1
 10
7.924041202718949
 20
4.41894286713217
 11
7.923868136085962
 21
4.419290877480314
 72
     1
 10
7.923868136085961
 20
4.419290877480314
 11
7.923689180595322
 21
4.419628769416704
 72
     1
 10
7.923689180595322
 20
4.419628769416704
 11
7.923504512854501
 21
4.419956209482793
 72
     1
 10
7.923504512854501
 20
4.419956209482793
 11
7.92331431510826
 21
4.420272874534765
 72
     1
 10
7.923314315108261
 20
4.420272874534765
 11
7.923118775058811
 21
4.420578452062449
 72
     1
 10
7.923118775058811
 20
4.420578452062449
 11
7.922918085680576
 21
4.420872640497715
 72
     1
 10
7.922918085680577
 20
4.420872640497715
 11
7.922712445029743
 21
4.421155149512097
 72
     1
 10
7.922712445029743
 20
4.421155149512097
 11
7.922502056048806
 21
4.421425700303305
 72
     1
 10
7.922502056048807
 20
4.421425700303305
 11
7.922287126366288
 21
4.421684025870372
 72
     1
 10
7.922287126366287
 20
4.421684025870372
 11
7.922067868091837
 21
4.421929871277151
 72
     1
 10
7.922067868091838
 20
4.421929871277151
 11
7.921844497606899
 21
4.422162993903909
 72
     1
 10
7.921844497606899
 20
4.422162993903909
 11
7.921617235351174
 21
4.422383163686755
 72
     1
 10
7.921617235351174
 20
4.422383163686755
 11
7.921386305605072
 21
4.422590163344697
 72
     1
 10
7.921386305605073
 20
4.422590163344697
 11
7.921151936268372
 21
4.422783788594065
 72
     1
 10
7.921151936268372
 20
4.422783788594065
 11
7.920914358635313
 21
4.422963848350111
 72
     1
 10
7.920914358635313
 20
4.422963848350111
 11
7.920673807166335
 21
4.423130164915597
 72
     1
 10
7.920673807166335
 20
4.423130164915598
 11
7.920430519256696
 21
4.423282574156154
 72
     1
 10
7.920430519256695
 20
4.423282574156154
 11
7.920184735002191
 21
4.423420925662258
 72
     1
 10
7.920184735002191
 20
4.423420925662258
 11
7.919936696962206
 21
4.423545082897681
 72
     1
 10
7.919936696962206
 20
4.423545082897681
 11
7.919686649920337
 21
4.423654923334217
 72
     1
 10
7.919686649920338
 20
4.423654923334217
 11
7.919434840642832
 21
4.423750338572618
 72
     1
 10
7.919434840642831
 20
4.423750338572618
 11
7.919181517635039
 21
4.423831234449563
 72
     1
 10
7.91918151763504
 20
4.423831234449563
 11
7.918926930896189
 21
4.423897531130589
 72
     1
 10
7.918926930896188
 20
4.423897531130589
 11
7.918671331672653
 21
4.423949163188875
 72
     1
 10
7.918671331672653
 20
4.423949163188875
 11
7.918414972210006
 21
4.423986079669814
 72
     1
 10
7.918414972210007
 20
4.423986079669814
 11
7.91815810550409
 21
4.424008244141295
 72
     1
 10
7.91815810550409
 20
4.424008244141295
 11
7.917900985051327
 21
4.424015634729662
 72
     1
 10
7.917900985051327
 20
4.424015634729662
 11
7.914441924082881
 21
4.422612669121245
 72
     1
 10
7.914441924082881
 20
4.422612669121245
 11
7.914415664497581
 21
4.422590163344697
 72
     1
 10
7.914415664497581
 20
4.422590163344697
 11
7.91418473475148
 21
4.422383163686755
 72
     1
 10
7.91418473475148
 20
4.422383163686755
 11
7.914048495405408
 21
4.422253187457915
 72
     1
 10
7.914048495405408
 20
4.422253187457915
 11
7.91172223644632
 21
4.418862320839129
 72
     1
 10
7.91172223644632
 20
4.418862320839129
 11
7.91019886822563
 21
4.414109891843609
 72
     1
 10
7.91019886822563
 20
4.414109891843609
 11
7.909716653535612
 21
4.408759646658282
 72
     1
 10
7.909716653535612
 20
4.408759646658281
 11
7.910154664067189
 21
4.40419661118916
 72
     1
 10
7.91015466406719
 20
4.40419661118916
 11
7.911516945031931
 21
4.399663287701783
 72
     1
 10
7.91151694503193
 20
4.399663287701783
 11
7.913991536625173
 21
4.39587881250001
 72
     1
 10
7.913991536625174
 20
4.39587881250001
 11
7.91418473475148
 21
4.395692715676965
 72
     1
 10
7.91418473475148
 20
4.395692715676965
 11
7.914415664497581
 21
4.395485716019023
 72
     1
 10
7.914415664497581
 20
4.395485716019023
 11
7.914650033834282
 21
4.395292090769655
 72
     1
 10
7.914650033834281
 20
4.395292090769655
 11
7.914672916110901
 21
4.395274048313635
 72
     1
 10
7.914672916110901
 20
4.395274048313635
 11
7.917358602854552
 21
4.394093159107575
 97
        0
 75
     0
 76
     2
 52
90.00000000000001
 41
0.005
 77
     0
 78
     2
 53
135.0
 43
0.0
 44
0.0
 45
-0.0053033008588991
 46
-0.0053033008588991
 79
     0
 53
225.0
 43
0.0
 44
0.0
 45
0.0053033008588991
 46
-0.0053033008588991
 79
     0
 98
        0
1001
ACAD
1010
0.0
1020
0.0
1030
0.0
1001
NEM_ODX
1002
{
1000
BZM_DEPEND
1070
     1
1000
BZM_SCALE
1040
5.0
1000
SCHRAFFUR_304
1002
}
  0
HATCH
  5
90
330
1F
100
AcDbEntity
  8
STANDARD
  6
AUSGEZOGEN
 62
     7
440
 33554687
370
    18
100
AcDbHatch
 10
0.0
 20
0.0
 30
0.0
210
0.0
220
0.0
230
1.0
  2
SCHRAFFUR_12
 70
     0
 71
     0
 91
        1
 92
        0
 93
      122
 72
     1
 10
7.902583007427027
 20
4.410410018656607
 11
7.902598212981103
 21
4.409015634729671
 72
     1
 10
7.902598212981104
 20
4.409015634729671
 11
7.902569754681858
 21
4.407108140614599
 72
     1
 10
7.902569754681857
 20
4.407108140614599
 11
7.902484405115783
 21
4.40520234442261
 72
     1
 10
7.902484405115784
 20
4.405202344422609
 11
7.902342240255332
 21
4.403299942565407
 72
     1
 10
7.902342240255332
 20
4.403299942565407
 11
7.902143386646107
 21
4.40140262843329
 72
     1
 10
7.902143386646107
 20
4.40140262843329
 11
7.90188802129423
 21
4.399512090887805
 72
     1
 10
7.90188802129423
 20
4.399512090887805
 11
7.901576371508776
 21
4.397630012758434
 72
     1
 10
7.901576371508776
 20
4.397630012758434
 11
7.901208714699444
 21
4.395758069344656
 72
     1
 10
7.901208714699444
 20
4.395758069344656
 11
7.900785378129618
 21
4.393897926924712
 72
     1
 10
7.900785378129618
 20
4.393897926924712
 11
7.900329662030757
 21
4.392134768225255
 72
     1
 10
7.900329662030757
 20
4.392134768225255
 11
7.900306738625066
 21
4.392051241272384
 72
     1
 10
7.900306738625066
 20
4.392051241272384
 11
7.900372958373077
 21
4.392122917365234
 72
     1
 10
7.900372958373077
 20
4.392122917365234
 11
7.900504129450487
 21
4.392258275416781
 72
     1
 10
7.900504129450487
 20
4.392258275416781
 11
7.900639487502032
 21
4.39238944649419
 72
     1
 10
7.900639487502032
 20
4.39238944649419
 11
7.900778898945664
 21
4.392516301147444
 72
     1
 10
7.900778898945664
 20
4.392516301147444
 11
7.900922226199113
 21
4.392638714186316
 72
     1
 10
7.900922226199113
 20
4.392638714186316
 11
7.901069327815687
 21
4.392756564803916
 72
     1
 10
7.901069327815687
 20
4.392756564803916
 11
7.901220058623851
 21
4.392869736695911
 72
     1
 10
7.901220058623851
 20
4.392869736695912
 11
7.901374269870495
 21
4.392978118175309
 72
     1
 10
7.901374269870494
 20
4.392978118175309
 11
7.901531809367732
 21
4.393081602282673
 72
     1
 10
7.901531809367732
 20
4.393081602282673
 11
7.901692521643103
 21
4.393180086891685
 72
     1
 10
7.901692521643103
 20
4.393180086891685
 11
7.901856248092995
 21
4.393273474809924
 72
     1
 10
7.901856248092996
 20
4.393273474809924
 11
7.902022827139168
 21
4.393361673874791
 72
     1
 10
7.902022827139168
 20
4.393361673874791
 11
7.902192094388217
 21
4.393444597044457
 72
     1
 10
7.902192094388216
 20
4.393444597044458
 11
7.902363882793796
 21
4.393522162483765
 72
     1
 10
7.902363882793796
 20
4.393522162483765
 11
7.902538022821498
 21
4.393594293644991
 72
     1
 10
7.902538022821498
 20
4.393594293644991
 11
7.902714342616133
 21
4.393660919343387
 72
     1
 10
7.902714342616133
 20
4.393660919343387
 11
7.902892668171355
 21
4.393721973827432
 72
     1
 10
7.902892668171355
 20
4.393721973827432
 11
7.903072823501371
 21
4.393777396843723
 72
     1
 10
7.90307282350137
 20
4.393777396843723
 11
7.903254630814615
 21
4.393827133696433
 72
     1
 10
7.903254630814616
 20
4.393827133696433
 11
7.903437910689227
 21
4.393871135301294
 72
     1
 10
7.903437910689227
 20
4.393871135301294
 11
7.903622482250092
 21
4.393909358234034
 72
     1
 10
7.903622482250092
 20
4.393909358234034
 11
7.903808163347365
 21
4.393941764773233
 72
     1
 10
7.903808163347365
 20
4.393941764773233
 11
7.903994770736219
 21
4.393968322937548
 72
     1
 10
7.903994770736219
 20
4.393968322937548
 11
7.904182120257694
 21
4.39398900651728
 72
     1
 10
7.904182120257694
 20
4.39398900651728
 11
7.90437002702043
 21
4.394003795100231
 72
     1
 10
7.90437002702043
 20
4.394003795100231
 11
7.904558305583136
 21
4.394012674091856
 72
     1
 10
7.904558305583136
 20
4.394012674091856
 11
7.904746770137607
 21
4.394015634729662
 72
     1
 10
7.904746770137606
 20
4.394015634729661
 11
7.916710820657659
 21
4.394219401774832
 72
     1
 10
7.916710820657659
 20
4.394219401774832
 11
7.916620452467615
 21
4.394244644914157
 72
     1
 10
7.916620452467616
 20
4.394244644914157
 11
7.916367129459823
 21
4.394325540791102
 72
     1
 10
7.916367129459823
 20
4.394325540791102
 11
7.916115320182317
 21
4.394420956029503
 72
     1
 10
7.916115320182317
 20
4.394420956029503
 11
7.915865273140449
 21
4.394530796466039
 72
     1
 10
7.915865273140449
 20
4.394530796466039
 11
7.915617235100463
 21
4.394654953701461
 72
     1
 10
7.915617235100463
 20
4.394654953701462
 11
7.915371450845958
 21
4.394793305207566
 72
     1
 10
7.915371450845958
 20
4.394793305207566
 11
7.915128162936321
 21
4.394945714448122
 72
     1
 10
7.915128162936321
 20
4.394945714448122
 11
7.914887611467343
 21
4.395112031013608
 72
     1
 10
7.914887611467342
 20
4.395112031013609
 11
7.914650033834281
 21
4.395292090769655
 72
     1
 10
7.914650033834281
 20
4.395292090769655
 11
7.91441566449758
 21
4.395485716019023
 72
     1
 10
7.914415664497581
 20
4.395485716019023
 11
7.91418473475148
 21
4.395692715676965
 72
     1
 10
7.91418473475148
 20
4.395692715676965
 11
7.913957472495755
 21
4.395912885459811
 72
     1
 10
7.913957472495754
 20
4.395912885459811
 11
7.913734102010817
 21
4.396146008086569
 72
     1
 10
7.913734102010818
 20
4.396146008086569
 11
7.913514843736366
 21
4.396391853493347
 72
     1
 10
7.913514843736366
 20
4.396391853493347
 11
7.913299914053849
 21
4.396650179060415
 72
     1
 10
7.913299914053849
 20
4.396650179060415
 11
7.913089525072912
 21
4.396920729851623
 72
     1
 10
7.913089525072912
 20
4.396920729851623
 11
7.912883884422077
 21
4.397203238866005
 72
     1
 10
7.912883884422078
 20
4.397203238866005
 11
7.912683195043843
 21
4.397497427301271
 72
     1
 10
7.912683195043843
 20
4.397497427301271
 11
7.912487654994394
 21
4.397803004828955
 72
     1
 10
7.912487654994395
 20
4.397803004828955
 11
7.912297457248153
 21
4.398119669880927
 72
     1
 10
7.912297457248153
 20
4.398119669880927
 11
7.912112789507332
 21
4.398447109947016
 72
     1
 10
7.912112789507332
 20
4.398447109947016
 11
7.911933834016695
 21
4.398785001883406
 72
     1
 10
7.911933834016694
 20
4.398785001883406
 11
7.911760767383707
 21
4.39913301223155
 72
     1
 10
7.911760767383707
 20
4.399133012231549
 11
7.911593760404238
 21
4.399490797547251
 72
     1
 10
7.911593760404237
 20
4.399490797547251
 11
7.911432977894013
 21
4.399858004739599
 72
     1
 10
7.911432977894014
 20
4.399858004739599
 11
7.911278578525964
 21
4.400234271419428
 72
     1
 10
7.911278578525964
 20
4.400234271419428
 11
7.911130714673624
 21
4.400619226256953
 72
     1
 10
7.911130714673623
 20
4.400619226256953
 11
7.910989532260759
 21
4.401012489348224
 72
     1
 10
7.910989532260759
 20
4.401012489348224
 11
7.910855170617369
 21
4.40141367259005
 72
     1
 10
7.91085517061737
 20
4.40141367259005
 11
7.910727762342175
 21
4.401822380063006
 72
     1
 10
7.910727762342174
 20
4.401822380063006
 11
7.910607433171759
 21
4.402238208422162
 72
     1
 10
7.91060743317176
 20
4.402238208422162
 11
7.910494301856491
 21
4.402660747295129
 72
     1
 10
7.91049430185649
 20
4.402660747295129
 11
7.910388480043312
 21
4.403089579687054
 72
     1
 10
7.910388480043312
 20
4.403089579687054
 11
7.910290072165583
 21
4.40352428239214
 72
     1
 10
7.910290072165583
 20
4.40352428239214
 11
7.910199175339995
 21
4.403964426411299
 72
     1
 10
7.910199175339995
 20
4.403964426411299
 11
7.910115879270741
 21
4.404409577375524
 72
     1
 10
7.910115879270741
 20
4.404409577375524
 11
7.910040266160984
 21
4.404859295974555
 72
     1
 10
7.910040266160984
 20
4.404859295974555
 11
7.909972410631737
 21
4.405313138390433
 72
     1
 10
7.909972410631737
 20
4.405313138390433
 11
7.909912379648214
 21
4.405770656735483
 72
     1
 10
7.909912379648214
 20
4.405770656735483
 11
7.909860232453748
 21
4.406231399494339
 72
     1
 10
7.909860232453748
 20
4.406231399494339
 11
7.909816020511323
 21
4.406694911969522
 72
     1
 10
7.909816020511323
 20
4.406694911969522
 11
7.909779787452791
 21
4.407160736730178
 72
     1
 10
7.909779787452791
 20
4.407160736730178
 11
7.909751569035803
 21
4.407628414063512
 72
     1
 10
7.909751569035803
 20
4.407628414063512
 11
7.909731393108532
 21
4.408097482428456
 72
     1
 10
7.909731393108532
 20
4.408097482428457
 11
7.909719279582183
 21
4.408567478911167
 72
     1
 10
7.909719279582183
 20
4.408567478911167
 11
7.909715240411343
 21
4.40903793968186
 72
     1
 10
7.909715240411343
 20
4.40903793968186
 11
7.909719279582183
 21
4.409508400452553
 72
     1
 10
7.909719279582183
 20
4.409508400452553
 11
7.909731393108532
 21
4.409978396935263
 72
     1
 10
7.909731393108532
 20
4.409978396935263
 11
7.909749660381086
 21
4.410410018656607
 72
     1
 10
7.909749660381086
 20
4.410410018656607
 11
7.910198868225631
 21
4.414109891843609
 72
     1
 10
7.91019886822563
 20
4.414109891843609
 11
7.91172223644632
 21
4.418862320839129
 72
     1
 10
7.91172223644632
 20
4.418862320839129
 11
7.914441924082881
 21
4.422612669121246
 72
     1
 10
7.914441924082881
 20
4.422612669121245
 11
7.916746770137607
 21
4.424015634729662
 72
     1
 10
7.916746770137607
 20
4.424015634729662
 11
7.904746770137607
 21
4.424015634729662
 72
     1
 10
7.904746770137606
 20
4.424015634729662
 11
7.904558305583135
 21
4.424018595367468
 72
     1
 10
7.904558305583136
 20
4.424018595367468
 11
7.90437002702043
 21
4.424027474359093
 72
     1
 10
7.90437002702043
 20
4.424027474359093
 11
7.904182120257694
 21
4.424042262942043
 72
     1
 10
7.904182120257694
 20
4.424042262942042
 11
7.903994770736219
 21
4.424062946521775
 72
     1
 10
7.903994770736219
 20
4.424062946521776
 11
7.903808163347365
 21
4.424089504686091
 72
     1
 10
7.903808163347365
 20
4.424089504686091
 11
7.903622482250092
 21
4.424121911225289
 72
     1
 10
7.903622482250092
 20
4.424121911225289
 11
7.903437910689227
 21
4.424160134158029
 72
     1
 10
7.903437910689227
 20
4.424160134158029
 11
7.903254630814615
 21
4.424204135762889
 72
     1
 10
7.903254630814616
 20
4.424204135762889
 11
7.903072823501371
 21
4.4242538726156
 72
     1
 10
7.90307282350137
 20
4.4242538726156
 11
7.902892668171354
 21
4.424309295631891
 72
     1
 10
7.902892668171355
 20
4.424309295631891
 11
7.902714342616133
 21
4.424370350115936
 72
     1
 10
7.902714342616133
 20
4.424370350115936
 11
7.902538022821498
 21
4.424436975814332
 72
     1
 10
7.902538022821498
 20
4.424436975814332
 11
7.902363882793796
 21
4.424509106975559
 72
     1
 10
7.902363882793796
 20
4.424509106975558
 11
7.902192094388216
 21
4.424586672414865
 72
     1
 10
7.902192094388216
 20
4.424586672414866
 11
7.902022827139167
 21
4.424669595584532
 72
     1
 10
7.902022827139168
 20
4.424669595584532
 11
7.901856248092996
 21
4.424757794649398
 72
     1
 10
7.901856248092996
 20
4.424757794649398
 11
7.901692521643104
 21
4.424851182567638
 72
     1
 10
7.901692521643103
 20
4.424851182567638
 11
7.901531809367732
 21
4.42494966717665
 72
     1
 10
7.901531809367732
 20
4.424949667176651
 11
7.901374269870494
 21
4.425053151284015
 72
     1
 10
7.901374269870494
 20
4.425053151284015
 11
7.90122005862385
 21
4.425161532763412
 72
     1
 10
7.901220058623851
 20
4.425161532763412
 11
7.901069327815687
 21
4.425274704655407
 72
     1
 10
7.901069327815687
 20
4.425274704655407
 11
7.900922226199113
 21
4.425392555273007
 72
     1
 10
7.900922226199113
 20
4.425392555273007
 11
7.900778898945664
 21
4.425514968311878
 72
     1
 10
7.900778898945664
 20
4.425514968311879
 11
7.900639487502032
 21
4.425641822965134
 72
     1
 10
7.900639487502032
 20
4.425641822965134
 11
7.900504129450487
 21
4.425772994042543
 72
     1
 10
7.900504129450487
 20
4.425772994042543
 11
7.900372958373077
 21
4.42590835209409
 72
     1
 10
7.900372958373077
 20
4.42590835209409
 11
7.900306738625053
 21
4.425980028186955
 72
     1
 10
7.900306738625053
 20
4.425980028186955
 11
7.901412452220504
 21
4.421272594904853
 72
     1
 10
7.901412452220504
 20
4.421272594904853
 11
7.902583007427028
 21
4.410410018656607
 97
        0
 75
     0
 76
     2
 52
90.00000000000001
 41
0.001
 77
     0
 78
     2
 53
135.0
 43
0.0
 44
0.0
 45
-0.0017677669529664
 46
-0.0017677669529664
 79
     0
 53
225.0
 43
0.0
 44
0.0
 45
0.0017677669529664
 46
-0.0017677669529664
 79
     0
 98
        0
1001
ACAD
1010
0.0
1020
0.0
1030
0.0
1001
NEM_ODX
1002
{
1000
BZM_DEPEND
1070
     0
1000
SCHRAFFUR_12
1002
}
  0
HATCH
  5
91
330
1F
100
AcDbEntity
  8
STANDARD
  6
AUSGEZOGEN
 62
   250
420
  2238514
440
 33554687
370
    18
100
AcDbHatch
 10
0.0
 20
0.0
 30
0.0
210
0.0
220
0.0
230
1.0
  2
SOLID
 70
     1
 71
     0
 91
        1
 92
        3
 72
     0
 73
     1
 93
        4
 10
8.035746770137607
 20
3.980025487021304
 10
8.035746770137607
 20
3.977025487021304
 10
8.038746770137607
 20
3.977025487021304
 10
8.038746770137607
 20
3.980025487021304
 97
        0
 75
     0
 76
     1
 98
        0
  0
HATCH
  5
92
330
1F
100
AcDbEntity
  8
STANDARD
  6
AUSGEZOGEN
 62
   250
420
  2238514
440
 33554687
370
    18
100
AcDbHatch
 10
0.0
 20
0.0
 30
0.0
210
0.0
220
0.0
230
1.0
  2
SOLID
 70
     1
 71
     0
 91
        1
 92
        3
 72
     0
 73
     1
 93
        4
 10
8.035746770137607
 20
3.986025487021303
 10
8.035746770137607
 20
3.983025487021303
 10
8.038746770137607
 20
3.983025487021303
 10
8.038746770137607
 20
3.986025487021303
 97
        0
 75
     0
 76
     1
 98
        0
  0
HATCH
  5
93
330
1F
100
AcDbEntity
  8
STANDARD
  6
AUSGEZOGEN
 62
   250
420
  2238514
440
 33554687
370
    18
100
AcDbHatch
 10
0.0
 20
0.0
 30
0.0
210
0.0
220
0.0
230
1.0
  2
SOLID
 70
     1
 71
     0
 91
        1
 92
        3
 72
     0
 73
     1
 93
        4
 10
8.035746770137607
 20
3.992025487021304
 10
8.035746770137607
 20
3.989025487021304
 10
8.038746770137607
 20
3.989025487021304
 10
8.038746770137607
 20
3.992025487021304
 97
        0
 75
     0
 76
     1
 98
        0
  0
HATCH
  5
94
330
1F
100
AcDbEntity
  8
STANDARD
  6
AUSGEZOGEN
 62
   250
420
  2238514
440
 33554687
370
    18
100
AcDbHatch
 10
0.0
 20
0.0
 30
0.0
210
0.0
220
0.0
230
1.0
  2
SOLID
 70
     1
 71
     0
 91
        1
 92
        3
 72
     0
 73
     1
 93
        4
 10
8.035746770137607
 20
3.998025487021303
 10
8.035746770137607
 20
3.995025487021303
 10
8.038746770137607
 20
3.995025487021303
 10
8.038746770137607
 20
3.998025487021303
 97
        0
 75
     0
 76
     1
 98
        0
  0
HATCH
  5
95
330
1F
100
AcDbEntity
  8
STANDARD
  6
AUSGEZOGEN
 62
   250
420
  2238514
440
 33554687
370
    18
100
AcDbHatch
 10
0.0
 20
0.0
 30
0.0
210
0.0
220
0.0
230
1.0
  2
SOLID
 70
     1
 71
     0
 91
        1
 92
        3
 72
     0
 73
     1
 93
        4
 10
8.035746770137607
 20
4.004025487021304
 10
8.035746770137607
 20
4.001025487021304
 10
8.038746770137607
 20
4.001025487021304
 10
8.038746770137607
 20
4.004025487021304
 97
        0
 75
     0
 76
     1
 98
        0
  0
HATCH
  5
96
330
1F
100
AcDbEntity
  8
STANDARD
  6
AUSGEZOGEN
 62
   250
420
  2238514
440
 33554687
370
    18
100
AcDbHatch
 10
0.0
 20
0.0
 30
0.0
210
0.0
220
0.0
230
1.0
  2
SOLID
 70
     1
 71
     0
 91
        1
 92
        3
 72
     0
 73
     1
 93
        4
 10
8.035746770137607
 20
4.010025487021304
 10
8.035746770137607
 20
4.007025487021304
 10
8.038746770137607
 20
4.007025487021304
 10
8.038746770137607
 20
4.010025487021304
 97
        0
 75
     0
 76
     1
 98
        0
  0
HATCH
  5
97
330
1F
100
AcDbEntity
  8
STANDARD
  6
AUSGEZOGEN
 62
   250
420
  2238514
440
 33554687
370
    18
100
AcDbHatch
 10
0.0
 20
0.0
 30
0.0
210
0.0
220
0.0
230
1.0
  2
SOLID
 70
     1
 71
     0
 91
        1
 92
        3
 72
     0
 73
     1
 93
        4
 10
8.035746770137607
 20
4.016025487021303
 10
8.035746770137607
 20
4.013025487021303
 10
8.038746770137607
 20
4.013025487021303
 10
8.038746770137607
 20
4.016025487021303
 97
        0
 75
     0
 76
     1
 98
        0
  0
HATCH
  5
98
330
1F
100
AcDbEntity
  8
STANDARD
  6
AUSGEZOGEN
 62
   250
420
  2238514
440
 33554687
370
    18
100
AcDbHatch
 10
0.0
 20
0.0
 30
0.0
210
0.0
220
0.0
230
1.0
  2
SOLID
 70
     1
 71
     0
 91
        1
 92
        3
 72
     0
 73
     1
 93
        4
 10
8.035746770137607
 20
4.022025487021303
 10
8.035746770137607
 20
4.019025487021303
 10
8.038746770137607
 20
4.019025487021303
 10
8.038746770137607
 20
4.022025487021303
 97
        0
 75
     0
 76
     1
 98
        0
  0
HATCH
  5
99
330
1F
100
AcDbEntity
  8
STANDARD
  6
AUSGEZOGEN
 62
   250
420
  2238514
440
 33554687
370
    18
100
AcDbHatch
 10
0.0
 20
0.0
 30
0.0
210
0.0
220
0.0
230
1.0
  2
SOLID
 70
     1
 71
     0
 91
        1
 92
        3
 72
     0
 73
     1
 93
        4
 10
8.035746770137607
 20
4.028025487021304
 10
8.035746770137607
 20
4.025025487021304
 10
8.038746770137607
 20
4.025025487021304
 10
8.038746770137607
 20
4.028025487021304
 97
        0
 75
     0
 76
     1
 98
        0
  0
HATCH
  5
9A
330
1F
100
AcDbEntity
  8
STANDARD
  6
AUSGEZOGEN
 62
   250
420
  2238514
440
 33554687
370
    18
100
AcDbHatch
 10
0.0
 20
0.0
 30
0.0
210
0.0
220
0.0
230
1.0
  2
SOLID
 70
     1
 71
     0
 91
        1
 92
        3
 72
     0
 73
     1
 93
        4
 10
8.035746770137607
 20
4.034025487021304
 10
8.035746770137607
 20
4.031025487021304
 10
8.038746770137607
 20
4.031025487021304
 10
8.038746770137607
 20
4.034025487021304
 97
        0
 75
     0
 76
     1
 98
        0
  0
HATCH
  5
9B
330
1F
100
AcDbEntity
  8
STANDARD
  6
AUSGEZOGEN
 62
   250
420
  2238514
440
 33554687
370
    18
100
AcDbHatch
 10
0.0
 20
0.0
 30
0.0
210
0.0
220
0.0
230
1.0
  2
SOLID
 70
     1
 71
     0
 91
        1
 92
        3
 72
     0
 73
     1
 93
        4
 10
8.035746770137607
 20
4.040025487021303
 10
8.035746770137607
 20
4.037025487021303
 10
8.038746770137607
 20
4.037025487021303
 10
8.038746770137607
 20
4.040025487021303
 97
        0
 75
     0
 76
     1
 98
        0
  0
HATCH
  5
9C
330
1F
100
AcDbEntity
  8
STANDARD
  6
AUSGEZOGEN
 62
   250
420
  2238514
440
 33554687
370
    18
100
AcDbHatch
 10
0.0
 20
0.0
 30
0.0
210
0.0
220
0.0
230
1.0
  2
SOLID
 70
     1
 71
     0
 91
        1
 92
        3
 72
     0
 73
     1
 93
        4
 10
8.035746770137607
 20
4.046025487021303
 10
8.035746770137607
 20
4.043025487021303
 10
8.038746770137607
 20
4.043025487021303
 10
8.038746770137607
 20
4.046025487021303
 97
        0
 75
     0
 76
     1
 98
        0
  0
HATCH
  5
9D
330
1F
100
AcDbEntity
  8
STANDARD
  6
AUSGEZOGEN
 62
   250
420
  2238514
440
 33554687
370
    18
100
AcDbHatch
 10
0.0
 20
0.0
 30
0.0
210
0.0
220
0.0
230
1.0
  2
SOLID
 70
     1
 71
     0
 91
        1
 92
        3
 72
     0
 73
     1
 93
        4
 10
8.035746770137607
 20
4.052025487021304
 10
8.035746770137607
 20
4.049025487021304
 10
8.038746770137607
 20
4.049025487021304
 10
8.038746770137607
 20
4.052025487021304
 97
        0
 75
     0
 76
     1
 98
        0
  0
HATCH
  5
9E
330
1F
100
AcDbEntity
  8
STANDARD
  6
AUSGEZOGEN
 62
   250
420
  2238514
440
 33554687
370
    18
100
AcDbHatch
 10
0.0
 20
0.0
 30
0.0
210
0.0
220
0.0
230
1.0
  2
SOLID
 70
     1
 71
     0
 91
        1
 92
        3
 72
     0
 73
     1
 93
        4
 10
8.035746770137607
 20
4.058025487021304
 10
8.035746770137607
 20
4.055025487021304
 10
8.038746770137607
 20
4.055025487021304
 10
8.038746770137607
 20
4.058025487021304
 97
        0
 75
     0
 76
     1
 98
        0
  0
HATCH
  5
9F
330
1F
100
AcDbEntity
  8
STANDARD
  6
AUSGEZOGEN
 62
   250
420
  2238514
440
 33554687
370
    18
100
AcDbHatch
 10
0.0
 20
0.0
 30
0.0
210
0.0
220
0.0
230
1.0
  2
SOLID
 70
     1
 71
     0
 91
        1
 92
        3
 72
     0
 73
     1
 93
        4
 10
8.035746770137607
 20
4.064025487021303
 10
8.035746770137607
 20
4.061025487021303
 10
8.038746770137607
 20
4.061025487021303
 10
8.038746770137607
 20
4.064025487021303
 97
        0
 75
     0
 76
     1
 98
        0
  0
HATCH
  5
A0
330
1F
100
AcDbEntity
  8
STANDARD
  6
AUSGEZOGEN
 62
   250
420
  2238514
440
 33554687
370
    18
100
AcDbHatch
 10
0.0
 20
0.0
 30
0.0
210
0.0
220
0.0
230
1.0
  2
SOLID
 70
     1
 71
     0
 91
        1
 92
        3
 72
     0
 73
     1
 93
        4
 10
8.035746770137607
 20
4.070025487021304
 10
8.035746770137607
 20
4.067025487021303
 10
8.038746770137607
 20
4.067025487021303
 10
8.038746770137607
 20
4.070025487021304
 97
        0
 75
     0
 76
     1
 98
        0
  0
HATCH
  5
A1
330
1F
100
AcDbEntity
  8
STANDARD
  6
AUSGEZOGEN
 62
   250
420
  2238514
440
 33554687
370
    18
100
AcDbHatch
 10
0.0
 20
0.0
 30
0.0
210
0.0
220
0.0
230
1.0
  2
SOLID
 70
     1
 71
     0
 91
        1
 92
        3
 72
     0
 73
     1
 93
        4
 10
8.035746770137607
 20
4.076025487021304
 10
8.035746770137607
 20
4.073025487021304
 10
8.038746770137607
 20
4.073025487021304
 10
8.038746770137607
 20
4.076025487021304
 97
        0
 75
     0
 76
     1
 98
        0
  0
HATCH
  5
A2
330
1F
100
AcDbEntity
  8
STANDARD
  6
AUSGEZOGEN
 62
   250
420
  2238514
440
 33554687
370
    18
100
AcDbHatch
 10
0.0
 20
0.0
 30
0.0
210
0.0
220
0.0
230
1.0
  2
SOLID
 70
     1
 71
     0
 91
        1
 92
        3
 72
     0
 73
     1
 93
        4
 10
8.035746770137607
 20
4.082025487021303
 10
8.035746770137607
 20
4.079025487021304
 10
8.038746770137607
 20
4.079025487021304
 10
8.038746770137607
 20
4.082025487021303
 97
        0
 75
     0
 76
     1
 98
        0
  0
HATCH
  5
A3
330
1F
100
AcDbEntity
  8
STANDARD
  6
AUSGEZOGEN
 62
   250
420
  2238514
440
 33554687
370
    18
100
AcDbHatch
 10
0.0
 20
0.0
 30
0.0
210
0.0
220
0.0
230
1.0
  2
SOLID
 70
     1
 71
     0
 91
        1
 92
        3
 72
     0
 73
     1
 93
        4
 10
8.035746770137607
 20
4.088025487021303
 10
8.035746770137607
 20
4.085025487021303
 10
8.038746770137607
 20
4.085025487021303
 10
8.038746770137607
 20
4.088025487021303
 97
        0
 75
     0
 76
     1
 98
        0
  0
HATCH
  5
A4
330
1F
100
AcDbEntity
  8
STANDARD
  6
AUSGEZOGEN
 62
   250
420
  2238514
440
 33554687
370
    18
100
AcDbHatch
 10
0.0
 20
0.0
 30
0.0
210
0.0
220
0.0
230
1.0
  2
SOLID
 70
     1
 71
     0
 91
        1
 92
        3
 72
     0
 73
     1
 93
        4
 10
8.035746770137607
 20
4.094025487021304
 10
8.035746770137607
 20
4.091025487021303
 10
8.038746770137607
 20
4.091025487021303
 10
8.038746770137607
 20
4.094025487021304
 97
        0
 75
     0
 76
     1
 98
        0
  0
HATCH
  5
A5
330
1F
100
AcDbEntity
  8
STANDARD
  6
AUSGEZOGEN
 62
   250
420
  2238514
440
 33554687
370
    18
100
AcDbHatch
 10
0.0
 20
0.0
 30
0.0
210
0.0
220
0.0
230
1.0
  2
SOLID
 70
     1
 71
     0
 91
        1
 92
        3
 72
     0
 73
     1
 93
        4
 10
8.035746770137607
 20
4.100025487021303
 10
8.035746770137607
 20
4.097025487021303
 10
8.038746770137607
 20
4.097025487021303
 10
8.038746770137607
 20
4.100025487021303
 97
        0
 75
     0
 76
     1
 98
        0
  0
HATCH
  5
A6
330
1F
100
AcDbEntity
  8
STANDARD
  6
AUSGEZOGEN
 62
   250
420
  2238514
440
 33554687
370
    18
100
AcDbHatch
 10
0.0
 20
0.0
 30
0.0
210
0.0
220
0.0
230
1.0
  2
SOLID
 70
     1
 71
     0
 91
        1
 92
        3
 72
     0
 73
     1
 93
        4
 10
8.035746770137607
 20
4.106025487021303
 10
8.035746770137607
 20
4.103025487021303
 10
8.038746770137607
 20
4.103025487021303
 10
8.038746770137607
 20
4.106025487021303
 97
        0
 75
     0
 76
     1
 98
        0
  0
HATCH
  5
A7
330
1F
100
AcDbEntity
  8
STANDARD
  6
AUSGEZOGEN
 62
   250
420
  2238514
440
 33554687
370
    18
100
AcDbHatch
 10
0.0
 20
0.0
 30
0.0
210
0.0
220
0.0
230
1.0
  2
SOLID
 70
     1
 71
     0
 91
        1
 92
        3
 72
     0
 73
     1
 93
        4
 10
8.035746770137607
 20
4.112025487021303
 10
8.035746770137607
 20
4.109025487021303
 10
8.038746770137607
 20
4.109025487021303
 10
8.038746770137607
 20
4.112025487021303
 97
        0
 75
     0
 76
     1
 98
        0
  0
HATCH
  5
A8
330
1F
100
AcDbEntity
  8
STANDARD
  6
AUSGEZOGEN
 62
   250
420
  2238514
440
 33554687
370
    18
100
AcDbHatch
 10
0.0
 20
0.0
 30
0.0
210
0.0
220
0.0
230
1.0
  2
SOLID
 70
     1
 71
     0
 91
        1
 92
        3
 72
     0
 73
     1
 93
        4
 10
8.035746770137607
 20
4.118025487021303
 10
8.035746770137607
 20
4.115025487021303
 10
8.038746770137607
 20
4.115025487021303
 10
8.038746770137607
 20
4.118025487021303
 97
        0
 75
     0
 76
     1
 98
        0
  0
HATCH
  5
A9
330
1F
100
AcDbEntity
  8
STANDARD
  6
AUSGEZOGEN
 62
   250
420
  2238514
440
 33554687
370
    18
100
AcDbHatch
 10
0.0
 20
0.0
 30
0.0
210
0.0
220
0.0
230
1.0
  2
SOLID
 70
     1
 71
     0
 91
        1
 92
        3
 72
     0
 73
     1
 93
        4
 10
8.035746770137607
 20
4.124025487021303
 10
8.035746770137607
 20
4.121025487021303
 10
8.038746770137607
 20
4.121025487021303
 10
8.038746770137607
 20
4.124025487021303
 97
        0
 75
     0
 76
     1
 98
        0
  0
HATCH
  5
AA
330
1F
100
AcDbEntity
  8
STANDARD
  6
AUSGEZOGEN
 62
   250
420
  2238514
440
 33554687
370
    18
100
AcDbHatch
 10
0.0
 20
0.0
 30
0.0
210
0.0
220
0.0
230
1.0
  2
SOLID
 70
     1
 71
     0
 91
        1
 92
        3
 72
     0
 73
     1
 93
        4
 10
8.035746770137607
 20
4.130025487021303
 10
8.035746770137607
 20
4.127025487021303
 10
8.038746770137607
 20
4.127025487021303
 10
8.038746770137607
 20
4.130025487021303
 97
        0
 75
     0
 76
     1
 98
        0
  0
HATCH
  5
AB
330
1F
100
AcDbEntity
  8
STANDARD
  6
AUSGEZOGEN
 62
   250
420
  2238514
440
 33554687
370
    18
100
AcDbHatch
 10
0.0
 20
0.0
 30
0.0
210
0.0
220
0.0
230
1.0
  2
SOLID
 70
     1
 71
     0
 91
        1
 92
        3
 72
     0
 73
     1
 93
        4
 10
8.035746770137607
 20
4.136025487021303
 10
8.035746770137607
 20
4.133025487021303
 10
8.038746770137607
 20
4.133025487021303
 10
8.038746770137607
 20
4.136025487021303
 97
        0
 75
     0
 76
     1
 98
        0
  0
HATCH
  5
AC
330
1F
100
AcDbEntity
  8
STANDARD
  6
AUSGEZOGEN
 62
   250
420
  2238514
440
 33554687
370
    18
100
AcDbHatch
 10
0.0
 20
0.0
 30
0.0
210
0.0
220
0.0
230
1.0
  2
SOLID
 70
     1
 71
     0
 91
        1
 92
        3
 72
     0
 73
     1
 93
        4
 10
8.035746770137607
 20
4.142025487021303
 10
8.035746770137607
 20
4.139025487021303
 10
8.038746770137607
 20
4.139025487021303
 10
8.038746770137607
 20
4.142025487021303
 97
        0
 75
     0
 76
     1
 98
        0
  0
HATCH
  5
AD
330
1F
100
AcDbEntity
  8
STANDARD
  6
AUSGEZOGEN
 62
   250
420
  2238514
440
 33554687
370
    18
100
AcDbHatch
 10
0.0
 20
0.0
 30
0.0
210
0.0
220
0.0
230
1.0
  2
SOLID
 70
     1
 71
     0
 91
        1
 92
        3
 72
     0
 73
     1
 93
        4
 10
8.035746770137607
 20
4.148025487021303
 10
8.035746770137607
 20
4.145025487021303
 10
8.038746770137607
 20
4.145025487021303
 10
8.038746770137607
 20
4.148025487021303
 97
        0
 75
     0
 76
     1
 98
        0
  0
HATCH
  5
AE
330
1F
100
AcDbEntity
  8
STANDARD
  6
AUSGEZOGEN
 62
   250
420
  2238514
440
 33554687
370
    18
100
AcDbHatch
 10
0.0
 20
0.0
 30
0.0
210
0.0
220
0.0
230
1.0
  2
SOLID
 70
     1
 71
     0
 91
        1
 92
        3
 72
     0
 73
     1
 93
        4
 10
8.035746770137607
 20
4.154025487021303
 10
8.035746770137607
 20
4.151025487021303
 10
8.038746770137607
 20
4.151025487021303
 10
8.038746770137607
 20
4.154025487021303
 97
        0
 75
     0
 76
     1
 98
        0
  0
HATCH
  5
AF
330
1F
100
AcDbEntity
  8
STANDARD
  6
AUSGEZOGEN
 62
   250
420
  2238514
440
 33554687
370
    18
100
AcDbHatch
 10
0.0
 20
0.0
 30
0.0
210
0.0
220
0.0
230
1.0
  2
SOLID
 70
     1
 71
     0
 91
        1
 92
        3
 72
     0
 73
     1
 93
        4
 10
8.035746770137607
 20
4.160025487021303
 10
8.035746770137607
 20
4.157025487021303
 10
8.038746770137607
 20
4.157025487021303
 10
8.038746770137607
 20
4.160025487021303
 97
        0
 75
     0
 76
     1
 98
        0
  0
HATCH
  5
B0
330
1F
100
AcDbEntity
  8
STANDARD
  6
AUSGEZOGEN
 62
   250
420
  2238514
440
 33554687
370
    18
100
AcDbHatch
 10
0.0
 20
0.0
 30
0.0
210
0.0
220
0.0
230
1.0
  2
SOLID
 70
     1
 71
     0
 91
        1
 92
        3
 72
     0
 73
     1
 93
        4
 10
8.035746770137607
 20
4.166025487021303
 10
8.035746770137607
 20
4.163025487021303
 10
8.038746770137607
 20
4.163025487021303
 10
8.038746770137607
 20
4.166025487021303
 97
        0
 75
     0
 76
     1
 98
        0
  0
HATCH
  5
B1
330
1F
100
AcDbEntity
  8
STANDARD
  6
AUSGEZOGEN
 62
   250
420
  2238514
440
 33554687
370
    18
100
AcDbHatch
 10
0.0
 20
0.0
 30
0.0
210
0.0
220
0.0
230
1.0
  2
SOLID
 70
     1
 71
     0
 91
        1
 92
        3
 72
     0
 73
     1
 93
        4
 10
8.035746770137607
 20
4.172025487021303
 10
8.035746770137607
 20
4.169025487021303
 10
8.038746770137607
 20
4.169025487021303
 10
8.038746770137607
 20
4.172025487021303
 97
        0
 75
     0
 76
     1
 98
        0
  0
HATCH
  5
B2
330
1F
100
AcDbEntity
  8
STANDARD
  6
AUSGEZOGEN
 62
   250
420
  2238514
440
 33554687
370
    18
100
AcDbHatch
 10
0.0
 20
0.0
 30
0.0
210
0.0
220
0.0
230
1.0
  2
SOLID
 70
     1
 71
     0
 91
        1
 92
        3
 72
     0
 73
     1
 93
        4
 10
8.035746770137607
 20
4.178025487021303
 10
8.035746770137607
 20
4.175025487021303
 10
8.038746770137607
 20
4.175025487021303
 10
8.038746770137607
 20
4.178025487021303
 97
        0
 75
     0
 76
     1
 98
        0
  0
HATCH
  5
B3
330
1F
100
AcDbEntity
  8
STANDARD
  6
AUSGEZOGEN
 62
   250
420
  2238514
440
 33554687
370
    18
100
AcDbHatch
 10
0.0
 20
0.0
 30
0.0
210
0.0
220
0.0
230
1.0
  2
SOLID
 70
     1
 71
     0
 91
        1
 92
        3
 72
     0
 73
     1
 93
        4
 10
8.035746770137607
 20
4.184025487021303
 10
8.035746770137607
 20
4.181025487021303
 10
8.038746770137607
 20
4.181025487021303
 10
8.038746770137607
 20
4.184025487021303
 97
        0
 75
     0
 76
     1
 98
        0
  0
HATCH
  5
B4
330
1F
100
AcDbEntity
  8
STANDARD
  6
AUSGEZOGEN
 62
   250
420
  2238514
440
 33554687
370
    18
100
AcDbHatch
 10
0.0
 20
0.0
 30
0.0
210
0.0
220
0.0
230
1.0
  2
SOLID
 70
     1
 71
     0
 91
        1
 92
        3
 72
     0
 73
     1
 93
        4
 10
8.035746770137607
 20
4.190025487021303
 10
8.035746770137607
 20
4.187025487021304
 10
8.038746770137607
 20
4.187025487021304
 10
8.038746770137607
 20
4.190025487021303
 97
        0
 75
     0
 76
     1
 98
        0
  0
HATCH
  5
B5
330
1F
100
AcDbEntity
  8
STANDARD
  6
AUSGEZOGEN
 62
   250
420
  2238514
440
 33554687
370
    18
100
AcDbHatch
 10
0.0
 20
0.0
 30
0.0
210
0.0
220
0.0
230
1.0
  2
SOLID
 70
     1
 71
     0
 91
        1
 92
        3
 72
     0
 73
     1
 93
        4
 10
8.035746770137607
 20
4.196025487021303
 10
8.035746770137607
 20
4.193025487021303
 10
8.038746770137607
 20
4.193025487021303
 10
8.038746770137607
 20
4.196025487021303
 97
        0
 75
     0
 76
     1
 98
        0
  0
HATCH
  5
B6
330
1F
100
AcDbEntity
  8
STANDARD
  6
AUSGEZOGEN
 62
   250
420
  2238514
440
 33554687
370
    18
100
AcDbHatch
 10
0.0
 20
0.0
 30
0.0
210
0.0
220
0.0
230
1.0
  2
SOLID
 70
     1
 71
     0
 91
        1
 92
        3
 72
     0
 73
     1
 93
        4
 10
8.035746770137607
 20
4.202025487021303
 10
8.035746770137607
 20
4.199025487021303
 10
8.038746770137607
 20
4.199025487021303
 10
8.038746770137607
 20
4.202025487021303
 97
        0
 75
     0
 76
     1
 98
        0
  0
HATCH
  5
B7
330
1F
100
AcDbEntity
  8
STANDARD
  6
AUSGEZOGEN
 62
   250
420
  2238514
440
 33554687
370
    18
100
AcDbHatch
 10
0.0
 20
0.0
 30
0.0
210
0.0
220
0.0
230
1.0
  2
SOLID
 70
     1
 71
     0
 91
        1
 92
        3
 72
     0
 73
     1
 93
        4
 10
8.035746770137607
 20
4.208025487021303
 10
8.035746770137607
 20
4.205025487021303
 10
8.038746770137607
 20
4.205025487021303
 10
8.038746770137607
 20
4.208025487021303
 97
        0
 75
     0
 76
     1
 98
        0
  0
HATCH
  5
B8
330
1F
100
AcDbEntity
  8
STANDARD
  6
AUSGEZOGEN
 62
   250
420
  2238514
440
 33554687
370
    18
100
AcDbHatch
 10
0.0
 20
0.0
 30
0.0
210
0.0
220
0.0
230
1.0
  2
SOLID
 70
     1
 71
     0
 91
        1
 92
        3
 72
     0
 73
     1
 93
        4
 10
8.035746770137607
 20
4.214025487021303
 10
8.035746770137607
 20
4.211025487021303
 10
8.038746770137607
 20
4.211025487021303
 10
8.038746770137607
 20
4.214025487021303
 97
        0
 75
     0
 76
     1
 98
        0
  0
HATCH
  5
B9
330
1F
100
AcDbEntity
  8
STANDARD
  6
AUSGEZOGEN
 62
   250
420
  2238514
440
 33554687
370
    18
100
AcDbHatch
 10
0.0
 20
0.0
 30
0.0
210
0.0
220
0.0
230
1.0
  2
SOLID
 70
     1
 71
     0
 91
        1
 92
        3
 72
     0
 73
     1
 93
        4
 10
8.035746770137607
 20
4.220025487021303
 10
8.035746770137607
 20
4.217025487021303
 10
8.038746770137607
 20
4.217025487021303
 10
8.038746770137607
 20
4.220025487021303
 97
        0
 75
     0
 76
     1
 98
        0
  0
HATCH
  5
BA
330
1F
100
AcDbEntity
  8
STANDARD
  6
AUSGEZOGEN
 62
   250
420
  2238514
440
 33554687
370
    18
100
AcDbHatch
 10
0.0
 20
0.0
 30
0.0
210
0.0
220
0.0
230
1.0
  2
SOLID
 70
     1
 71
     0
 91
        1
 92
        3
 72
     0
 73
     1
 93
        4
 10
8.035746770137607
 20
4.226025487021303
 10
8.035746770137607
 20
4.223025487021303
 10
8.038746770137607
 20
4.223025487021303
 10
8.038746770137607
 20
4.226025487021303
 97
        0
 75
     0
 76
     1
 98
        0
  0
HATCH
  5
BB
330
1F
100
AcDbEntity
  8
STANDARD
  6
AUSGEZOGEN
 62
   250
420
  2238514
440
 33554687
370
    18
100
AcDbHatch
 10
0.0
 20
0.0
 30
0.0
210
0.0
220
0.0
230
1.0
  2
SOLID
 70
     1
 71
     0
 91
        1
 92
        3
 72
     0
 73
     1
 93
        4
 10
8.035746770137607
 20
4.232025487021303
 10
8.035746770137607
 20
4.229025487021303
 10
8.038746770137607
 20
4.229025487021303
 10
8.038746770137607
 20
4.232025487021303
 97
        0
 75
     0
 76
     1
 98
        0
  0
HATCH
  5
BC
330
1F
100
AcDbEntity
  8
STANDARD
  6
AUSGEZOGEN
 62
   250
420
  2238514
440
 33554687
370
    18
100
AcDbHatch
 10
0.0
 20
0.0
 30
0.0
210
0.0
220
0.0
230
1.0
  2
SOLID
 70
     1
 71
     0
 91
        1
 92
        3
 72
     0
 73
     1
 93
        4
 10
8.035746770137607
 20
4.238025487021303
 10
8.035746770137607
 20
4.235025487021303
 10
8.038746770137607
 20
4.235025487021303
 10
8.038746770137607
 20
4.238025487021303
 97
        0
 75
     0
 76
     1
 98
        0
  0
HATCH
  5
BD
330
1F
100
AcDbEntity
  8
STANDARD
  6
AUSGEZOGEN
 62
   250
420
  2238514
440
 33554687
370
    18
100
AcDbHatch
 10
0.0
 20
0.0
 30
0.0
210
0.0
220
0.0
230
1.0
  2
SOLID
 70
     1
 71
     0
 91
        1
 92
        3
 72
     0
 73
     1
 93
        4
 10
8.035746770137607
 20
4.244025487021303
 10
8.035746770137607
 20
4.241025487021303
 10
8.038746770137607
 20
4.241025487021303
 10
8.038746770137607
 20
4.244025487021303
 97
        0
 75
     0
 76
     1
 98
        0
  0
HATCH
  5
BE
330
1F
100
AcDbEntity
  8
STANDARD
  6
AUSGEZOGEN
 62
   250
420
  2238514
440
 33554687
370
    18
100
AcDbHatch
 10
0.0
 20
0.0
 30
0.0
210
0.0
220
0.0
230
1.0
  2
SOLID
 70
     1
 71
     0
 91
        1
 92
        3
 72
     0
 73
     1
 93
        4
 10
8.035746770137607
 20
4.250025487021303
 10
8.035746770137607
 20
4.247025487021303
 10
8.038746770137607
 20
4.247025487021303
 10
8.038746770137607
 20
4.250025487021303
 97
        0
 75
     0
 76
     1
 98
        0
  0
HATCH
  5
BF
330
1F
100
AcDbEntity
  8
STANDARD
  6
AUSGEZOGEN
 62
   250
420
  2238514
440
 33554687
370
    18
100
AcDbHatch
 10
0.0
 20
0.0
 30
0.0
210
0.0
220
0.0
230
1.0
  2
SOLID
 70
     1
 71
     0
 91
        1
 92
        3
 72
     0
 73
     1
 93
        4
 10
8.035746770137607
 20
4.256025487021303
 10
8.035746770137607
 20
4.253025487021303
 10
8.038746770137607
 20
4.253025487021303
 10
8.038746770137607
 20
4.256025487021303
 97
        0
 75
     0
 76
     1
 98
        0
  0
HATCH
  5
C0
330
1F
100
AcDbEntity
  8
STANDARD
  6
AUSGEZOGEN
 62
   250
420
  2238514
440
 33554687
370
    18
100
AcDbHatch
 10
0.0
 20
0.0
 30
0.0
210
0.0
220
0.0
230
1.0
  2
SOLID
 70
     1
 71
     0
 91
        1
 92
        3
 72
     0
 73
     1
 93
        4
 10
8.035746770137607
 20
4.262025487021303
 10
8.035746770137607
 20
4.259025487021303
 10
8.038746770137607
 20
4.259025487021303
 10
8.038746770137607
 20
4.262025487021303
 97
        0
 75
     0
 76
     1
 98
        0
  0
HATCH
  5
C1
330
1F
100
AcDbEntity
  8
STANDARD
  6
AUSGEZOGEN
 62
   250
420
  2238514
440
 33554687
370
    18
100
AcDbHatch
 10
0.0
 20
0.0
 30
0.0
210
0.0
220
0.0
230
1.0
  2
SOLID
 70
     1
 71
     0
 91
        1
 92
        3
 72
     0
 73
     1
 93
        4
 10
8.035746770137607
 20
4.268025487021303
 10
8.035746770137607
 20
4.265025487021303
 10
8.038746770137607
 20
4.265025487021303
 10
8.038746770137607
 20
4.268025487021303
 97
        0
 75
     0
 76
     1
 98
        0
  0
HATCH
  5
C2
330
1F
100
AcDbEntity
  8
STANDARD
  6
AUSGEZOGEN
 62
   250
420
  2238514
440
 33554687
370
    18
100
AcDbHatch
 10
0.0
 20
0.0
 30
0.0
210
0.0
220
0.0
230
1.0
  2
SOLID
 70
     1
 71
     0
 91
        1
 92
        3
 72
     0
 73
     1
 93
        4
 10
8.035746770137607
 20
4.274025487021303
 10
8.035746770137607
 20
4.271025487021303
 10
8.038746770137607
 20
4.271025487021303
 10
8.038746770137607
 20
4.274025487021303
 97
        0
 75
     0
 76
     1
 98
        0
  0
HATCH
  5
C3
330
1F
100
AcDbEntity
  8
STANDARD
  6
AUSGEZOGEN
 62
   250
420
  2238514
440
 33554687
370
    18
100
AcDbHatch
 10
0.0
 20
0.0
 30
0.0
210
0.0
220
0.0
230
1.0
  2
SOLID
 70
     1
 71
     0
 91
        1
 92
        3
 72
     0
 73
     1
 93
        4
 10
8.035746770137607
 20
4.280025487021303
 10
8.035746770137607
 20
4.277025487021303
 10
8.038746770137607
 20
4.277025487021303
 10
8.038746770137607
 20
4.280025487021303
 97
        0
 75
     0
 76
     1
 98
        0
  0
HATCH
  5
C4
330
1F
100
AcDbEntity
  8
STANDARD
  6
AUSGEZOGEN
 62
   250
420
  2238514
440
 33554687
370
    18
100
AcDbHatch
 10
0.0
 20
0.0
 30
0.0
210
0.0
220
0.0
230
1.0
  2
SOLID
 70
     1
 71
     0
 91
        1
 92
        3
 72
     0
 73
     1
 93
        4
 10
8.035746770137607
 20
4.286025487021303
 10
8.035746770137607
 20
4.283025487021303
 10
8.038746770137607
 20
4.283025487021303
 10
8.038746770137607
 20
4.286025487021303
 97
        0
 75
     0
 76
     1
 98
        0
  0
HATCH
  5
C5
330
1F
100
AcDbEntity
  8
STANDARD
  6
AUSGEZOGEN
 62
   250
420
  2238514
440
 33554687
370
    18
100
AcDbHatch
 10
0.0
 20
0.0
 30
0.0
210
0.0
220
0.0
230
1.0
  2
SOLID
 70
     1
 71
     0
 91
        1
 92
        3
 72
     0
 73
     1
 93
        4
 10
8.035746770137607
 20
4.292025487021303
 10
8.035746770137607
 20
4.289025487021303
 10
8.038746770137607
 20
4.289025487021303
 10
8.038746770137607
 20
4.292025487021303
 97
        0
 75
     0
 76
     1
 98
        0
  0
HATCH
  5
C6
330
1F
100
AcDbEntity
  8
STANDARD
  6
AUSGEZOGEN
 62
   250
420
  2238514
440
 33554687
370
    18
100
AcDbHatch
 10
0.0
 20
0.0
 30
0.0
210
0.0
220
0.0
230
1.0
  2
SOLID
 70
     1
 71
     0
 91
        1
 92
        3
 72
     0
 73
     1
 93
        4
 10
8.035746770137607
 20
4.298025487021303
 10
8.035746770137607
 20
4.295025487021303
 10
8.038746770137607
 20
4.295025487021303
 10
8.038746770137607
 20
4.298025487021303
 97
        0
 75
     0
 76
     1
 98
        0
  0
HATCH
  5
C7
330
1F
100
AcDbEntity
  8
STANDARD
  6
AUSGEZOGEN
 62
   250
420
  2238514
440
 33554687
370
    18
100
AcDbHatch
 10
0.0
 20
0.0
 30
0.0
210
0.0
220
0.0
230
1.0
  2
SOLID
 70
     1
 71
     0
 91
        1
 92
        3
 72
     0
 73
     1
 93
        4
 10
8.035746770137607
 20
4.304025487021303
 10
8.035746770137607
 20
4.301025487021303
 10
8.038746770137607
 20
4.301025487021303
 10
8.038746770137607
 20
4.304025487021303
 97
        0
 75
     0
 76
     1
 98
        0
  0
HATCH
  5
C8
330
1F
100
AcDbEntity
  8
STANDARD
  6
AUSGEZOGEN
 62
   250
420
  2238514
440
 33554687
370
    18
100
AcDbHatch
 10
0.0
 20
0.0
 30
0.0
210
0.0
220
0.0
230
1.0
  2
SOLID
 70
     1
 71
     0
 91
        1
 92
        3
 72
     0
 73
     1
 93
        4
 10
8.035746770137607
 20
4.310025487021303
 10
8.035746770137607
 20
4.307025487021303
 10
8.038746770137607
 20
4.307025487021303
 10
8.038746770137607
 20
4.310025487021303
 97
        0
 75
     0
 76
     1
 98
        0
  0
HATCH
  5
C9
330
1F
100
AcDbEntity
  8
STANDARD
  6
AUSGEZOGEN
 62
   250
420
  2238514
440
 33554687
370
    18
100
AcDbHatch
 10
0.0
 20
0.0
 30
0.0
210
0.0
220
0.0
230
1.0
  2
SOLID
 70
     1
 71
     0
 91
        1
 92
        3
 72
     0
 73
     1
 93
        4
 10
8.035746770137607
 20
4.316025487021303
 10
8.035746770137607
 20
4.313025487021303
 10
8.038746770137607
 20
4.313025487021303
 10
8.038746770137607
 20
4.316025487021303
 97
        0
 75
     0
 76
     1
 98
        0
  0
HATCH
  5
CA
330
1F
100
AcDbEntity
  8
STANDARD
  6
AUSGEZOGEN
 62
   250
420
  2238514
440
 33554687
370
    18
100
AcDbHatch
 10
0.0
 20
0.0
 30
0.0
210
0.0
220
0.0
230
1.0
  2
SOLID
 70
     1
 71
     0
 91
        1
 92
        3
 72
     0
 73
     1
 93
        4
 10
8.035746770137607
 20
4.322025487021303
 10
8.035746770137607
 20
4.319025487021303
 10
8.038746770137607
 20
4.319025487021303
 10
8.038746770137607
 20
4.322025487021303
 97
        0
 75
     0
 76
     1
 98
        0
  0
HATCH
  5
CB
330
1F
100
AcDbEntity
  8
STANDARD
  6
AUSGEZOGEN
 62
   250
420
  2238514
440
 33554687
370
    18
100
AcDbHatch
 10
0.0
 20
0.0
 30
0.0
210
0.0
220
0.0
230
1.0
  2
SOLID
 70
     1
 71
     0
 91
        1
 92
        3
 72
     0
 73
     1
 93
        4
 10
8.035746770137607
 20
4.328025487021303
 10
8.035746770137607
 20
4.325025487021303
 10
8.038746770137607
 20
4.325025487021303
 10
8.038746770137607
 20
4.328025487021303
 97
        0
 75
     0
 76
     1
 98
        0
  0
HATCH
  5
CC
330
1F
100
AcDbEntity
  8
STANDARD
  6
AUSGEZOGEN
 62
   250
420
  2238514
440
 33554687
370
    18
100
AcDbHatch
 10
0.0
 20
0.0
 30
0.0
210
0.0
220
0.0
230
1.0
  2
SOLID
 70
     1
 71
     0
 91
        1
 92
        3
 72
     0
 73
     1
 93
        4
 10
8.035746770137607
 20
4.334025487021303
 10
8.035746770137607
 20
4.331025487021303
 10
8.038746770137607
 20
4.331025487021303
 10
8.038746770137607
 20
4.334025487021303
 97
        0
 75
     0
 76
     1
 98
        0
  0
HATCH
  5
CD
330
1F
100
AcDbEntity
  8
STANDARD
  6
AUSGEZOGEN
 62
   250
420
  2238514
440
 33554687
370
    18
100
AcDbHatch
 10
0.0
 20
0.0
 30
0.0
210
0.0
220
0.0
230
1.0
  2
SOLID
 70
     1
 71
     0
 91
        1
 92
        3
 72
     0
 73
     1
 93
        4
 10
8.035746770137607
 20
4.340025487021303
 10
8.035746770137607
 20
4.337025487021303
 10
8.038746770137607
 20
4.337025487021303
 10
8.038746770137607
 20
4.340025487021303
 97
        0
 75
     0
 76
     1
 98
        0
  0
HATCH
  5
CE
330
1F
100
AcDbEntity
  8
STANDARD
  6
AUSGEZOGEN
 62
   250
420
  2238514
440
 33554687
370
    18
100
AcDbHatch
 10
0.0
 20
0.0
 30
0.0
210
0.0
220
0.0
230
1.0
  2
SOLID
 70
     1
 71
     0
 91
        1
 92
        3
 72
     0
 73
     1
 93
        4
 10
8.035746770137607
 20
4.346025487021303
 10
8.035746770137607
 20
4.343025487021303
 10
8.038746770137607
 20
4.343025487021303
 10
8.038746770137607
 20
4.346025487021303
 97
        0
 75
     0
 76
     1
 98
        0
  0
HATCH
  5
CF
330
1F
100
AcDbEntity
  8
STANDARD
  6
AUSGEZOGEN
 62
   250
420
  2238514
440
 33554687
370
    18
100
AcDbHatch
 10
0.0
 20
0.0
 30
0.0
210
0.0
220
0.0
230
1.0
  2
SOLID
 70
     1
 71
     0
 91
        1
 92
        3
 72
     0
 73
     1
 93
        4
 10
8.035746770137607
 20
4.352025487021303
 10
8.035746770137607
 20
4.349025487021303
 10
8.038746770137607
 20
4.349025487021303
 10
8.038746770137607
 20
4.352025487021303
 97
        0
 75
     0
 76
     1
 98
        0
  0
HATCH
  5
D0
330
1F
100
AcDbEntity
  8
STANDARD
  6
AUSGEZOGEN
 62
   250
420
  2238514
440
 33554687
370
    18
100
AcDbHatch
 10
0.0
 20
0.0
 30
0.0
210
0.0
220
0.0
230
1.0
  2
SOLID
 70
     1
 71
     0
 91
        1
 92
        3
 72
     0
 73
     1
 93
        4
 10
8.035746770137607
 20
4.358025487021303
 10
8.035746770137607
 20
4.355025487021303
 10
8.038746770137607
 20
4.355025487021303
 10
8.038746770137607
 20
4.358025487021303
 97
        0
 75
     0
 76
     1
 98
        0
  0
HATCH
  5
D1
330
1F
100
AcDbEntity
  8
STANDARD
  6
AUSGEZOGEN
 62
   250
420
  2238514
440
 33554687
370
    18
100
AcDbHatch
 10
0.0
 20
0.0
 30
0.0
210
0.0
220
0.0
230
1.0
  2
SOLID
 70
     1
 71
     0
 91
        1
 92
        3
 72
     0
 73
     1
 93
        4
 10
8.035746770137607
 20
4.364025487021303
 10
8.035746770137607
 20
4.361025487021303
 10
8.038746770137607
 20
4.361025487021303
 10
8.038746770137607
 20
4.364025487021303
 97
        0
 75
     0
 76
     1
 98
        0
  0
HATCH
  5
D2
330
1F
100
AcDbEntity
  8
STANDARD
  6
AUSGEZOGEN
 62
   250
420
  2238514
440
 33554687
370
    18
100
AcDbHatch
 10
0.0
 20
0.0
 30
0.0
210
0.0
220
0.0
230
1.0
  2
SOLID
 70
     1
 71
     0
 91
        1
 92
        3
 72
     0
 73
     1
 93
        4
 10
8.035746770137607
 20
4.370025487021303
 10
8.035746770137607
 20
4.367025487021303
 10
8.038746770137607
 20
4.367025487021303
 10
8.038746770137607
 20
4.370025487021303
 97
        0
 75
     0
 76
     1
 98
        0
  0
HATCH
  5
D3
330
1F
100
AcDbEntity
  8
STANDARD
  6
AUSGEZOGEN
 62
   250
420
  2238514
440
 33554687
370
    18
100
AcDbHatch
 10
0.0
 20
0.0
 30
0.0
210
0.0
220
0.0
230
1.0
  2
SOLID
 70
     1
 71
     0
 91
        1
 92
        3
 72
     0
 73
     1
 93
        4
 10
8.035746770137607
 20
4.376025487021303
 10
8.035746770137607
 20
4.373025487021303
 10
8.038746770137607
 20
4.373025487021303
 10
8.038746770137607
 20
4.376025487021303
 97
        0
 75
     0
 76
     1
 98
        0
  0
HATCH
  5
D4
330
1F
100
AcDbEntity
  8
STANDARD
  6
AUSGEZOGEN
 62
   250
420
  2238514
440
 33554687
370
    18
100
AcDbHatch
 10
0.0
 20
0.0
 30
0.0
210
0.0
220
0.0
230
1.0
  2
SOLID
 70
     1
 71
     0
 91
        1
 92
        3
 72
     0
 73
     1
 93
        4
 10
8.035746770137607
 20
4.382025487021303
 10
8.035746770137607
 20
4.379025487021303
 10
8.038746770137607
 20
4.379025487021303
 10
8.038746770137607
 20
4.382025487021303
 97
        0
 75
     0
 76
     1
 98
        0
  0
HATCH
  5
D5
330
1F
100
AcDbEntity
  8
STANDARD
  6
AUSGEZOGEN
 62
   250
420
  2238514
440
 33554687
370
    18
100
AcDbHatch
 10
0.0
 20
0.0
 30
0.0
210
0.0
220
0.0
230
1.0
  2
SOLID
 70
     1
 71
     0
 91
        1
 92
        3
 72
     0
 73
     1
 93
        4
 10
8.035746770137607
 20
4.388025487021303
 10
8.035746770137607
 20
4.385025487021303
 10
8.038746770137607
 20
4.385025487021303
 10
8.038746770137607
 20
4.388025487021303
 97
        0
 75
     0
 76
     1
 98
        0
  0
HATCH
  5
D6
330
1F
100
AcDbEntity
  8
STANDARD
  6
AUSGEZOGEN
 62
   250
420
  2238514
440
 33554687
370
    18
100
AcDbHatch
 10
0.0
 20
0.0
 30
0.0
210
0.0
220
0.0
230
1.0
  2
SOLID
 70
     1
 71
     0
 91
        1
 92
        3
 72
     0
 73
     1
 93
        4
 10
8.035746770137607
 20
4.394025487021303
 10
8.035746770137607
 20
4.391025487021303
 10
8.038746770137607
 20
4.391025487021303
 10
8.038746770137607
 20
4.394025487021303
 97
        0
 75
     0
 76
     1
 98
        0
  0
HATCH
  5
D7
330
1F
100
AcDbEntity
  8
STANDARD
  6
AUSGEZOGEN
 62
   250
420
  2238514
440
 33554687
370
    18
100
AcDbHatch
 10
0.0
 20
0.0
 30
0.0
210
0.0
220
0.0
230
1.0
  2
SOLID
 70
     1
 71
     0
 91
        1
 92
        3
 72
     0
 73
     1
 93
        4
 10
8.035746770137607
 20
4.400025487021303
 10
8.035746770137607
 20
4.397025487021303
 10
8.038746770137607
 20
4.397025487021303
 10
8.038746770137607
 20
4.400025487021303
 97
        0
 75
     0
 76
     1
 98
        0
  0
HATCH
  5
D8
330
1F
100
AcDbEntity
  8
STANDARD
  6
AUSGEZOGEN
 62
   250
420
  2238514
440
 33554687
370
    18
100
AcDbHatch
 10
0.0
 20
0.0
 30
0.0
210
0.0
220
0.0
230
1.0
  2
SOLID
 70
     1
 71
     0
 91
        1
 92
        3
 72
     0
 73
     1
 93
        4
 10
8.035746770137607
 20
4.406025487021303
 10
8.035746770137607
 20
4.403025487021303
 10
8.038746770137607
 20
4.403025487021303
 10
8.038746770137607
 20
4.406025487021303
 97
        0
 75
     0
 76
     1
 98
        0
  0
HATCH
  5
D9
330
1F
100
AcDbEntity
  8
STANDARD
  6
AUSGEZOGEN
 62
   250
420
  2238514
440
 33554687
370
    18
100
AcDbHatch
 10
0.0
 20
0.0
 30
0.0
210
0.0
220
0.0
230
1.0
  2
SOLID
 70
     1
 71
     0
 91
        1
 92
        3
 72
     0
 73
     1
 93
        4
 10
8.035746770137607
 20
4.412025487021303
 10
8.035746770137607
 20
4.409025487021303
 10
8.038746770137607
 20
4.409025487021303
 10
8.038746770137607
 20
4.412025487021303
 97
        0
 75
     0
 76
     1
 98
        0
  0
HATCH
  5
DA
330
1F
100
AcDbEntity
  8
STANDARD
  6
AUSGEZOGEN
 62
   250
420
  2238514
440
 33554687
370
    18
100
AcDbHatch
 10
0.0
 20
0.0
 30
0.0
210
0.0
220
0.0
230
1.0
  2
SOLID
 70
     1
 71
     0
 91
        1
 92
        3
 72
     0
 73
     1
 93
        4
 10
8.035746770137607
 20
4.418025487021303
 10
8.035746770137607
 20
4.415025487021303
 10
8.038746770137607
 20
4.415025487021303
 10
8.038746770137607
 20
4.418025487021303
 97
        0
 75
     0
 76
     1
 98
        0
  0
HATCH
  5
DB
330
1F
100
AcDbEntity
  8
STANDARD
  6
AUSGEZOGEN
 62
   250
420
  2238514
440
 33554687
370
    18
100
AcDbHatch
 10
0.0
 20
0.0
 30
0.0
210
0.0
220
0.0
230
1.0
  2
SOLID
 70
     1
 71
     0
 91
        1
 92
        3
 72
     0
 73
     1
 93
        4
 10
8.035746770137607
 20
4.424025487021303
 10
8.035746770137607
 20
4.421025487021303
 10
8.038746770137607
 20
4.421025487021303
 10
8.038746770137607
 20
4.424025487021303
 97
        0
 75
     0
 76
     1
 98
        0
  0
LINE
  5
DC
330
1F
100
AcDbEntity
  8
STANDARD
  6
AUSGEZOGEN
 62
    16
440
 33554687
370
    18
100
AcDbLine
 10
7.948246747249427
 20
4.41201562328557
 30
0.0
 11
7.952746718639196
 21
4.406015646173755
 31
0.0
  0
ARC
  5
DD
330
1F
100
AcDbEntity
  8
STANDARD
  6
AUSGEZOGEN
 62
    16
440
 33554687
370
    18
100
AcDbCircle
 10
7.954246730083285
 20
4.416515634729661
 30
0.0
 40
0.0074999978542328
100
AcDbArc
 50
90.00010495731675
 51
180.0000359721753
  0
ARC
  5
DE
330
1F
100
AcDbEntity
  8
STANDARD
  6
AUSGEZOGEN
 62
    16
440
 33554687
370
    18
100
AcDbCircle
 10
7.954246730083285
 20
4.416515634729661
 30
0.0
 40
0.0074999978542328
100
AcDbArc
 50
180.0000359721753
 51
216.8699025459053
  0
ARC
  5
DF
330
1F
100
AcDbEntity
  8
STANDARD
  6
AUSGEZOGEN
 62
    16
440
 33554687
370
    18
100
AcDbCircle
 10
7.946746741527375
 20
4.401515640451708
 30
0.0
 40
0.0074999978542328
100
AcDbArc
 50
269.9999974955202
 51
36.86987340391867
  0
LINE
  5
E0
330
1F
100
AcDbEntity
  8
STANDARD
  6
AUSGEZOGEN
 62
    16
440
 33554687
370
    18
100
AcDbLine
 10
7.960246712917145
 20
4.41201562328557
 30
0.0
 11
7.955746735805334
 21
4.406015634729662
 31
0.0
  0
LINE
  5
E1
330
1F
100
AcDbEntity
  8
STANDARD
  6
AUSGEZOGEN
 62
    16
440
 33554687
370
    18
100
AcDbLine
 10
7.963246724361246
 20
4.41201562328557
 30
0.0
 11
7.967746690028966
 21
4.406015646173755
 31
0.0
  0
ARC
  5
E2
330
1F
100
AcDbEntity
  8
STANDARD
  6
AUSGEZOGEN
 62
    16
440
 33554687
370
    18
100
AcDbCircle
 10
7.954246730083285
 20
4.416515634729661
 30
0.0
 40
0.0074999978542328
100
AcDbArc
 50
323.1300958602384
 51
0.0
  0
ARC
  5
E3
330
1F
100
AcDbEntity
  8
STANDARD
  6
AUSGEZOGEN
 62
    16
440
 33554687
370
    18
100
AcDbCircle
 10
7.954246730083285
 20
4.416515634729661
 30
0.0
 40
0.0074999978542328
100
AcDbArc
 50
0.0
 51
90.00012544788414
  0
ARC
  5
E4
330
1F
100
AcDbEntity
  8
STANDARD
  6
AUSGEZOGEN
 62
    16
440
 33554687
370
    18
100
AcDbCircle
 10
7.969246701473056
 20
4.416515634729661
 30
0.0
 40
0.0074999978542328
100
AcDbArc
 50
180.0000359721753
 51
216.8699025459013
  0
ARC
  5
E5
330
1F
100
AcDbEntity
  8
STANDARD
  6
AUSGEZOGEN
 62
    16
440
 33554687
370
    18
100
AcDbCircle
 10
7.961746712917146
 20
4.401515640451708
 30
0.0
 40
0.0074999978542328
100
AcDbArc
 50
269.9999974955202
 51
36.86987340392275
  0
ARC
  5
E6
330
1F
100
AcDbEntity
  8
STANDARD
  6
AUSGEZOGEN
 62
    16
440
 33554687
370
    18
100
AcDbCircle
 10
7.961746712917146
 20
4.401515640451708
 30
0.0
 40
0.0074999978542328
100
AcDbArc
 50
143.1301520956096
 51
269.9999974955202
  0
LINE
  5
E7
330
1F
100
AcDbEntity
  8
STANDARD
  6
AUSGEZOGEN
 62
    96
440
 33554687
370
    25
100
AcDbLine
 10
7.904746770137606
 20
4.424015634729662
 30
0.0
 11
7.916746770137607
 21
4.424015634729662
 31
0.0
  0
ARC
  5
E8
330
1F
100
AcDbEntity
  8
STANDARD
  6
AUSGEZOGEN
 62
    96
440
 33554687
370
    25
100
AcDbCircle
 10
7.904746770137606
 20
4.430015634729662
 30
0.0
 40
0.006
100
AcDbArc
 50
180.0
 51
270.0
  0
LINE
  5
E9
330
1F
100
AcDbEntity
  8
STANDARD
  6
AUSGEZOGEN
 62
    56
440
 33554687
370
    18
100
AcDbLine
 10
7.916746770137607
 20
4.424015634729662
 30
0.0
 11
7.931746770137607
 21
4.424015634729662
 31
0.0
  0
LINE
  5
EA
330
1F
100
AcDbEntity
  8
STANDARD
  6
AUSGEZOGEN
 62
     7
440
 33554687
370
    18
100
AcDbLine
 10
7.931746770137607
 20
4.424015634729662
 30
0.0
 11
7.973746770137606
 21
4.424015634729662
 31
0.0
  0
LINE
  5
EB
330
1F
100
AcDbEntity
  8
STANDARD
  6
AUSGEZOGEN
 62
     7
440
 33554687
370
    35
100
AcDbLine
 10
7.973746770137606
 20
4.424015634729662
 30
0.0
 11
8.038746770137607
 21
4.424015634729662
 31
0.0
  0
LINE
  5
EC
330
1F
100
AcDbEntity
  8
STANDARD
  6
AUSGEZOGEN
 62
     7
440
 33554687
370
    18
100
AcDbLine
 10
8.035746770137607
 20
4.025025487021304
 30
0.0
 11
8.038746770137607
 21
4.025025487021304
 31
0.0
  0
LINE
  5
ED
330
1F
100
AcDbEntity
  8
STANDARD
  6
AUSGEZOGEN
 62
     7
440
 33554687
370
    18
100
AcDbLine
 10
8.035746770137607
 20
4.097025487021303
 30
0.0
 11
8.038746770137607
 21
4.097025487021303
 31
0.0
  0
LINE
  5
EE
330
1F
100
AcDbEntity
  8
STANDARD
  6
AUSGEZOGEN
 62
     7
440
 33554687
370
    18
100
AcDbLine
 10
8.035746770137607
 20
4.169025487021303
 30
0.0
 11
8.038746770137607
 21
4.169025487021303
 31
0.0
  0
LINE
  5
EF
330
1F
100
AcDbEntity
  8
STANDARD
  6
AUSGEZOGEN
 62
     7
440
 33554687
370
    18
100
AcDbLine
 10
8.035746770137607
 20
4.241025487021303
 30
0.0
 11
8.038746770137607
 21
4.241025487021303
 31
0.0
  0
LINE
  5
F0
330
1F
100
AcDbEntity
  8
STANDARD
  6
AUSGEZOGEN
 62
     7
440
 33554687
370
    18
100
AcDbLine
 10
8.035746770137607
 20
4.313025487021303
 30
0.0
 11
8.038746770137607
 21
4.313025487021303
 31
0.0
  0
LINE
  5
F1
330
1F
100
AcDbEntity
  8
STANDARD
  6
AUSGEZOGEN
 62
     7
440
 33554687
370
    18
100
AcDbLine
 10
8.035746770137607
 20
4.385025487021303
 30
0.0
 11
8.038746770137607
 21
4.385025487021303
 31
0.0
  0
ARC
  5
F2
330
1F
100
AcDbEntity
  8
STANDARD
  6
AUSGEZOGEN
 62
    96
440
 33554687
370
    25
100
AcDbCircle
 10
7.904746770137606
 20
4.388015634729662
 30
0.0
 40
0.006
100
AcDbArc
 50
90.0
 51
180.0
  0
ARC
  5
F3
330
1F
100
AcDbEntity
  8
STANDARD
  6
AUSGEZOGEN
 62
     7
440
 33554687
370
    18
100
AcDbCircle
 10
7.838656519868702
 20
4.409015634729653
 30
0.0
 40
0.0639416931124006
100
AcDbArc
 50
344.6146049002763
 51
15.38539509975697
  0
LINE
  5
F4
330
1F
100
AcDbEntity
  8
STANDARD
  6
AUSGEZOGEN
 62
    96
440
 33554687
370
    35
100
AcDbLine
 10
7.898746770137606
 20
4.394015634729661
 30
0.0
 11
7.898761482557076
 21
4.394015634729661
 31
0.0
  0
LINE
  5
F5
330
1F
100
AcDbEntity
  8
STANDARD
  6
AUSGEZOGEN
 62
    56
440
 33554687
370
    18
100
AcDbLine
 10
7.916746770137607
 20
4.394015634729661
 30
0.0
 11
7.931746770137607
 21
4.394015634729661
 31
0.0
  0
LINE
  5
F6
330
1F
100
AcDbEntity
  8
STANDARD
  6
AUSGEZOGEN
 62
    96
440
 33554687
370
    18
100
AcDbLine
 10
7.916746770137607
 20
4.394015634729661
 30
0.0
 11
7.931746770137607
 21
4.394015634729661
 31
0.0
  0
LINE
  5
F7
330
1F
100
AcDbEntity
  8
STANDARD
  6
AUSGEZOGEN
 62
     7
440
 33554687
370
    25
100
AcDbLine
 10
7.904746770137606
 20
4.394015634729661
 30
0.0
 11
7.916746770137607
 21
4.394015634729661
 31
0.0
  0
LINE
  5
F8
330
1F
100
AcDbEntity
  8
STANDARD
  6
AUSGEZOGEN
 62
     7
440
 33554687
370
    18
100
AcDbLine
 10
7.931746770137607
 20
4.394015634729661
 30
0.0
 11
7.973746770137606
 21
4.394015634729661
 31
0.0
  0
LINE
  5
F9
330
1F
100
AcDbEntity
  8
STANDARD
  6
AUSGEZOGEN
 62
    96
440
 33554687
370
    35
100
AcDbLine
 10
7.973746770137606
 20
4.394015634729661
 30
0.0
 11
8.038746770137607
 21
4.394015634729661
 31
0.0
  0
ARC
  5
FA
330
1F
100
AcDbEntity
  8
STANDARD
  6
AUSGEZOGEN
 62
    16
440
 33554687
370
    18
100
AcDbCircle
 10
7.969246701473056
 20
4.416515634729661
 30
0.0
 40
0.0074999978542328
100
AcDbArc
 50
90.00010495731675
 51
180.0000359721753
  0
LINE
  5
FB
330
1F
100
AcDbEntity
  8
STANDARD
  6
AUSGEZOGEN
 62
    16
440
 33554687
370
    18
100
AcDbLine
 10
7.975246684306915
 20
4.41201562328557
 30
0.0
 11
7.970746707195105
 21
4.406015634729662
 31
0.0
  0
LINE
  5
FC
330
1F
100
AcDbEntity
  8
STANDARD
  6
AUSGEZOGEN
 62
    16
440
 33554687
370
    18
100
AcDbLine
 10
7.978246695751015
 20
4.41201562328557
 30
0.0
 11
7.982746661418735
 21
4.406015646173755
 31
0.0
  0
ARC
  5
FD
330
1F
100
AcDbEntity
  8
STANDARD
  6
AUSGEZOGEN
 62
    16
440
 33554687
370
    18
100
AcDbCircle
 10
7.969246701473056
 20
4.416515634729661
 30
0.0
 40
0.0074999978542328
100
AcDbArc
 50
323.1300958602343
 51
0.0
  0
ARC
  5
FE
330
1F
100
AcDbEntity
  8
STANDARD
  6
AUSGEZOGEN
 62
    16
440
 33554687
370
    18
100
AcDbCircle
 10
7.969246701473056
 20
4.416515634729661
 30
0.0
 40
0.0074999978542328
100
AcDbArc
 50
0.0
 51
90.00012544788414
  0
ARC
  5
FF
330
1F
100
AcDbEntity
  8
STANDARD
  6
AUSGEZOGEN
 62
    16
440
 33554687
370
    18
100
AcDbCircle
 10
7.984246672862827
 20
4.416515634729661
 30
0.0
 40
0.0074999978542328
100
AcDbArc
 50
180.0000359721753
 51
216.8699025459013
  0
ARC
  5
100
330
1F
100
AcDbEntity
  8
STANDARD
  6
AUSGEZOGEN
 62
    16
440
 33554687
370
    18
100
AcDbCircle
 10
7.976746684306915
 20
4.401515640451708
 30
0.0
 40
0.0074999978542328
100
AcDbArc
 50
269.9999974955202
 51
36.86987340392275
  0
ARC
  5
101
330
1F
100
AcDbEntity
  8
STANDARD
  6
AUSGEZOGEN
 62
    16
440
 33554687
370
    18
100
AcDbCircle
 10
7.976746684306915
 20
4.401515640451708
 30
0.0
 40
0.0074999978542328
100
AcDbArc
 50
143.1301520956096
 51
269.9999974955202
  0
ARC
  5
102
330
1F
100
AcDbEntity
  8
STANDARD
  6
AUSGEZOGEN
 62
    16
440
 33554687
370
    18
100
AcDbCircle
 10
7.984246672862825
 20
4.416515634729661
 30
0.0
 40
0.0074999978542328
100
AcDbArc
 50
90.00010495732353
 51
180.0000359721753
  0
LINE
  5
103
330
1F
100
AcDbEntity
  8
STANDARD
  6
AUSGEZOGEN
 62
    16
440
 33554687
370
    18
100
AcDbLine
 10
7.990246655696684
 20
4.41201562328557
 30
0.0
 11
7.985746678584876
 21
4.406015634729662
 31
0.0
  0
LINE
  5
104
330
1F
100
AcDbEntity
  8
STANDARD
  6
AUSGEZOGEN
 62
    16
440
 33554687
370
    18
100
AcDbLine
 10
7.993246667140784
 20
4.41201562328557
 30
0.0
 11
7.997746632808505
 21
4.406015646173755
 31
0.0
  0
ARC
  5
105
330
1F
100
AcDbEntity
  8
STANDARD
  6
AUSGEZOGEN
 62
    16
440
 33554687
370
    18
100
AcDbCircle
 10
7.984246672862825
 20
4.416515634729661
 30
0.0
 40
0.0074999978542328
100
AcDbArc
 50
323.1300958602343
 51
0.0
  0
ARC
  5
106
330
1F
100
AcDbEntity
  8
STANDARD
  6
AUSGEZOGEN
 62
    16
440
 33554687
370
    18
100
AcDbCircle
 10
7.984246672862825
 20
4.416515634729661
 30
0.0
 40
0.0074999978542328
100
AcDbArc
 50
0.0
 51
90.00012544789091
  0
ARC
  5
107
330
1F
100
AcDbEntity
  8
STANDARD
  6
AUSGEZOGEN
 62
    16
440
 33554687
370
    18
100
AcDbCircle
 10
7.999246644252595
 20
4.416515634729661
 30
0.0
 40
0.0074999978542328
100
AcDbArc
 50
180.0000359721753
 51
216.8699025459013
  0
ARC
  5
108
330
1F
100
AcDbEntity
  8
STANDARD
  6
AUSGEZOGEN
 62
    16
440
 33554687
370
    18
100
AcDbCircle
 10
7.991746655696685
 20
4.401515640451708
 30
0.0
 40
0.0074999978542328
100
AcDbArc
 50
269.9999974955202
 51
36.86987340391867
  0
ARC
  5
109
330
1F
100
AcDbEntity
  8
STANDARD
  6
AUSGEZOGEN
 62
    16
440
 33554687
370
    18
100
AcDbCircle
 10
7.991746655696685
 20
4.401515640451708
 30
0.0
 40
0.0074999978542328
100
AcDbArc
 50
143.1301520956055
 51
269.9999974955202
  0
ARC
  5
10A
330
1F
100
AcDbEntity
  8
STANDARD
  6
AUSGEZOGEN
 62
    16
440
 33554687
370
    18
100
AcDbCircle
 10
7.999246644252595
 20
4.416515634729661
 30
0.0
 40
0.0074999978542328
100
AcDbArc
 50
90.00010495731675
 51
180.0000359721753
  0
LINE
  5
10B
330
1F
100
AcDbEntity
  8
STANDARD
  6
AUSGEZOGEN
 62
    16
440
 33554687
370
    18
100
AcDbLine
 10
8.005246627086455
 20
4.41201562328557
 30
0.0
 11
8.000746649974644
 21
4.406015634729662
 31
0.0
  0
LINE
  5
10C
330
1F
100
AcDbEntity
  8
STANDARD
  6
AUSGEZOGEN
 62
    16
440
 33554687
370
    18
100
AcDbLine
 10
8.008246638530554
 20
4.41201562328557
 30
0.0
 11
8.012746604198275
 21
4.406015646173755
 31
0.0
  0
ARC
  5
10D
330
1F
100
AcDbEntity
  8
STANDARD
  6
AUSGEZOGEN
 62
    16
440
 33554687
370
    18
100
AcDbCircle
 10
7.999246644252595
 20
4.416515634729661
 30
0.0
 40
0.0074999978542328
100
AcDbArc
 50
323.1300958602384
 51
0.0
  0
ARC
  5
10E
330
1F
100
AcDbEntity
  8
STANDARD
  6
AUSGEZOGEN
 62
    16
440
 33554687
370
    18
100
AcDbCircle
 10
7.999246644252595
 20
4.416515634729661
 30
0.0
 40
0.0074999978542328
100
AcDbArc
 50
0.0
 51
90.00012544788414
  0
ARC
  5
10F
330
1F
100
AcDbEntity
  8
STANDARD
  6
AUSGEZOGEN
 62
    16
440
 33554687
370
    18
100
AcDbCircle
 10
8.014246615642364
 20
4.416515634729661
 30
0.0
 40
0.0074999978542328
100
AcDbArc
 50
180.0000359721753
 51
216.8699025459013
  0
ARC
  5
110
330
1F
100
AcDbEntity
  8
STANDARD
  6
AUSGEZOGEN
 62
    16
440
 33554687
370
    18
100
AcDbCircle
 10
8.006746627086455
 20
4.401515640451708
 30
0.0
 40
0.0074999978542328
100
AcDbArc
 50
269.9999974955202
 51
36.86987340391867
  0
ARC
  5
111
330
1F
100
AcDbEntity
  8
STANDARD
  6
AUSGEZOGEN
 62
    16
440
 33554687
370
    18
100
AcDbCircle
 10
8.006746627086455
 20
4.401515640451708
 30
0.0
 40
0.0074999978542328
100
AcDbArc
 50
143.1301520956055
 51
269.9999974955202
  0
ARC
  5
112
330
1F
100
AcDbEntity
  8
STANDARD
  6
AUSGEZOGEN
 62
    16
440
 33554687
370
    18
100
AcDbCircle
 10
8.014246615642364
 20
4.416515634729661
 30
0.0
 40
0.0074999978542328
100
AcDbArc
 50
90.00010495731675
 51
180.0000359721753
  0
LINE
  5
113
330
1F
100
AcDbEntity
  8
STANDARD
  6
AUSGEZOGEN
 62
    16
440
 33554687
370
    18
100
AcDbLine
 10
8.020246598476223
 20
4.41201562328557
 30
0.0
 11
8.015746621364412
 21
4.406015634729662
 31
0.0
  0
LINE
  5
114
330
1F
100
AcDbEntity
  8
STANDARD
  6
AUSGEZOGEN
 62
    16
440
 33554687
370
    18
100
AcDbLine
 10
8.023246609920324
 20
4.41201562328557
 30
0.0
 11
8.027746575588043
 21
4.406015646173755
 31
0.0
  0
ARC
  5
115
330
1F
100
AcDbEntity
  8
STANDARD
  6
AUSGEZOGEN
 62
    16
440
 33554687
370
    18
100
AcDbCircle
 10
8.014246615642364
 20
4.416515634729661
 30
0.0
 40
0.0074999978542328
100
AcDbArc
 50
323.1300958602343
 51
0.0
  0
ARC
  5
116
330
1F
100
AcDbEntity
  8
STANDARD
  6
AUSGEZOGEN
 62
    16
440
 33554687
370
    18
100
AcDbCircle
 10
8.014246615642364
 20
4.416515634729661
 30
0.0
 40
0.0074999978542328
100
AcDbArc
 50
0.0
 51
90.00012544788414
  0
ARC
  5
117
330
1F
100
AcDbEntity
  8
STANDARD
  6
AUSGEZOGEN
 62
    16
440
 33554687
370
    18
100
AcDbCircle
 10
8.029246587032134
 20
4.416515634729661
 30
0.0
 40
0.0074999978542328
100
AcDbArc
 50
180.0000359721753
 51
216.8699025459013
  0
ARC
  5
118
330
1F
100
AcDbEntity
  8
STANDARD
  6
AUSGEZOGEN
 62
    16
440
 33554687
370
    18
100
AcDbCircle
 10
8.021746598476224
 20
4.401515640451708
 30
0.0
 40
0.0074999978542328
100
AcDbArc
 50
269.9999974955202
 51
36.86987340391867
  0
ARC
  5
119
330
1F
100
AcDbEntity
  8
STANDARD
  6
AUSGEZOGEN
 62
    16
440
 33554687
370
    18
100
AcDbCircle
 10
8.021746598476224
 20
4.401515640451708
 30
0.0
 40
0.0074999978542328
100
AcDbArc
 50
143.1301520956055
 51
269.9999974955202
  0
ARC
  5
11A
330
1F
100
AcDbEntity
  8
STANDARD
  6
AUSGEZOGEN
 62
    16
440
 33554687
370
    18
100
AcDbCircle
 10
8.029246587032134
 20
4.416515634729661
 30
0.0
 40
0.0074999978542328
100
AcDbArc
 50
90.00010495731675
 51
180.0000359721753
  0
LINE
  5
11B
330
1F
100
AcDbEntity
  8
STANDARD
  6
AUSGEZOGEN
 62
    16
440
 33554687
370
    18
100
AcDbLine
 10
8.035246569865993
 20
4.41201562328557
 30
0.0
 11
8.030746592754184
 21
4.406015634729662
 31
0.0
  0
ARC
  5
11C
330
1F
100
AcDbEntity
  8
STANDARD
  6
AUSGEZOGEN
 62
    16
440
 33554687
370
    18
100
AcDbCircle
 10
8.036746569865993
 20
4.401515640451708
 30
0.0
 40
0.0074999978542328
100
AcDbArc
 50
143.1301520956136
 51
262.3392858776696
  0
ARC
  5
11D
330
1F
100
AcDbEntity
  8
STANDARD
  6
AUSGEZOGEN
 62
    16
440
 33554687
370
    18
100
AcDbCircle
 10
8.029246587032134
 20
4.416515634729661
 30
0.0
 40
0.0074999978542328
100
AcDbArc
 50
29.92360238391324
 51
90.00012544788414
  0
ARC
  5
11E
330
1F
100
AcDbEntity
  8
STANDARD
  6
AUSGEZOGEN
 62
    16
440
 33554687
370
    18
100
AcDbCircle
 10
8.029246587032134
 20
4.416515634729661
 30
0.0
 40
0.0074999978542328
100
AcDbArc
 50
323.1300958602343
 51
330.0763976160926
  0
ARC
  5
11F
330
1F
100
AcDbEntity
  8
STANDARD
  6
AUSGEZOGEN
 62
    16
440
 33554687
370
    18
100
AcDbCircle
 10
8.029246587032134
 20
4.416515634729661
 30
0.0
 40
0.0074999978542328
100
AcDbArc
 50
359.8968279026771
 51
0.0
  0
CIRCLE
  5
120
330
1F
100
AcDbEntity
  8
STANDARD
  6
AUSGEZOGEN
 62
     7
440
 33554687
370
    18
100
AcDbCircle
 10
7.966746770137607
 20
3.99054636184037
 30
0.0
 40
0.002
  0
CIRCLE
  5
121
330
1F
100
AcDbEntity
  8
STANDARD
  6
AUSGEZOGEN
 62
     7
440
 33554687
370
    18
100
AcDbCircle
 10
7.966746770137607
 20
3.98054636184037
 30
0.0
 40
0.002
  0
CIRCLE
  5
122
330
1F
100
AcDbEntity
  8
STANDARD
  6
AUSGEZOGEN
 62
     7
440
 33554687
370
    18
100
AcDbCircle
 10
7.966746770137607
 20
4.00054636184037
 30
0.0
 40
0.002
  0
CIRCLE
  5
123
330
1F
100
AcDbEntity
  8
STANDARD
  6
AUSGEZOGEN
 62
     7
440
 33554687
370
    18
100
AcDbCircle
 10
7.966746770137607
 20
4.01054636184037
 30
0.0
 40
0.002
  0
CIRCLE
  5
124
330
1F
100
AcDbEntity
  8
STANDARD
  6
AUSGEZOGEN
 62
     7
440
 33554687
370
    18
100
AcDbCircle
 10
7.966746770137607
 20
4.020546361840371
 30
0.0
 40
0.002
  0
CIRCLE
  5
125
330
1F
100
AcDbEntity
  8
STANDARD
  6
AUSGEZOGEN
 62
     7
440
 33554687
370
    18
100
AcDbCircle
 10
7.966746770137607
 20
4.03054636184037
 30
0.0
 40
0.002
  0
CIRCLE
  5
126
330
1F
100
AcDbEntity
  8
STANDARD
  6
AUSGEZOGEN
 62
     7
440
 33554687
370
    18
100
AcDbCircle
 10
7.966746770137607
 20
4.04054636184037
 30
0.0
 40
0.002
  0
CIRCLE
  5
127
330
1F
100
AcDbEntity
  8
STANDARD
  6
AUSGEZOGEN
 62
     7
440
 33554687
370
    18
100
AcDbCircle
 10
7.966746770137607
 20
4.05054636184037
 30
0.0
 40
0.002
  0
CIRCLE
  5
128
330
1F
100
AcDbEntity
  8
STANDARD
  6
AUSGEZOGEN
 62
     7
440
 33554687
370
    18
100
AcDbCircle
 10
7.966746770137607
 20
4.060546361840371
 30
0.0
 40
0.002
  0
CIRCLE
  5
129
330
1F
100
AcDbEntity
  8
STANDARD
  6
AUSGEZOGEN
 62
     7
440
 33554687
370
    18
100
AcDbCircle
 10
7.966746770137607
 20
4.07054636184037
 30
0.0
 40
0.002
  0
CIRCLE
  5
12A
330
1F
100
AcDbEntity
  8
STANDARD
  6
AUSGEZOGEN
 62
     7
440
 33554687
370
    18
100
AcDbCircle
 10
7.966746770137607
 20
4.08054636184037
 30
0.0
 40
0.002
  0
CIRCLE
  5
12B
330
1F
100
AcDbEntity
  8
STANDARD
  6
AUSGEZOGEN
 62
     7
440
 33554687
370
    18
100
AcDbCircle
 10
7.966746770137607
 20
4.09054636184037
 30
0.0
 40
0.002
  0
CIRCLE
  5
12C
330
1F
100
AcDbEntity
  8
STANDARD
  6
AUSGEZOGEN
 62
     7
440
 33554687
370
    18
100
AcDbCircle
 10
7.966746770137607
 20
4.100546361840371
 30
0.0
 40
0.002
  0
CIRCLE
  5
12D
330
1F
100
AcDbEntity
  8
STANDARD
  6
AUSGEZOGEN
 62
     7
440
 33554687
370
    18
100
AcDbCircle
 10
7.966746770137607
 20
4.11054636184037
 30
0.0
 40
0.002
  0
CIRCLE
  5
12E
330
1F
100
AcDbEntity
  8
STANDARD
  6
AUSGEZOGEN
 62
     7
440
 33554687
370
    18
100
AcDbCircle
 10
7.966746770137607
 20
4.12054636184037
 30
0.0
 40
0.002
  0
CIRCLE
  5
12F
330
1F
100
AcDbEntity
  8
STANDARD
  6
AUSGEZOGEN
 62
     7
440
 33554687
370
    18
100
AcDbCircle
 10
7.966746770137607
 20
4.13054636184037
 30
0.0
 40
0.002
  0
CIRCLE
  5
130
330
1F
100
AcDbEntity
  8
STANDARD
  6
AUSGEZOGEN
 62
     7
440
 33554687
370
    18
100
AcDbCircle
 10
7.966746770137607
 20
4.14054636184037
 30
0.0
 40
0.002
  0
CIRCLE
  5
131
330
1F
100
AcDbEntity
  8
STANDARD
  6
AUSGEZOGEN
 62
     7
440
 33554687
370
    18
100
AcDbCircle
 10
7.966746770137607
 20
4.15054636184037
 30
0.0
 40
0.002
  0
CIRCLE
  5
132
330
1F
100
AcDbEntity
  8
STANDARD
  6
AUSGEZOGEN
 62
     7
440
 33554687
370
    18
100
AcDbCircle
 10
7.966746770137607
 20
4.16054636184037
 30
0.0
 40
0.002
  0
CIRCLE
  5
133
330
1F
100
AcDbEntity
  8
STANDARD
  6
AUSGEZOGEN
 62
     7
440
 33554687
370
    18
100
AcDbCircle
 10
7.966746770137607
 20
4.17054636184037
 30
0.0
 40
0.002
  0
CIRCLE
  5
134
330
1F
100
AcDbEntity
  8
STANDARD
  6
AUSGEZOGEN
 62
     7
440
 33554687
370
    18
100
AcDbCircle
 10
7.966746770137607
 20
4.18054636184037
 30
0.0
 40
0.002
  0
CIRCLE
  5
135
330
1F
100
AcDbEntity
  8
STANDARD
  6
AUSGEZOGEN
 62
     7
440
 33554687
370
    18
100
AcDbCircle
 10
7.966746770137607
 20
4.19054636184037
 30
0.0
 40
0.002
  0
CIRCLE
  5
136
330
1F
100
AcDbEntity
  8
STANDARD
  6
AUSGEZOGEN
 62
     7
440
 33554687
370
    18
100
AcDbCircle
 10
7.966746770137607
 20
4.20054636184037
 30
0.0
 40
0.002
  0
CIRCLE
  5
137
330
1F
100
AcDbEntity
  8
STANDARD
  6
AUSGEZOGEN
 62
     7
440
 33554687
370
    18
100
AcDbCircle
 10
7.966746770137607
 20
4.21054636184037
 30
0.0
 40
0.002
  0
CIRCLE
  5
138
330
1F
100
AcDbEntity
  8
STANDARD
  6
AUSGEZOGEN
 62
     7
440
 33554687
370
    18
100
AcDbCircle
 10
7.966746770137607
 20
4.22054636184037
 30
0.0
 40
0.002
  0
CIRCLE
  5
139
330
1F
100
AcDbEntity
  8
STANDARD
  6
AUSGEZOGEN
 62
     7
440
 33554687
370
    18
100
AcDbCircle
 10
7.966746770137607
 20
4.23054636184037
 30
0.0
 40
0.002
  0
CIRCLE
  5
13A
330
1F
100
AcDbEntity
  8
STANDARD
  6
AUSGEZOGEN
 62
     7
440
 33554687
370
    18
100
AcDbCircle
 10
7.966746770137607
 20
4.24054636184037
 30
0.0
 40
0.002
  0
CIRCLE
  5
13B
330
1F
100
AcDbEntity
  8
STANDARD
  6
AUSGEZOGEN
 62
     7
440
 33554687
370
    18
100
AcDbCircle
 10
7.966746770137607
 20
4.25054636184037
 30
0.0
 40
0.002
  0
CIRCLE
  5
13C
330
1F
100
AcDbEntity
  8
STANDARD
  6
AUSGEZOGEN
 62
     7
440
 33554687
370
    18
100
AcDbCircle
 10
7.966746770137607
 20
4.26054636184037
 30
0.0
 40
0.002
  0
CIRCLE
  5
13D
330
1F
100
AcDbEntity
  8
STANDARD
  6
AUSGEZOGEN
 62
     7
440
 33554687
370
    18
100
AcDbCircle
 10
7.966746770137607
 20
4.270546361840371
 30
0.0
 40
0.002
  0
CIRCLE
  5
13E
330
1F
100
AcDbEntity
  8
STANDARD
  6
AUSGEZOGEN
 62
     7
440
 33554687
370
    18
100
AcDbCircle
 10
7.966746770137607
 20
4.28054636184037
 30
0.0
 40
0.002
  0
CIRCLE
  5
13F
330
1F
100
AcDbEntity
  8
STANDARD
  6
AUSGEZOGEN
 62
     7
440
 33554687
370
    18
100
AcDbCircle
 10
7.966746770137607
 20
4.29054636184037
 30
0.0
 40
0.002
  0
CIRCLE
  5
140
330
1F
100
AcDbEntity
  8
STANDARD
  6
AUSGEZOGEN
 62
     7
440
 33554687
370
    18
100
AcDbCircle
 10
7.966746770137607
 20
4.30054636184037
 30
0.0
 40
0.002
  0
CIRCLE
  5
141
330
1F
100
AcDbEntity
  8
STANDARD
  6
AUSGEZOGEN
 62
     7
440
 33554687
370
    18
100
AcDbCircle
 10
7.966746770137607
 20
4.310546361840371
 30
0.0
 40
0.002
  0
CIRCLE
  5
142
330
1F
100
AcDbEntity
  8
STANDARD
  6
AUSGEZOGEN
 62
     7
440
 33554687
370
    18
100
AcDbCircle
 10
7.966746770137607
 20
4.32054636184037
 30
0.0
 40
0.002
  0
CIRCLE
  5
143
330
1F
100
AcDbEntity
  8
STANDARD
  6
AUSGEZOGEN
 62
     7
440
 33554687
370
    18
100
AcDbCircle
 10
7.966746770137607
 20
4.33054636184037
 30
0.0
 40
0.002
  0
CIRCLE
  5
144
330
1F
100
AcDbEntity
  8
STANDARD
  6
AUSGEZOGEN
 62
     7
440
 33554687
370
    18
100
AcDbCircle
 10
7.966746770137607
 20
4.34054636184037
 30
0.0
 40
0.002
  0
CIRCLE
  5
145
330
1F
100
AcDbEntity
  8
STANDARD
  6
AUSGEZOGEN
 62
     7
440
 33554687
370
    18
100
AcDbCircle
 10
7.966746770137607
 20
4.350546361840371
 30
0.0
 40
0.002
  0
CIRCLE
  5
146
330
1F
100
AcDbEntity
  8
STANDARD
  6
AUSGEZOGEN
 62
     7
440
 33554687
370
    18
100
AcDbCircle
 10
7.966746770137607
 20
4.36054636184037
 30
0.0
 40
0.002
  0
CIRCLE
  5
147
330
1F
100
AcDbEntity
  8
STANDARD
  6
AUSGEZOGEN
 62
     7
440
 33554687
370
    18
100
AcDbCircle
 10
7.966746770137607
 20
4.37054636184037
 30
0.0
 40
0.002
  0
CIRCLE
  5
148
330
1F
100
AcDbEntity
  8
STANDARD
  6
AUSGEZOGEN
 62
     7
440
 33554687
370
    18
100
AcDbCircle
 10
7.966746770137607
 20
4.38054636184037
 30
0.0
 40
0.002
  0
CIRCLE
  5
149
330
1F
100
AcDbEntity
  8
STANDARD
  6
AUSGEZOGEN
 62
     7
440
 33554687
370
    18
100
AcDbCircle
 10
7.966746770137607
 20
4.390546361840371
 30
0.0
 40
0.002
  0
ELLIPSE
  5
14A
330
1F
100
AcDbEntity
  8
STANDARD
  6
AUSGEZOGEN
 62
     7
440
 33554687
370
    18
100
AcDbEllipse
 10
7.917900985051327
 20
4.40903793968186
 30
0.0
 11
9.171193149447768E-19
 21
0.01497769504780172
 31
0.0
210
0.0
220
0.0
230
1.0
 40
0.5465289962080958
 41
0.0
 42
6.283185307179586
  0
LINE
  5
14B
330
1F
100
AcDbEntity
  8
STANDARD
  6
AUSGEZOGEN
 62
    16
440
 33554687
370
    18
100
AcDbLine
 10
7.933246775859656
 20
4.41201562328557
 30
0.0
 11
7.937746747249427
 21
4.406015646173755
 31
0.0
  0
ARC
  5
14C
330
1F
100
AcDbEntity
  8
STANDARD
  6
AUSGEZOGEN
 62
    16
440
 33554687
370
    18
100
AcDbCircle
 10
7.939246758693515
 20
4.416515634729661
 30
0.0
 40
0.0074999978542328
100
AcDbArc
 50
90.00010495732353
 51
180.0000359721753
  0
ARC
  5
14D
330
1F
100
AcDbEntity
  8
STANDARD
  6
AUSGEZOGEN
 62
    16
440
 33554687
370
    18
100
AcDbCircle
 10
7.939246758693515
 20
4.416515634729661
 30
0.0
 40
0.0074999978542328
100
AcDbArc
 50
180.0000359721753
 51
216.8699025459013
  0
ARC
  5
14E
330
1F
100
AcDbEntity
  8
STANDARD
  6
AUSGEZOGEN
 62
    16
440
 33554687
370
    18
100
AcDbCircle
 10
7.931746770137607
 20
4.401515640451708
 30
0.0
 40
0.0074999978542328
100
AcDbArc
 50
269.9999974955202
 51
36.86987340392275
  0
LINE
  5
14F
330
1F
100
AcDbEntity
  8
STANDARD
  6
AUSGEZOGEN
 62
    16
440
 33554687
370
    18
100
AcDbLine
 10
7.945246741527376
 20
4.41201562328557
 30
0.0
 11
7.940746764415566
 21
4.406015634729662
 31
0.0
  0
ARC
  5
150
330
1F
100
AcDbEntity
  8
STANDARD
  6
AUSGEZOGEN
 62
    16
440
 33554687
370
    18
100
AcDbCircle
 10
7.939246758693515
 20
4.416515634729661
 30
0.0
 40
0.0074999978542328
100
AcDbArc
 50
323.1300958602343
 51
0.0
  0
ARC
  5
151
330
1F
100
AcDbEntity
  8
STANDARD
  6
AUSGEZOGEN
 62
    16
440
 33554687
370
    18
100
AcDbCircle
 10
7.939246758693515
 20
4.416515634729661
 30
0.0
 40
0.0074999978542328
100
AcDbArc
 50
0.0
 51
90.00012544788414
  0
ARC
  5
152
330
1F
100
AcDbEntity
  8
STANDARD
  6
AUSGEZOGEN
 62
    16
440
 33554687
370
    18
100
AcDbCircle
 10
7.946746741527375
 20
4.401515640451708
 30
0.0
 40
0.0074999978542328
100
AcDbArc
 50
143.1301520956055
 51
269.9999974955202
  0
ARC
  5
153
330
1F
100
AcDbEntity
  8
STANDARD
  6
AUSGEZOGEN
 62
    16
440
 33554687
370
    18
100
AcDbCircle
 10
7.924246787303746
 20
4.416515634729661
 30
0.0
 40
0.0074999978542328
100
AcDbArc
 50
323.1300958602384
 51
0.0
  0
ARC
  5
154
330
1F
100
AcDbEntity
  8
STANDARD
  6
AUSGEZOGEN
 62
    16
440
 33554687
370
    18
100
AcDbCircle
 10
7.924246787303746
 20
4.416515634729661
 30
0.0
 40
0.0074999978542328
100
AcDbArc
 50
0.0
 51
90.00012544788414
  0
ARC
  5
155
330
1F
100
AcDbEntity
  8
STANDARD
  6
AUSGEZOGEN
 62
    16
440
 33554687
370
    18
100
AcDbCircle
 10
7.924246787303746
 20
4.416515634729661
 30
0.0
 40
0.0074999978542328
100
AcDbArc
 50
90.00010495731675
 51
118.3035918310858
  0
ARC
  5
156
330
1F
100
AcDbEntity
  8
STANDARD
  6
AUSGEZOGEN
 62
    16
440
 33554687
370
    18
100
AcDbCircle
 10
7.916746798747836
 20
4.401515640451708
 30
0.0
 40
0.0074999978542328
100
AcDbArc
 50
269.9999974955202
 51
276.7897905783605
  0
ARC
  5
157
330
1F
100
AcDbEntity
  8
STANDARD
  6
AUSGEZOGEN
 62
    16
440
 33554687
370
    18
100
AcDbCircle
 10
7.931746770137607
 20
4.401515640451708
 30
0.0
 40
0.0074999978542328
100
AcDbArc
 50
191.9955776760209
 51
269.9999974955202
  0
LINE
  5
158
330
1F
100
AcDbEntity
  8
STANDARD
  6
AUSGEZOGEN
 62
    16
440
 33554687
370
    18
100
AcDbLine
 10
7.930246770137606
 20
4.41201562328557
 30
0.0
 11
7.925947026573869
 21
4.406282613642467
 31
0.0
  0
LINE
  5
159
330
1F
100
AcDbEntity
  8
STANDARD
  6
AUSGEZOGEN
 62
     7
440
 33554687
370
    18
100
AcDbLine
 10
7.819710423712849
 20
4.410410018656614
 30
0.0
 11
7.905749660381085
 21
4.410410018656607
 31
0.0
  0
CIRCLE
  5
15A
330
1F
100
AcDbEntity
  8
STANDARD
  6
AUSGEZOGEN
 62
     7
440
 33554687
370
    18
100
AcDbCircle
 10
7.801919024972345
 20
4.41039583537074
 30
0.0
 40
0.0177913987405051
  0
MTEXT
  5
15B
330
1F
100
AcDbEntity
  8
STANDARD
  6
AUSGEZOGEN
 62
     7
440
 33554687
370
    18
100
AcDbMText
 10
7.795030771905991
 20
4.401628959579621
 30
0.0
 40
0.0175
 41
0.022373525073746
 46
0.0
 71
     7
 72
     5
  1
\W0.99;6
  7
ARIAL
 73
     1
 44
1.0
  0
LINE
  5
15C
330
1F
100
AcDbEntity
  8
STANDARD
  6
AUSGEZOGEN
 62
     7
440
 33554687
370
    18
100
AcDbLine
 10
7.818884446220494
 20
4.465410018656614
 30
0.0
 11
7.886595143996074
 21
4.465410018656614
 31
0.0
  0
CIRCLE
  5
15D
330
1F
100
AcDbEntity
  8
STANDARD
  6
AUSGEZOGEN
 62
     7
440
 33554687
370
    18
100
AcDbCircle
 10
7.801093047479988
 20
4.465315167425117
 30
0.0
 40
0.0177913987405051
  0
MTEXT
  5
15E
330
1F
100
AcDbEntity
  8
STANDARD
  6
AUSGEZOGEN
 62
     7
440
 33554687
370
    18
100
AcDbMText
 10
7.794204794413638
 20
4.456548291633997
 30
0.0
 40
0.0175
 41
0.022373525073746
 46
0.0
 71
     7
 72
     5
  1
\W0.99;7
  7
ARIAL
 73
     1
 44
1.0
  0
LINE
  5
15F
330
1F
100
AcDbEntity
  8
STANDARD
  6
AUSGEZOGEN
 62
     7
440
 33554687
370
    18
100
AcDbLine
 10
7.818884446220494
 20
4.520410018656614
 30
0.0
 11
7.879812051367504
 21
4.520410018656614
 31
0.0
  0
CIRCLE
  5
160
330
1F
100
AcDbEntity
  8
STANDARD
  6
AUSGEZOGEN
 62
     7
440
 33554687
370
    18
100
AcDbCircle
 10
7.801093047479988
 20
4.520453213832468
 30
0.0
 40
0.0177913987405051
  0
MTEXT
  5
161
330
1F
100
AcDbEntity
  8
STANDARD
  6
AUSGEZOGEN
 62
     7
440
 33554687
370
    18
100
AcDbMText
 10
7.794445300904242
 20
4.511738071777998
 30
0.0
 40
0.0175
 41
0.022373525073746
 46
0.0
 71
     7
 72
     5
  1
\W0.99;8
  7
ARIAL
 73
     1
 44
1.0
  0
LINE
  5
162
330
1F
100
AcDbEntity
  8
STANDARD
  6
AUSGEZOGEN
 62
     7
440
 33554687
370
    18
100
AcDbLine
 10
7.818058468728139
 20
4.575410018656614
 30
0.0
 11
7.906158146472674
 21
4.575410018656614
 31
0.0
  0
CIRCLE
  5
163
330
1F
100
AcDbEntity
  8
STANDARD
  6
AUSGEZOGEN
 62
     7
440
 33554687
370
    18
100
AcDbCircle
 10
7.800267069987634
 20
4.575366823480761
 30
0.0
 40
0.0177913987405051
  0
MTEXT
  5
164
330
1F
100
AcDbEntity
  8
STANDARD
  6
AUSGEZOGEN
 62
     7
440
 33554687
370
    18
100
AcDbMText
 10
7.793378816921281
 20
4.567800365938547
 30
0.0
 40
0.0175
 41
0.022373525073746
 46
0.0
 71
     7
 72
     5
  1
\W0.99;5
  7
ARIAL
 73
     1
 44
1.0
  0
LINE
  5
165
330
1F
100
AcDbEntity
  8
STANDARD
  6
AUSGEZOGEN
 62
     7
440
 33554687
370
    18
100
AcDbLine
 10
7.922341342055619
 20
4.630410018656615
 30
0.0
 11
7.819225923680255
 21
4.630410018656614
 31
0.0
  0
CIRCLE
  5
166
330
1F
100
AcDbEntity
  8
STANDARD
  6
AUSGEZOGEN
 62
     7
440
 33554687
370
    18
100
AcDbCircle
 10
7.801434524939751
 20
4.630786167739559
 30
0.0
 40
0.0177913987405051
  0
MTEXT
  5
167
330
1F
100
AcDbEntity
  8
STANDARD
  6
AUSGEZOGEN
 62
     7
440
 33554687
370
    18
100
AcDbMText
 10
7.794546271873399
 20
4.623219710197344
 30
0.0
 40
0.0175
 41
0.022373525073746
 46
0.0
 71
     7
 72
     5
  1
\W0.99;4
  7
ARIAL
 73
     1
 44
1.0
  0
LINE
  5
168
330
1F
100
AcDbEntity
  8
STANDARD
  6
AUSGEZOGEN
 62
     7
440
 33554687
370
    18
100
AcDbLine
 10
7.919537024020649
 20
4.417014443185246
 30
0.0
 11
7.886595143996074
 21
4.465410018656614
 31
0.0
  0
LINE
  5
169
330
1F
100
AcDbEntity
  8
STANDARD
  6
AUSGEZOGEN
 62
     7
440
 33554687
370
    18
100
AcDbLine
 10
7.961513721278511
 20
4.408907816859984
 30
0.0
 11
7.879812051367504
 21
4.520410018656614
 31
0.0
  0
HATCH
  5
16A
330
1F
100
AcDbEntity
  8
STANDARD
  6
AUSGEZOGEN
 62
     9
420
 13092807
440
 33554687
370
    18
100
AcDbHatch
 10
0.0
 20
0.0
 30
0.0
210
0.0
220
0.0
230
1.0
  2
SOLID
 70
     1
 71
     0
 91
        1
 92
        3
 72
     0
 73
     1
 93
       14
 10
7.898746770137606
 20
4.388015634729662
 10
7.898746770137606
 20
4.15554636184037
 10
7.916746770137607
 20
4.15554636184037
 10
7.916746770137607
 20
4.394015634729661
 10
7.904746770137606
 20
4.394015634729661
 10
7.902319182781427
 20
4.393502602893241
 10
7.900306738625066
 20
4.392051241272384
 10
7.899053586975555
 20
4.389909748106244
 10
7.899040431039835
 20
4.389869736695911
 10
7.898951215179875
 20
4.389568549000277
 10
7.898877884533205
 20
4.389263104874568
 10
7.898820640094036
 20
4.388954241519903
 10
7.898779638765396
 20
4.388642805509267
 10
7.898754992929074
 20
4.38832965046712
 97
        0
 75
     0
 76
     1
 98
        0
  0
LINE
  5
16B
330
1F
100
AcDbEntity
  8
STANDARD
  6
AUSGEZOGEN
 62
    96
440
 33554687
370
    25
100
AcDbLine
 10
7.898746770137606
 20
4.15554636184037
 30
0.0
 11
7.898746770137606
 21
4.388015634729662
 31
0.0
  0
LINE
  5
16C
330
1F
100
AcDbEntity
  8
STANDARD
  6
AUSGEZOGEN
 62
     7
440
 33554687
370
    18
100
AcDbLine
 10
7.898746770137606
 20
4.15554636184037
 30
0.0
 11
7.898746770137606
 21
4.153546361840371
 31
0.0
  0
LINE
  5
16D
330
1F
100
AcDbEntity
  8
STANDARD
  6
AUSGEZOGEN
 62
     7
440
 33554687
370
    18
100
AcDbLine
 10
7.898746770137606
 20
4.153546361840371
 30
0.0
 11
7.915918343012859
 21
4.153546361840371
 31
0.0
  0
LINE
  5
16E
330
1F
100
AcDbEntity
  8
STANDARD
  6
AUSGEZOGEN
 62
     7
440
 33554687
370
    18
100
AcDbLine
 10
7.916746770137607
 20
4.15554636184037
 30
0.0
 11
7.931746770137607
 21
4.14054636184037
 31
0.0
  0
HATCH
  5
16F
330
1F
100
AcDbEntity
  8
STANDARD
  6
AUSGEZOGEN
 62
     7
440
 33554687
370
    18
100
AcDbHatch
 10
0.0
 20
0.0
 30
0.0
210
0.0
220
0.0
230
1.0
  2
MUSTER
 70
     0
 71
     0
 91
        1
 92
        0
 93
        4
 72
     1
 10
7.916746770137607
 20
4.394015634729661
 11
7.916746770137607
 21
4.155546361840369
 72
     1
 10
7.916746770137607
 20
4.15554636184037
 11
7.931746770137607
 21
4.140546361840371
 72
     1
 10
7.931746770137607
 20
4.14054636184037
 11
7.931746770137607
 21
4.394015634729661
 72
     1
 10
7.931746770137607
 20
4.394015634729661
 11
7.916746770137607
 21
4.394015634729661
 97
        0
 75
     0
 76
     2
 52
90.00000000000001
 41
0.0375
 77
     0
 78
     2
 53
90.00000000000001
 43
-0.075
 44
0.075
 45
-0.0375
 46
0.0375
 79
     2
 49
0.0375
 49
-0.0375
 53
180.0
 43
-0.075
 44
0.075
 45
-0.0375
 46
-0.0375
 79
     2
 49
0.0375
 49
-0.0375
 98
        0
1001
ACAD
1010
0.0
1020
0.0
1030
0.0
1001
NEM_ODX
1002
{
1000
BZM_DEPEND
1070
     1
1000
BZM_SCALE
1040
5.0
1000
MUSTER
1002
}
  0
LINE
  5
170
330
1F
100
AcDbEntity
  8
STANDARD
  6
AUSGEZOGEN
 62
     7
440
 33554687
370
    18
100
AcDbLine
 10
7.929746770137607
 20
4.139717934715623
 30
0.0
 11
7.915918343012859
 21
4.153546361840371
 31
0.0
  0
HATCH
  5
171
330
1F
100
AcDbEntity
  8
STANDARD
  6
AUSGEZOGEN
 62
   250
420
  2238514
440
 33554687
370
    18
100
AcDbHatch
 10
0.0
 20
0.0
 30
0.0
210
0.0
220
0.0
230
1.0
  2
SOLID
 70
     1
 71
     0
 91
        1
 92
        3
 72
     0
 73
     1
 93
        4
 10
8.035746770137607
 20
3.974025487021303
 10
8.035746770137607
 20
3.971025487021303
 10
8.038746770137607
 20
3.971025487021303
 10
8.038746770137607
 20
3.974025487021303
 97
        0
 75
     0
 76
     1
 98
        0
  0
HATCH
  5
172
330
1F
100
AcDbEntity
  8
STANDARD
  6
AUSGEZOGEN
 62
   250
420
  2238514
440
 33554687
370
    18
100
AcDbHatch
 10
0.0
 20
0.0
 30
0.0
210
0.0
220
0.0
230
1.0
  2
SOLID
 70
     1
 71
     0
 91
        1
 92
        3
 72
     0
 73
     1
 93
        4
 10
8.035746770137607
 20
3.968025487021304
 10
8.035746770137607
 20
3.965025487021304
 10
8.038746770137607
 20
3.965025487021304
 10
8.038746770137607
 20
3.968025487021304
 97
        0
 75
     0
 76
     1
 98
        0
  0
HATCH
  5
173
330
1F
100
AcDbEntity
  8
STANDARD
  6
AUSGEZOGEN
 62
   250
420
  2238514
440
 33554687
370
    18
100
AcDbHatch
 10
0.0
 20
0.0
 30
0.0
210
0.0
220
0.0
230
1.0
  2
SOLID
 70
     1
 71
     0
 91
        1
 92
        3
 72
     0
 73
     1
 93
        4
 10
8.035746770137607
 20
3.962025487021303
 10
8.035746770137607
 20
3.959025487021303
 10
8.038746770137607
 20
3.959025487021303
 10
8.038746770137607
 20
3.962025487021303
 97
        0
 75
     0
 76
     1
 98
        0
  0
HATCH
  5
174
330
1F
100
AcDbEntity
  8
STANDARD
  6
AUSGEZOGEN
 62
   250
420
  2238514
440
 33554687
370
    18
100
AcDbHatch
 10
0.0
 20
0.0
 30
0.0
210
0.0
220
0.0
230
1.0
  2
SOLID
 70
     1
 71
     0
 91
        1
 92
        3
 72
     0
 73
     1
 93
        4
 10
8.035746770137607
 20
3.956025487021304
 10
8.035746770137607
 20
3.953025487021304
 10
8.038746770137607
 20
3.953025487021304
 10
8.038746770137607
 20
3.956025487021304
 97
        0
 75
     0
 76
     1
 98
        0
  0
HATCH
  5
175
330
1F
100
AcDbEntity
  8
STANDARD
  6
AUSGEZOGEN
 62
   250
420
  2238514
440
 33554687
370
    18
100
AcDbHatch
 10
0.0
 20
0.0
 30
0.0
210
0.0
220
0.0
230
1.0
  2
SOLID
 70
     1
 71
     0
 91
        1
 92
        3
 72
     0
 73
     1
 93
        4
 10
8.035746770137607
 20
3.950025487021303
 10
8.035746770137607
 20
3.947025487021304
 10
8.038746770137607
 20
3.947025487021304
 10
8.038746770137607
 20
3.950025487021303
 97
        0
 75
     0
 76
     1
 98
        0
  0
HATCH
  5
176
330
1F
100
AcDbEntity
  8
STANDARD
  6
AUSGEZOGEN
 62
   250
420
  2238514
440
 33554687
370
    18
100
AcDbHatch
 10
0.0
 20
0.0
 30
0.0
210
0.0
220
0.0
230
1.0
  2
SOLID
 70
     1
 71
     0
 91
        1
 92
        3
 72
     0
 73
     1
 93
        4
 10
8.035746770137607
 20
3.944025487021304
 10
8.035746770137607
 20
3.941025487021304
 10
8.038746770137607
 20
3.941025487021304
 10
8.038746770137607
 20
3.944025487021304
 97
        0
 75
     0
 76
     1
 98
        0
  0
HATCH
  5
177
330
1F
100
AcDbEntity
  8
STANDARD
  6
AUSGEZOGEN
 62
   250
420
  2238514
440
 33554687
370
    18
100
AcDbHatch
 10
0.0
 20
0.0
 30
0.0
210
0.0
220
0.0
230
1.0
  2
SOLID
 70
     1
 71
     0
 91
        1
 92
        3
 72
     0
 73
     1
 93
        4
 10
8.035746770137607
 20
3.938025487021303
 10
8.035746770137607
 20
3.935025487021304
 10
8.038746770137607
 20
3.935025487021304
 10
8.038746770137607
 20
3.938025487021303
 97
        0
 75
     0
 76
     1
 98
        0
  0
HATCH
  5
178
330
1F
100
AcDbEntity
  8
STANDARD
  6
AUSGEZOGEN
 62
   250
420
  2238514
440
 33554687
370
    18
100
AcDbHatch
 10
0.0
 20
0.0
 30
0.0
210
0.0
220
0.0
230
1.0
  2
SOLID
 70
     1
 71
     0
 91
        1
 92
        3
 72
     0
 73
     1
 93
        4
 10
8.035746770137607
 20
3.932025487021304
 10
8.035746770137607
 20
3.929025487021303
 10
8.038746770137607
 20
3.929025487021303
 10
8.038746770137607
 20
3.932025487021304
 97
        0
 75
     0
 76
     1
 98
        0
  0
HATCH
  5
179
330
1F
100
AcDbEntity
  8
STANDARD
  6
AUSGEZOGEN
 62
   250
420
  2238514
440
 33554687
370
    18
100
AcDbHatch
 10
0.0
 20
0.0
 30
0.0
210
0.0
220
0.0
230
1.0
  2
SOLID
 70
     1
 71
     0
 91
        1
 92
        3
 72
     0
 73
     1
 93
        4
 10
8.035746770137607
 20
3.926025487021303
 10
8.035746770137607
 20
3.923025487021304
 10
8.038746770137607
 20
3.923025487021304
 10
8.038746770137607
 20
3.926025487021303
 97
        0
 75
     0
 76
     1
 98
        0
  0
HATCH
  5
17A
330
1F
100
AcDbEntity
  8
STANDARD
  6
AUSGEZOGEN
 62
   250
420
  2238514
440
 33554687
370
    18
100
AcDbHatch
 10
0.0
 20
0.0
 30
0.0
210
0.0
220
0.0
230
1.0
  2
SOLID
 70
     1
 71
     0
 91
        1
 92
        3
 72
     0
 73
     1
 93
        4
 10
8.035746770137607
 20
3.920025487021304
 10
8.035746770137607
 20
3.917025487021303
 10
8.038746770137607
 20
3.917025487021303
 10
8.038746770137607
 20
3.920025487021304
 97
        0
 75
     0
 76
     1
 98
        0
  0
HATCH
  5
17B
330
1F
100
AcDbEntity
  8
STANDARD
  6
AUSGEZOGEN
 62
   250
420
  2238514
440
 33554687
370
    18
100
AcDbHatch
 10
0.0
 20
0.0
 30
0.0
210
0.0
220
0.0
230
1.0
  2
SOLID
 70
     1
 71
     0
 91
        1
 92
        3
 72
     0
 73
     1
 93
        4
 10
8.035746770137607
 20
3.914025487021303
 10
8.035746770137607
 20
3.911025487021304
 10
8.038746770137607
 20
3.911025487021304
 10
8.038746770137607
 20
3.914025487021303
 97
        0
 75
     0
 76
     1
 98
        0
  0
HATCH
  5
17C
330
1F
100
AcDbEntity
  8
STANDARD
  6
AUSGEZOGEN
 62
   250
420
  2238514
440
 33554687
370
    18
100
AcDbHatch
 10
0.0
 20
0.0
 30
0.0
210
0.0
220
0.0
230
1.0
  2
SOLID
 70
     1
 71
     0
 91
        1
 92
        3
 72
     0
 73
     1
 93
        4
 10
8.035746770137607
 20
3.908025487021304
 10
8.035746770137607
 20
3.905025487021303
 10
8.038746770137607
 20
3.905025487021303
 10
8.038746770137607
 20
3.908025487021304
 97
        0
 75
     0
 76
     1
 98
        0
  0
HATCH
  5
17D
330
1F
100
AcDbEntity
  8
STANDARD
  6
AUSGEZOGEN
 62
   250
420
  2238514
440
 33554687
370
    18
100
AcDbHatch
 10
0.0
 20
0.0
 30
0.0
210
0.0
220
0.0
230
1.0
  2
SOLID
 70
     1
 71
     0
 91
        1
 92
        3
 72
     0
 73
     1
 93
        4
 10
8.035746770137607
 20
3.902025487021303
 10
8.035746770137607
 20
3.899025487021304
 10
8.038746770137607
 20
3.899025487021304
 10
8.038746770137607
 20
3.902025487021303
 97
        0
 75
     0
 76
     1
 98
        0
  0
HATCH
  5
17E
330
1F
100
AcDbEntity
  8
STANDARD
  6
AUSGEZOGEN
 62
   250
420
  2238514
440
 33554687
370
    18
100
AcDbHatch
 10
0.0
 20
0.0
 30
0.0
210
0.0
220
0.0
230
1.0
  2
SOLID
 70
     1
 71
     0
 91
        1
 92
        3
 72
     0
 73
     1
 93
        4
 10
8.035746770137607
 20
3.896025487021304
 10
8.035746770137607
 20
3.893025487021303
 10
8.038746770137607
 20
3.893025487021303
 10
8.038746770137607
 20
3.896025487021304
 97
        0
 75
     0
 76
     1
 98
        0
  0
HATCH
  5
17F
330
1F
100
AcDbEntity
  8
STANDARD
  6
AUSGEZOGEN
 62
   250
420
  2238514
440
 33554687
370
    18
100
AcDbHatch
 10
0.0
 20
0.0
 30
0.0
210
0.0
220
0.0
230
1.0
  2
SOLID
 70
     1
 71
     0
 91
        1
 92
        3
 72
     0
 73
     1
 93
        4
 10
8.035746770137607
 20
3.890025487021303
 10
8.035746770137607
 20
3.887025487021304
 10
8.038746770137607
 20
3.887025487021304
 10
8.038746770137607
 20
3.890025487021303
 97
        0
 75
     0
 76
     1
 98
        0
  0
HATCH
  5
180
330
1F
100
AcDbEntity
  8
STANDARD
  6
AUSGEZOGEN
 62
   250
420
  2238514
440
 33554687
370
    18
100
AcDbHatch
 10
0.0
 20
0.0
 30
0.0
210
0.0
220
0.0
230
1.0
  2
SOLID
 70
     1
 71
     0
 91
        1
 92
        3
 72
     0
 73
     1
 93
        4
 10
8.035746770137607
 20
3.884025487021304
 10
8.035746770137607
 20
3.881025487021303
 10
8.038746770137607
 20
3.881025487021303
 10
8.038746770137607
 20
3.884025487021304
 97
        0
 75
     0
 76
     1
 98
        0
  0
HATCH
  5
181
330
1F
100
AcDbEntity
  8
STANDARD
  6
AUSGEZOGEN
 62
   250
420
  2238514
440
 33554687
370
    18
100
AcDbHatch
 10
0.0
 20
0.0
 30
0.0
210
0.0
220
0.0
230
1.0
  2
SOLID
 70
     1
 71
     0
 91
        1
 92
        3
 72
     0
 73
     1
 93
        4
 10
8.035746770137607
 20
3.878025487021303
 10
8.035746770137607
 20
3.875025487021304
 10
8.038746770137607
 20
3.875025487021304
 10
8.038746770137607
 20
3.878025487021303
 97
        0
 75
     0
 76
     1
 98
        0
  0
HATCH
  5
182
330
1F
100
AcDbEntity
  8
STANDARD
  6
AUSGEZOGEN
 62
   250
420
  2238514
440
 33554687
370
    18
100
AcDbHatch
 10
0.0
 20
0.0
 30
0.0
210
0.0
220
0.0
230
1.0
  2
SOLID
 70
     1
 71
     0
 91
        1
 92
        3
 72
     0
 73
     1
 93
        4
 10
8.035746770137607
 20
3.872025487021304
 10
8.035746770137607
 20
3.869025487021303
 10
8.038746770137607
 20
3.869025487021303
 10
8.038746770137607
 20
3.872025487021304
 97
        0
 75
     0
 76
     1
 98
        0
  0
HATCH
  5
183
330
1F
100
AcDbEntity
  8
STANDARD
  6
AUSGEZOGEN
 62
   250
420
  2238514
440
 33554687
370
    18
100
AcDbHatch
 10
0.0
 20
0.0
 30
0.0
210
0.0
220
0.0
230
1.0
  2
SOLID
 70
     1
 71
     0
 91
        1
 92
        3
 72
     0
 73
     1
 93
        4
 10
8.035746770137607
 20
3.866025487021303
 10
8.035746770137607
 20
3.863025487021304
 10
8.038746770137607
 20
3.863025487021304
 10
8.038746770137607
 20
3.866025487021303
 97
        0
 75
     0
 76
     1
 98
        0
  0
HATCH
  5
184
330
1F
100
AcDbEntity
  8
STANDARD
  6
AUSGEZOGEN
 62
   250
420
  2238514
440
 33554687
370
    18
100
AcDbHatch
 10
0.0
 20
0.0
 30
0.0
210
0.0
220
0.0
230
1.0
  2
SOLID
 70
     1
 71
     0
 91
        1
 92
        3
 72
     0
 73
     1
 93
        4
 10
8.035746770137607
 20
3.860025487021304
 10
8.035746770137607
 20
3.857025487021303
 10
8.038746770137607
 20
3.857025487021303
 10
8.038746770137607
 20
3.860025487021304
 97
        0
 75
     0
 76
     1
 98
        0
  0
HATCH
  5
185
330
1F
100
AcDbEntity
  8
STANDARD
  6
AUSGEZOGEN
 62
   250
420
  2238514
440
 33554687
370
    18
100
AcDbHatch
 10
0.0
 20
0.0
 30
0.0
210
0.0
220
0.0
230
1.0
  2
SOLID
 70
     1
 71
     0
 91
        1
 92
        3
 72
     0
 73
     1
 93
        4
 10
8.035746770137607
 20
3.854025487021303
 10
8.035746770137607
 20
3.851025487021304
 10
8.038746770137607
 20
3.851025487021304
 10
8.038746770137607
 20
3.854025487021303
 97
        0
 75
     0
 76
     1
 98
        0
  0
CIRCLE
  5
186
330
1F
100
AcDbEntity
  8
STANDARD
  6
AUSGEZOGEN
 62
     7
440
 33554687
370
    18
100
AcDbCircle
 10
7.966746770137607
 20
3.97054636184037
 30
0.0
 40
0.002
  0
LINE
  5
187
330
1F
100
AcDbEntity
  8
STANDARD
  6
AUSGEZOGEN
 62
     7
440
 33554687
370
    18
100
AcDbLine
 10
7.929746770137607
 20
4.139717934715623
 30
0.0
 11
7.929746770137607
 21
3.996341579892472
 31
0.0
  0
LINE
  5
188
330
1F
100
AcDbEntity
  8
STANDARD
  6
AUSGEZOGEN
 62
    56
440
 33554687
370
    18
100
AcDbLine
 10
7.931746770137607
 20
3.997170007017219
 30
0.0
 11
7.931746770137607
 21
4.394015634729661
 31
0.0
  0
LINE
  5
189
330
1F
100
AcDbEntity
  8
STANDARD
  6
VERDECKT
 62
     7
440
 33554687
370
    50
100
AcDbLine
 10
7.931946770137605
 20
3.997370007017218
 30
0.0
 11
7.931946770137605
 21
4.394015634729661
 31
0.0
  0
LINE
  5
18A
330
1F
100
AcDbEntity
  8
STANDARD
  6
AUSGEZOGEN
 62
     7
440
 33554687
370
    18
100
AcDbLine
 10
7.968746770137606
 20
4.394015634729661
 30
0.0
 11
7.968746770137606
 21
3.960570007017217
 31
0.0
  0
LINE
  5
18B
330
1F
100
AcDbEntity
  8
STANDARD
  6
AUSGEZOGEN
 62
    96
440
 33554687
370
    35
100
AcDbLine
 10
7.973746770137606
 20
4.394015634729661
 30
0.0
 11
7.973746770137606
 21
3.955570007017217
 31
0.0
  0
LINE
  5
18C
330
1F
100
AcDbEntity
  8
STANDARD
  6
VERDECKT
 62
     7
440
 33554687
370
    50
100
AcDbLine
 10
7.931946770137605
 20
3.997370007017218
 30
0.0
 11
8.035746770137607
 21
3.893570007017217
 31
0.0
  0
LINE
  5
18D
330
1F
100
AcDbEntity
  8
STANDARD
  6
AUSGEZOGEN
 62
     7
440
 33554687
370
    18
100
AcDbLine
 10
7.931746770137607
 20
3.997170007017219
 30
0.0
 11
8.035463927425134
 21
3.893452849729691
 31
0.0
  0
LINE
  5
18E
330
1F
100
AcDbEntity
  8
STANDARD
  6
AUSGEZOGEN
 62
     7
440
 33554687
370
    18
100
AcDbLine
 10
7.929746770137607
 20
3.996341579892472
 30
0.0
 11
8.033463927425133
 21
3.892624422604946
 31
0.0
  0
LINE
  5
18F
330
1F
100
AcDbEntity
  8
STANDARD
  6
AUSGEZOGEN
 62
     7
440
 33554687
370
    18
100
AcDbLine
 10
8.035746770137607
 20
4.424015634729662
 30
0.0
 11
8.035746770137607
 21
3.893570007017217
 31
0.0
  0
HATCH
  5
190
330
1F
100
AcDbEntity
  8
STANDARD
  6
AUSGEZOGEN
 62
     7
440
 33554687
370
    18
100
AcDbHatch
 10
0.0
 20
0.0
 30
0.0
210
0.0
220
0.0
230
1.0
  2
MUSTER
 70
     0
 71
     0
 91
        1
 92
        0
 93
        4
 72
     1
 10
7.973746770137606
 20
4.394015634729661
 11
7.973746770137606
 21
3.955570007017216
 72
     1
 10
7.973746770137606
 20
3.955570007017217
 11
8.035746770137607
 21
3.893570007017217
 72
     1
 10
8.035746770137607
 20
3.893570007017217
 11
8.035746770137607
 21
4.394015634729661
 72
     1
 10
8.035746770137607
 20
4.394015634729661
 11
7.973746770137606
 21
4.394015634729661
 97
        0
 75
     0
 76
     2
 52
90.00000000000001
 41
0.0195
 77
     0
 78
     2
 53
90.00000000000001
 43
-0.039
 44
0.039
 45
-0.0195
 46
0.0195
 79
     2
 49
0.0195
 49
-0.0195
 53
180.0
 43
-0.039
 44
0.039
 45
-0.0195
 46
-0.0195
 79
     2
 49
0.0195
 49
-0.0195
 98
        0
1001
ACAD
1010
0.0
1020
0.0
1030
0.0
1001
NEM_ODX
1002
{
1000
BZM_DEPEND
1070
     0
1000
MUSTER
1002
}
  0
HATCH
  5
191
330
1F
100
AcDbEntity
  8
STANDARD
  6
AUSGEZOGEN
 62
    16
440
 33554687
370
    18
100
AcDbHatch
 10
0.0
 20
0.0
 30
0.0
210
0.0
220
0.0
230
1.0
  2
MUSTER
 70
     0
 71
     0
 91
        1
 92
        0
 93
        5
 72
     1
 10
7.973746770137606
 20
4.394015634729661
 11
7.931746770137607
 21
4.394015634729661
 72
     1
 10
7.931746770137607
 20
4.394015634729661
 11
7.931746770137607
 21
3.997170007017218
 72
     1
 10
7.931746770137607
 20
3.997170007017219
 11
7.943370415314456
 21
3.98554636184037
 72
     1
 10
7.943370415314456
 20
3.98554636184037
 11
7.973746770137606
 21
3.955570007017217
 72
     1
 10
7.973746770137606
 20
3.955570007017217
 11
7.973746770137606
 21
4.394015634729662
 97
        0
 75
     0
 76
     2
 52
90.00000000000001
 41
0.045
 77
     0
 78
     2
 53
90.00000000000001
 43
-0.09
 44
0.09
 45
-0.045
 46
0.045
 79
     2
 49
0.045
 49
-0.045
 53
180.0
 43
-0.09
 44
0.09
 45
-0.045
 46
-0.045
 79
     2
 49
0.045
 49
-0.045
 98
        0
1001
ACAD
1010
0.0
1020
0.0
1030
0.0
1001
NEM_ODX
1002
{
1000
BZM_DEPEND
1070
     1
1000
BZM_SCALE
1040
5.0
1000
MUSTER
1002
}
  0
LINE
  5
192
330
1F
100
AcDbEntity
  8
STANDARD
  6
AUSGEZOGEN
 62
     7
440
 33554687
370
    25
100
AcDbLine
 10
7.916746770137607
 20
4.394015634729661
 30
0.0
 11
7.916746770137607
 21
4.15554636184037
 31
0.0
  0
LINE
  5
193
330
1F
100
AcDbEntity
  8
STANDARD
  6
AUSGEZOGEN
 62
     7
440
 33554687
370
    25
100
AcDbLine
 10
7.916746770137607
 20
4.15554636184037
 30
0.0
 11
7.898746770137606
 21
4.15554636184037
 31
0.0
  0
LINE
  5
194
330
1F
100
AcDbEntity
  8
STANDARD
  6
AUSGEZOGEN
 62
     7
440
 33554687
370
    18
100
AcDbLine
 10
7.897825359102044
 20
3.964118709457794
 30
0.0
 11
7.94318221550399
 21
3.982906134526089
 31
0.0
  0
MTEXT
  5
195
330
1F
100
AcDbEntity
  8
STANDARD
  6
AUSGEZOGEN
 62
     7
440
 33554687
370
    25
100
AcDbMText
 10
7.812272097939587
 20
3.975361873515574
 30
0.0
 40
0.0075
 41
0.0897656537350031
 46
0.0
 71
     1
 72
     5
  1
\A1;{\fArial|i0|b0;\H0.007500;\W1.000000;\C7;systembezogener }\P{\fArial|i0|b0;\H0.007500;\W1.000000;\C7;Feuchteschutz}\P
  7
ARIAL
 73
     1
 44
1.024096385542169
  0
LINE
  5
196
330
1F
100
AcDbEntity
  8
STANDARD
  6
AUSGEZOGEN
 62
     7
440
 33554687
370
    18
100
AcDbLine
 10
7.820877878664966
 20
4.690410018656615
 30
0.0
 11
7.950443824043501
 21
4.690410018656615
 31
0.0
  0
MTEXT
  5
197
330
1F
100
AcDbEntity
  8
STANDARD
  6
AUSGEZOGEN
 62
     7
440
 33554687
370
    18
100
AcDbMText
 10
7.796198226858108
 20
4.682857744400274
 30
0.0
 40
0.0175
 41
0.0223735250737475
 46
0.0
 71
     7
 72
     5
  1
\W0.99;2
  7
ARIAL
 73
     1
 44
1.0
  0
CIRCLE
  5
198
330
1F
100
AcDbEntity
  8
STANDARD
  6
AUSGEZOGEN
 62
     7
440
 33554687
370
    18
100
AcDbCircle
 10
7.803086479924461
 20
4.690424201942489
 30
0.0
 40
0.0177913987405051
  0
LINE
  5
199
330
1F
100
AcDbEntity
  8
STANDARD
  6
AUSGEZOGEN
 62
     7
440
 33554687
370
    18
100
AcDbLine
 10
7.820051901172612
 20
4.745410018656615
 30
0.0
 11
8.0404391144637
 21
4.745410018656615
 31
0.0
  0
MTEXT
  5
19A
330
1F
100
AcDbEntity
  8
STANDARD
  6
AUSGEZOGEN
 62
     7
440
 33554687
370
    18
100
AcDbMText
 10
7.795372249365753
 20
4.737801020334302
 30
0.0
 40
0.0175
 41
0.0216048387096772
 46
0.0
 71
     7
 72
     5
  1
\W0.90;1
  7
ARIAL
 73
     1
 44
1.0
  0
CIRCLE
  5
19B
330
1F
100
AcDbEntity
  8
STANDARD
  6
AUSGEZOGEN
 62
     7
440
 33554687
370
    18
100
AcDbCircle
 10
7.802260502432106
 20
4.745367477876516
 30
0.0
 40
0.0177913987405051
  0
HATCH
  5
19C
330
1F
100
AcDbEntity
  8
STANDARD
  6
AUSGEZOGEN
 62
    16
440
 33554687
370
    18
100
AcDbHatch
 10
0.0
 20
0.0
 30
0.0
210
0.0
220
0.0
230
1.0
  2
MUSTER
 70
     0
 71
     0
 91
        1
 92
        0
 93
        4
 72
     1
 10
7.973746770137606
 20
4.772484907618953
 11
7.931746770137607
 21
4.772484907618953
 72
     1
 10
7.931746770137607
 20
4.772484907618953
 11
7.931746770137607
 21
4.424015634729662
 72
     1
 10
7.931746770137607
 20
4.424015634729662
 11
7.973746770137606
 21
4.424015634729662
 72
     1
 10
7.973746770137606
 20
4.424015634729662
 11
7.973746770137606
 21
4.772484907618953
 97
        0
 75
     0
 76
     2
 52
90.00000000000001
 41
0.045
 77
     0
 78
     2
 53
90.00000000000001
 43
-0.09
 44
0.09
 45
-0.045
 46
0.045
 79
     2
 49
0.045
 49
-0.045
 53
180.0
 43
-0.09
 44
0.09
 45
-0.045
 46
-0.045
 79
     2
 49
0.045
 49
-0.045
 98
        0
1001
ACAD
1010
0.0
1020
0.0
1030
0.0
1001
NEM_ODX
1002
{
1000
BZM_DEPEND
1070
     1
1000
BZM_SCALE
1040
5.0
1000
MUSTER
1002
}
  0
HATCH
  5
19D
330
1F
100
AcDbEntity
  8
STANDARD
  6
AUSGEZOGEN
 62
     7
440
 33554687
370
    18
100
AcDbHatch
 10
0.0
 20
0.0
 30
0.0
210
0.0
220
0.0
230
1.0
  2
MUSTER
 70
     0
 71
     0
 91
        1
 92
        0
 93
        4
 72
     1
 10
7.931746770137607
 20
4.424015634729662
 11
7.931746770137607
 21
4.772484907618953
 72
     1
 10
7.931746770137607
 20
4.772484907618953
 11
7.916746770137607
 21
4.772484907618953
 72
     1
 10
7.916746770137607
 20
4.772484907618953
 11
7.916746770137607
 21
4.424015634729662
 72
     1
 10
7.916746770137607
 20
4.424015634729662
 11
7.931746770137607
 21
4.424015634729662
 97
        0
 75
     0
 76
     2
 52
90.00000000000001
 41
0.0375
 77
     0
 78
     2
 53
90.00000000000001
 43
-0.075
 44
0.075
 45
-0.0375
 46
0.0375
 79
     2
 49
0.0375
 49
-0.0375
 53
180.0
 43
-0.075
 44
0.075
 45
-0.0375
 46
-0.0375
 79
     2
 49
0.0375
 49
-0.0375
 98
        0
1001
ACAD
1010
0.0
1020
0.0
1030
0.0
1001
NEM_ODX
1002
{
1000
BZM_DEPEND
1070
     1
1000
BZM_SCALE
1040
5.0
1000
MUSTER
1002
}
  0
HATCH
  5
19E
330
1F
100
AcDbEntity
  8
STANDARD
  6
AUSGEZOGEN
 62
     9
420
 13092807
440
 33554687
370
    18
100
AcDbHatch
 10
0.0
 20
0.0
 30
0.0
210
0.0
220
0.0
230
1.0
  2
SOLID
 70
     1
 71
     0
 91
        1
 92
        3
 72
     0
 73
     1
 93
       14
 10
7.898746770137606
 20
4.772484907618953
 10
7.898746770137606
 20
4.430015634729662
 10
7.898754992929074
 20
4.429701618992204
 10
7.898779638765396
 20
4.429388463950056
 10
7.898820640094036
 20
4.42907702793942
 10
7.898877884533205
 20
4.428768164584755
 10
7.898951215179875
 20
4.428462720459046
 10
7.899040431039835
 20
4.428161532763411
 10
7.899053586975555
 20
4.42812152135308
 10
7.900306738625066
 20
4.425980028186939
 10
7.902319182781427
 20
4.424528666566083
 10
7.904746770137606
 20
4.424015634729662
 10
7.916746770137607
 20
4.424015634729662
 10
7.916746770137607
 20
4.772484907618953
 97
        0
 75
     0
 76
     1
 98
        0
  0
LINE
  5
19F
330
1F
100
AcDbEntity
  8
STANDARD
  6
AUSGEZOGEN
 62
    96
440
 33554687
370
    25
100
AcDbLine
 10
7.916746770137607
 20
4.772484907618953
 30
0.0
 11
7.916746770137607
 21
4.424015634729662
 31
0.0
  0
LINE
  5
1A0
330
1F
100
AcDbEntity
  8
STANDARD
  6
AUSGEZOGEN
 62
    96
440
 33554687
370
    25
100
AcDbLine
 10
7.898746770137606
 20
4.772484907618953
 30
0.0
 11
7.898746770137606
 21
4.430015634729662
 31
0.0
  0
LINE
  5
1A1
330
1F
100
AcDbEntity
  8
STANDARD
  6
AUSGEZOGEN
 62
    56
440
 33554687
370
    18
100
AcDbLine
 10
7.931746770137607
 20
4.772484907618953
 30
0.0
 11
7.931746770137607
 21
4.424015634729662
 31
0.0
  0
LINE
  5
1A2
330
1F
100
AcDbEntity
  8
STANDARD
  6
AUSGEZOGEN
 62
   176
440
 33554687
370
    35
100
AcDbLine
 10
7.973746770137606
 20
4.772484907618953
 30
0.0
 11
7.973746770137606
 21
4.424015634729662
 31
0.0
  0
LINE
  5
1A3
330
1F
100
AcDbEntity
  8
STANDARD
  6
VERDECKT
 62
     7
440
 33554687
370
    50
100
AcDbLine
 10
7.931946770137605
 20
4.772484907618953
 30
0.0
 11
7.931946770137605
 21
4.424015634729662
 31
0.0
  0
HATCH
  5
1A4
330
1F
100
AcDbEntity
  8
STANDARD
  6
AUSGEZOGEN
 62
   250
420
  2238514
440
 33554687
370
    18
100
AcDbHatch
 10
0.0
 20
0.0
 30
0.0
210
0.0
220
0.0
230
1.0
  2
SOLID
 70
     1
 71
     0
 91
        1
 92
        3
 72
     0
 73
     1
 93
        4
 10
8.035746770137607
 20
3.856025487021304
 10
8.035746770137607
 20
3.853025487021303
 10
8.038746770137607
 20
3.853025487021303
 10
8.038746770137607
 20
3.856025487021304
 97
        0
 75
     0
 76
     1
 98
        0
  0
HATCH
  5
1A5
330
1F
100
AcDbEntity
  8
STANDARD
  6
AUSGEZOGEN
 62
   250
420
  2238514
440
 33554687
370
    18
100
AcDbHatch
 10
0.0
 20
0.0
 30
0.0
210
0.0
220
0.0
230
1.0
  2
SOLID
 70
     1
 71
     0
 91
        1
 92
        3
 72
     0
 73
     1
 93
        4
 10
8.035746770137607
 20
3.850025487021303
 10
8.035746770137607
 20
3.847025487021304
 10
8.038746770137607
 20
3.847025487021304
 10
8.038746770137607
 20
3.850025487021303
 97
        0
 75
     0
 76
     1
 98
        0
  0
LINE
  5
1A6
330
1F
100
AcDbEntity
  8
STANDARD
  6
STRICHPUNKT
 62
     7
440
 33554687
370
    18
100
AcDbLine
 10
7.982723309165424
 20
3.8453986944132
 30
0.0
 11
8.421131427062866
 21
3.8453986944132
 31
0.0
  0
LINE
  5
1A7
330
1F
100
AcDbEntity
  8
STANDARD
  6
AUSGEZOGEN
 62
     7
440
 33554687
370
    18
100
AcDbLine
 10
8.038746770137607
 20
4.424015634729662
 30
0.0
 11
8.038746770137607
 21
3.8453986944132
 31
0.0
  0
LINE
  5
1A8
330
1F
100
AcDbEntity
  8
STANDARD
  6
VERDECKT
 62
     7
440
 33554687
370
    50
100
AcDbLine
 10
8.035746770137607
 20
3.893570007017217
 30
0.0
 11
8.035746770137607
 21
3.8453986944132
 31
0.0
  0
LINE
  5
1A9
330
1F
100
AcDbEntity
  8
STANDARD
  6
AUSGEZOGEN
 62
     7
440
 33554687
370
    18
100
AcDbLine
 10
8.033463927425133
 20
3.892624422604946
 30
0.0
 11
8.033463927425133
 21
3.8453986944132
 31
0.0
  0
LINE
  5
1AA
330
1F
100
AcDbEntity
  8
STANDARD
  6
AUSGEZOGEN
 62
     7
440
 33554687
370
    18
100
AcDbLine
 10
8.035463927425134
 20
3.893452849729692
 30
0.0
 11
8.035463927425134
 21
3.8453986944132
 31
0.0
  0
HATCH
  5
1AB
330
1F
100
AcDbEntity
  8
STANDARD
  6
AUSGEZOGEN
 62
     9
420
 12959919
440
 33554687
370
    18
100
AcDbHatch
 10
0.0
 20
0.0
 30
0.0
210
0.0
220
0.0
230
1.0
  2
SOLID
 70
     1
 71
     0
 91
        1
 92
        3
 72
     0
 73
     1
 93
       12
 10
7.929746770137607
 20
4.139717934715623
 10
7.929746770137607
 20
3.996341579892472
 10
8.033463927425133
 20
3.892624422604946
 10
8.033463927425133
 20
3.8453986944132
 10
8.035463927425134
 20
3.8453986944132
 10
8.035463927425134
 20
3.893452849729692
 10
7.931746770137607
 20
3.997170007017219
 10
7.931746770137607
 20
4.14054636184037
 10
7.916746770137607
 20
4.15554636184037
 10
7.898746770137606
 20
4.15554636184037
 10
7.898746770137606
 20
4.153546361840371
 10
7.915918343012859
 20
4.153546361840371
 97
        0
 75
     0
 76
     1
 98
        0
  0
HATCH
  5
1AC
330
1F
100
AcDbEntity
  8
STANDARD
  6
AUSGEZOGEN
 62
    16
440
 33554687
370
    18
100
AcDbHatch
 10
0.0
 20
0.0
 30
0.0
210
0.0
220
0.0
230
1.0
  2
MUSTER
 70
     0
 71
     0
 91
        1
 92
        0
 93
        6
 72
     1
 10
7.973746770137606
 20
4.772484907618953
 11
7.973746770137606
 21
4.424015634729662
 72
     1
 10
7.973746770137606
 20
4.424015634729662
 11
8.038746770137607
 21
4.424015634729662
 72
     1
 10
8.038746770137607
 20
4.424015634729662
 11
8.038746770137607
 21
3.8453986944132
 72
     1
 10
8.038746770137607
 20
3.8453986944132
 11
8.401131427062866
 21
3.8453986944132
 72
     1
 10
8.401131427062866
 20
3.8453986944132
 11
8.401131427062866
 21
4.772484907618953
 72
     1
 10
8.401131427062866
 20
4.772484907618953
 11
7.973746770137606
 21
4.772484907618953
 97
        0
 75
     0
 76
     2
 52
90.00000000000001
 41
0.015
 77
     0
 78
     2
 53
90.00000000000001
 43
-0.03
 44
0.03
 45
-0.015
 46
0.015
 79
     2
 49
0.015
 49
-0.015
 53
180.0
 43
-0.03
 44
0.03
 45
-0.015
 46
-0.015
 79
     2
 49
0.015
 49
-0.015
 98
        0
1001
ACAD
1010
0.0
1020
0.0
1030
0.0
1001
NEM_ODX
1002
{
1000
BZM_DEPEND
1070
     1
1000
BZM_SCALE
1040
5.0
1000
MUSTER
1002
}
  0
LINE
  5
1AD
330
1F
100
AcDbEntity
  8
STANDARD
  6
STRICHPUNKT
 62
    16
440
 33554687
370
    18
100
AcDbLine
 10
7.878746770137607
 20
4.772484907618953
 30
0.0
 11
8.421131427062866
 21
4.772484907618953
 31
0.0
  0
LINE
  5
1AE
330
1F
100
AcDbEntity
  8
STANDARD
  6
AUSGEZOGEN
 62
     7
440
 33554687
370
    18
100
AcDbLine
 10
7.908746770137607
 20
3.991229809376411
 30
0.0
 11
8.015000117424439
 21
3.884976462089579
 31
0.0
  0
LINE
  5
1AF
330
1F
100
AcDbEntity
  8
STANDARD
  6
AUSGEZOGEN
 62
     7
440
 33554687
370
    18
100
AcDbLine
 10
7.913746770137607
 20
3.993300877188276
 30
0.0
 11
8.020000117424438
 21
3.887047529901444
 31
0.0
  0
LINE
  5
1B0
330
1F
100
AcDbEntity
  8
STANDARD
  6
AUSGEZOGEN
 62
     7
440
 33554687
370
    18
100
AcDbLine
 10
7.908746770137607
 20
4.14854636184037
 30
0.0
 11
7.913746770137607
 21
4.14854636184037
 31
0.0
  0
LINE
  5
1B1
330
1F
100
AcDbEntity
  8
STANDARD
  6
AUSGEZOGEN
 62
     7
440
 33554687
370
    18
100
AcDbLine
 10
7.913746770137607
 20
4.14854636184037
 30
0.0
 11
7.913746770137607
 21
3.993300877188276
 31
0.0
  0
LINE
  5
1B2
330
1F
100
AcDbEntity
  8
STANDARD
  6
AUSGEZOGEN
 62
     7
440
 33554687
370
    18
100
AcDbLine
 10
7.908746770137607
 20
4.14854636184037
 30
0.0
 11
7.908746770137607
 21
3.991229809376411
 31
0.0
  0
LINE
  5
1B3
330
1F
100
AcDbEntity
  8
STANDARD
  6
AUSGEZOGEN
 62
     7
440
 33554687
370
    18
100
AcDbLine
 10
8.020000117424438
 20
3.887047529901444
 30
0.0
 11
8.02000011742444
 21
3.8453986944132
 31
0.0
  0
LINE
  5
1B4
330
1F
100
AcDbEntity
  8
STANDARD
  6
AUSGEZOGEN
 62
     7
440
 33554687
370
    18
100
AcDbLine
 10
8.015000117424439
 20
3.884976462089579
 30
0.0
 11
8.01500011742444
 21
3.8453986944132
 31
0.0
  0
HATCH
  5
1B5
330
1F
100
AcDbEntity
  8
STANDARD
  6
AUSGEZOGEN
 62
   254
420
 14277074
440
 33554687
370
    18
100
AcDbHatch
 10
0.0
 20
0.0
 30
0.0
210
0.0
220
0.0
230
1.0
  2
SOLID
 70
     1
 71
     0
 91
        1
 92
        3
 72
     0
 73
     1
 93
        8
 10
7.908746770137607
 20
4.14854636184037
 10
7.908746770137607
 20
3.991229809376411
 10
8.015000117424439
 20
3.884976462089579
 10
8.01500011742444
 20
3.8453986944132
 10
8.02000011742444
 20
3.8453986944132
 10
8.020000117424438
 20
3.887047529901444
 10
7.913746770137607
 20
3.993300877188276
 10
7.913746770137607
 20
4.14854636184037
 97
        0
 75
     0
 76
     1
 98
        0
  0
LINE
  5
1B6
330
1F
100
AcDbEntity
  8
STANDARD
  6
AUSGEZOGEN
 62
     7
440
 33554687
370
    18
100
AcDbLine
 10
7.936538393221601
 20
3.924438158761895
 30
0.0
 11
7.966221590434309
 21
3.936733341621994
 31
0.0
  0
MTEXT
  5
1B7
330
1F
100
AcDbEntity
  8
STANDARD
  6
AUSGEZOGEN
 62
     7
440
 33554687
370
    25
100
AcDbMText
 10
7.866797228751924
 20
3.921907185292442
 30
0.0
 40
0.0075
 41
0.0686354335729201
 46
0.0
 71
     7
 72
     5
  1
\W1.00;Schutzschicht
  7
ARIAL
 73
     1
 44
1.0
  0
HATCH
  5
1B8
330
1F
100
AcDbEntity
  8
STANDARD
  6
AUSGEZOGEN
 62
     7
440
 33554687
370
    18
100
AcDbHatch
 10
0.0
 20
0.0
 30
0.0
210
0.0
220
0.0
230
1.0
  2
MUSTER
 70
     0
 71
     0
 91
        1
 92
        0
 93
        4
 72
     1
 10
7.733689182559853
 20
4.13468767375268
 11
7.733689182559853
 21
4.054039113546097
 72
     1
 10
7.733689182559853
 20
4.054039113546097
 11
7.908746770137607
 21
4.054039113546097
 72
     1
 10
7.908746770137607
 20
4.054039113546097
 11
7.908746770137607
 21
4.13468767375268
 72
     1
 10
7.908746770137607
 20
4.13468767375268
 11
7.733689182559853
 21
4.13468767375268
 97
        0
 75
     0
 76
     2
 52
0.0
 41
0.075
 77
     0
 78
     2
 53
0.0
 43
0.15
 44
0.15
 45
0.075
 46
0.075
 79
     2
 49
0.075
 49
-0.075
 53
90.0
 43
0.15
 44
0.15
 45
-0.075
 46
0.075
 79
     2
 49
0.075
 49
-0.075
 98
        0
1001
ACAD
1010
7733.689182559852
1020
4054.039113546097
1030
0.0
1001
NEM_ODX
1002
{
1000
BZM_DEPEND
1070
     0
1000
MUSTER
1002
}
  0
LINE
  5
1B9
330
1F
100
AcDbEntity
  8
STANDARD
  6
AUSGEZOGEN
 62
     7
440
 33554687
370
    18
100
AcDbLine
 10
7.818680203174702
 20
4.363410018656614
 30
0.0
 11
7.931742527091812
 21
4.363410018656614
 31
0.0
  0
CIRCLE
  5
1BA
330
1F
100
AcDbEntity
  8
STANDARD
  6
AUSGEZOGEN
 62
     7
440
 33554687
370
    18
100
AcDbCircle
 10
7.800888804434195
 20
4.363424201942488
 30
0.0
 40
0.0177913987405051
  0
MTEXT
  5
1BB
330
1F
100
AcDbEntity
  8
STANDARD
  6
AUSGEZOGEN
 62
     7
440
 33554687
370
    18
100
AcDbMText
 10
7.794000551367842
 20
4.355857744400273
 30
0.0
 40
0.0175
 41
0.0223735250737475
 46
0.0
 71
     7
 72
     5
  1
\W0.99;3
  7
ARIAL
 73
     1
 44
1.0
  0
LINE
  5
1BC
330
1F
100
AcDbEntity
  8
STANDARD
  6
AUSGEZOGEN
 62
     7
440
 33554687
370
    18
100
AcDbLine
 10
7.819506180667055
 20
4.316410018656614
 30
0.0
 11
7.94907212604559
 21
4.316410018656614
 31
0.0
  0
CIRCLE
  5
1BD
330
1F
100
AcDbEntity
  8
STANDARD
  6
AUSGEZOGEN
 62
     7
440
 33554687
370
    18
100
AcDbCircle
 10
7.801714781926551
 20
4.316424201942487
 30
0.0
 40
0.0177913987405051
  0
MTEXT
  5
1BE
330
1F
100
AcDbEntity
  8
STANDARD
  6
AUSGEZOGEN
 62
     7
440
 33554687
370
    18
100
AcDbMText
 10
7.786763275899219
 20
4.308775081836203
 30
0.0
 40
0.0175
 41
0.0353819969010271
 46
0.0
 71
     7
 72
     5
  1
\W0.91;11
  7
ARIAL
 73
     1
 44
1.0
  0
LINE
  5
1BF
330
1F
100
AcDbEntity
  8
STANDARD
  6
AUSGEZOGEN
 62
     7
440
 33554687
370
    18
100
AcDbLine
 10
7.966542527091812
 20
4.269410018656614
 30
0.0
 11
7.819506180667055
 21
4.269410018656614
 31
0.0
  0
CIRCLE
  5
1C0
330
1F
100
AcDbEntity
  8
STANDARD
  6
AUSGEZOGEN
 62
     7
440
 33554687
370
    18
100
AcDbCircle
 10
7.801714781926551
 20
4.269410018656615
 30
0.0
 40
0.0177913987405051
  0
MTEXT
  5
1C1
330
1F
100
AcDbEntity
  8
STANDARD
  6
AUSGEZOGEN
 62
     7
440
 33554687
370
    18
100
AcDbMText
 10
7.794826528860197
 20
4.261843561114403
 30
0.0
 40
0.0175
 41
0.022373525073746
 46
0.0
 71
     7
 72
     5
  1
\W0.99;9
  7
ARIAL
 73
     1
 44
1.0
  0
LINE
  5
1C2
330
1F
100
AcDbEntity
  8
STANDARD
  6
AUSGEZOGEN
 62
     7
440
 33554687
370
    18
100
AcDbLine
 10
7.819506180667055
 20
4.222410018656614
 30
0.0
 11
8.006971655824008
 21
4.222410018656614
 31
0.0
  0
CIRCLE
  5
1C3
330
1F
100
AcDbEntity
  8
STANDARD
  6
AUSGEZOGEN
 62
     7
440
 33554687
370
    18
100
AcDbCircle
 10
7.801714781926551
 20
4.223052854152031
 30
0.0
 40
0.0177913987405051
  0
MTEXT
  5
1C4
330
1F
100
AcDbEntity
  8
STANDARD
  6
AUSGEZOGEN
 62
     7
440
 33554687
370
    18
100
AcDbMText
 10
7.78785355694759
 20
4.215486396609818
 30
0.0
 40
0.0175
 41
0.0357550689375512
 46
0.0
 71
     7
 72
     5
  1
\W0.95;13
  7
ARIAL
 73
     1
 44
1.0
  0
LINE
  5
1C5
330
1F
100
AcDbEntity
  8
STANDARD
  6
AUSGEZOGEN
 62
     7
440
 33554687
370
    18
100
AcDbLine
 10
7.819506180667055
 20
4.173410018656614
 30
0.0
 11
8.035542527091811
 21
4.173410018656614
 31
0.0
  0
CIRCLE
  5
1C6
330
1F
100
AcDbEntity
  8
STANDARD
  6
AUSGEZOGEN
 62
     7
440
 33554687
370
    18
100
AcDbCircle
 10
7.801714781926551
 20
4.173410018656614
 30
0.0
 40
0.0177913987405051
  0
MTEXT
  5
1C7
330
1F
100
AcDbEntity
  8
STANDARD
  6
AUSGEZOGEN
 62
     7
440
 33554687
370
    18
100
AcDbMText
 10
7.78728650623037
 20
4.166020917052457
 30
0.0
 40
0.0175
 41
0.0357550689375512
 46
0.0
 71
     7
 72
     5
  1
\W0.95;12
  7
ARIAL
 73
     1
 44
1.0
  0
LINE
  5
1C8
330
1F
100
AcDbEntity
  8
STANDARD
  6
AUSGEZOGEN
 62
     7
440
 33554687
370
    18
100
AcDbLine
 10
7.885302903580714
 20
4.144320326373709
 30
0.0
 11
7.81110080996539
 21
4.142928743373846
 31
0.0
  0
MTEXT
  5
1C9
330
1F
100
AcDbEntity
  8
STANDARD
  6
AUSGEZOGEN
 62
     7
440
 33554687
370
    25
100
AcDbMText
 10
7.828026941063693
 20
4.147387371535549
 30
0.0
 40
0.0075
 41
0.0371359871534821
 46
0.0
 71
     7
 72
     5
  1
\W1.00;Gefälle
  7
ARIAL
 73
     1
 44
1.0
  0
MTEXT
  5
1CA
330
1F
100
AcDbEntity
  8
STANDARD
  6
AUSGEZOGEN
 62
     7
440
 33554687
370
    25
100
AcDbMText
 10
7.797733824107787
 20
4.089978805359817
 30
0.0
 40
0.01
 41
0.0556752339528144
 46
0.0
 71
     7
 72
     5
  1
\W1.00;Kiesbett
  7
ARIAL
 73
     1
 44
1.0
  0
HATCH
  5
1CB
330
1F
100
AcDbEntity
  8
STANDARD
  6
AUSGEZOGEN
 62
     7
440
 33554687
370
    18
100
AcDbHatch
 10
0.0
 20
0.0
 30
0.0
210
0.0
220
0.0
230
1.0
  2
MUSTER
 70
     0
 71
     0
 91
        1
 92
        0
 93
        6
 72
     1
 10
7.733689182559853
 20
4.054039113546097
 11
7.733689182559853
 21
3.8453986944132
 72
     1
 10
7.733689182559853
 20
3.8453986944132
 11
8.01500011742444
 21
3.8453986944132
 72
     1
 10
8.01500011742444
 20
3.8453986944132
 11
8.015000117424439
 21
3.884976462089579
 72
     1
 10
8.015000117424439
 20
3.884976462089579
 11
7.908746770137606
 21
3.991229809376411
 72
     1
 10
7.908746770137607
 20
3.991229809376411
 11
7.908746770137607
 21
4.054039113546097
 72
     1
 10
7.908746770137607
 20
4.054039113546097
 11
7.733689182559853
 21
4.054039113546097
 97
        0
 75
     0
 76
     2
 52
0.0
 41
0.05625
 77
     0
 78
     2
 53
0.0
 43
0.1125
 44
0.1125
 45
0.05625
 46
0.05625
 79
     2
 49
0.05625
 49
-0.05625
 53
90.0
 43
0.1125
 44
0.1125
 45
-0.05625
 46
0.05625
 79
     2
 49
0.05625
 49
-0.05625
 98
        0
1001
ACAD
1010
0.0
1020
0.0
1030
0.0
1001
NEM_ODX
1002
{
1000
BZM_DEPEND
1070
     1
1000
BZM_SCALE
1040
5.0
1000
MUSTER
1002
}
  0
MTEXT
  5
1CC
330
1F
100
AcDbEntity
  8
STANDARD
  6
AUSGEZOGEN
 62
     7
440
 33554687
370
    18
100
AcDbMText
 10
8.476070877434358
 20
3.667507976825779
 30
0.0
 40
0.009
 41
0.1190477141903329
 46
0.0
 71
     7
 72
     5
  1
\W0.91;STAND: Oktober 2020
  7
ARIAL
 73
     1
 44
1.0
  0
MTEXT
  5
1CD
330
1F
100
AcDbEntity
  8
STANDARD
  6
AUSGEZOGEN
 62
     7
440
 33554687
370
    25
100
AcDbMText
 10
7.765801763075867
 20
3.896368350682328
 30
0.0
 40
0.01
 41
0.0775145248305437
 46
0.0
 71
     7
 72
     5
  1
\W1.00;Tragschicht
  7
ARIAL
 73
     1
 44
1.0
  0
ENDSEC
  0
SECTION
  2
OBJECTS
  0
DICTIONARY
  5
C
330
0
100
AcDbDictionary
281
     1
  3
ACAD_DETAILVIEWSTYLE
350
207
  3
ACAD_GROUP
350
D
  3
ACAD_LAYOUT
350
1A
  3
ACAD_MATERIAL
350
43
  3
ACAD_MLEADERSTYLE
350
6B
  3
ACAD_MLINESTYLE
350
17
  3
ACAD_PLOTSETTINGS
350
19
  3
ACAD_PLOTSTYLENAME
350
E
  3
ACAD_SCALELIST
350
47
  3
ACAD_SECTIONVIEWSTYLE
350
208
  3
ACAD_TABLESTYLE
350
69
  3
ACAD_VISUALSTYLE
350
2A
  3
ACDB_RECOMPOSE_DATA
350
204
  3
AcDbVariableDictionary
350
1D0
  0
SUN
  5
6D
330
29
100
AcDbSun
 90
        1
290
     0
 63
     7
421
 16777215
 40
1.0
291
     1
 91
  2455826
 92
 54000000
292
     0
 70
     2
 71
   256
280
     1
  0
DICTIONARY
  5
1CE
330
1F
100
AcDbDictionary
280
     1
281
     1
  3
ACAD_SORTENTS
360
1CF
  0
DICTIONARY
  5
207
102
{ACAD_REACTORS
330
C
102
}
330
C
100
AcDbDictionary
281
     1
  0
DICTIONARY
  5
D
102
{ACAD_REACTORS
330
C
102
}
330
C
100
AcDbDictionary
281
     1
  3
VERBUNDBLOCK_0
350
77
  0
DICTIONARY
  5
1A
102
{ACAD_REACTORS
330
C
102
}
330
C
100
AcDbDictionary
281
     1
  3
Layout1
350
1E
  3
Layout2
350
26
  3
Model
350
22
  0
DICTIONARY
  5
43
102
{ACAD_REACTORS
330
C
102
}
330
C
100
AcDbDictionary
281
     1
  3
ByBlock
350
45
  3
ByLayer
350
44
  3
Global
350
46
  0
DICTIONARY
  5
6B
102
{ACAD_REACTORS
330
C
102
}
330
C
100
AcDbDictionary
281
     1
  3
Standard
350
6C
  0
DICTIONARY
  5
17
102
{ACAD_REACTORS
330
C
102
}
330
C
100
AcDbDictionary
281
     1
  3
Standard
350
18
  0
DICTIONARY
  5
19
102
{ACAD_REACTORS
330
C
102
}
330
C
100
AcDbDictionary
281
     1
  0
ACDBDICTIONARYWDFLT
  5
E
102
{ACAD_REACTORS
330
C
102
}
330
C
100
AcDbDictionary
281
     1
  3
Normal
350
F
100
AcDbDictionaryWithDefault
340
F
  0
DICTIONARY
  5
47
102
{ACAD_REACTORS
330
C
102
}
330
C
100
AcDbDictionary
281
     1
  3
A0
350
48
  3
A1
350
49
  3
A2
350
4A
  3
A3
350
4B
  3
A4
350
4C
  3
A5
350
4D
  3
A6
350
4E
  3
A7
350
4F
  3
A8
350
50
  3
A9
350
51
  3
B0
350
52
  3
B1
350
53
  3
B2
350
54
  3
B3
350
55
  3
B4
350
56
  3
B5
350
57
  3
B6
350
58
  3
B7
350
59
  3
B8
350
5A
  3
B9
350
5B
  3
C0
350
5C
  3
C1
350
5D
  3
C2
350
5E
  3
C3
350
5F
  3
C4
350
60
  3
C5
350
61
  3
C6
350
62
  3
C7
350
63
  3
C8
350
64
  3
C9
350
65
  3
D0
350
66
  3
D1
350
67
  3
D2
350
68
  0
DICTIONARY
  5
208
102
{ACAD_REACTORS
330
C
102
}
330
C
100
AcDbDictionary
281
     1
  0
DICTIONARY
  5
69
102
{ACAD_REACTORS
330
C
102
}
330
C
100
AcDbDictionary
281
     1
  3
Standard
350
6A
  0
DICTIONARY
  5
2A
102
{ACAD_REACTORS
330
C
102
}
330
C
100
AcDbDictionary
281
     1
  3
2dWireframe
350
2F
  3
Basic
350
32
  3
Brighten
350
36
  3
ColorChange
350
3A
  3
Conceptual
350
34
  3
Dim
350
35
  3
EdgeColorOff
350
3D
  3
Facepattern
350
39
  3
Flat
350
2B
  3
FlatWithEdges
350
2C
  3
Gouraud
350
2D
  3
GouraudWithEdges
350
2E
  3
Hidden
350
31
  3
JitterOff
350
3B
  3
Linepattern
350
38
  3
OverhangOff
350
3C
  3
Realistic
350
33
  3
Shaded
350
42
  3
Shaded with edges
350
41
  3
Shades of Gray
350
3E
  3
Sketchy
350
3F
  3
Thicken
350
37
  3
Wireframe
350
30
  3
X-Ray
350
40
  0
XRECORD
  5
204
102
{ACAD_REACTORS
330
C
102
}
330
C
100
AcDbXrecord
280
     1
 90
        1
330
6A
  0
DICTIONARY
  5
1D0
102
{ACAD_REACTORS
330
C
102
}
330
C
100
AcDbDictionary
281
     1
  3
CANNOSCALE
350
1D1
  3
CMLEADERSTYLE
350
206
  3
CTABLESTYLE
350
205
  0
SORTENTSTABLE
  5
1CF
102
{ACAD_REACTORS
330
1CE
102
}
330
1CE
100
AcDbSortentsTable
330
1F
331
7A
  5
E1
331
7B
  5
E2
331
7C
  5
E3
331
7D
  5
E4
331
7E
  5
E5
331
7F
  5
E6
331
80
  5
E7
331
81
  5
E8
331
82
  5
E9
331
83
  5
EA
331
84
  5
EB
331
85
  5
EC
331
86
  5
ED
331
87
  5
EE
331
88
  5
EF
331
89
  5
F0
331
8A
  5
F1
331
8B
  5
F2
331
8C
  5
F3
331
8D
  5
F4
331
8F
  5
F5
331
90
  5
F6
331
91
  5
7A
331
92
  5
7B
331
93
  5
7C
331
94
  5
7D
331
95
  5
7E
331
96
  5
7F
331
97
  5
80
331
98
  5
81
331
99
  5
82
331
9A
  5
83
331
9B
  5
84
331
9C
  5
85
331
9D
  5
86
331
9E
  5
87
331
9F
  5
88
331
A0
  5
89
331
A1
  5
8A
331
A2
  5
8B
331
A3
  5
8C
331
A4
  5
8D
331
A5
  5
8F
331
A6
  5
90
331
A7
  5
91
331
A8
  5
92
331
A9
  5
93
331
AA
  5
94
331
AB
  5
95
331
AC
  5
96
331
AD
  5
97
331
AE
  5
98
331
AF
  5
99
331
B0
  5
9A
331
B1
  5
9B
331
B2
  5
9C
331
B3
  5
9D
331
B4
  5
9E
331
B5
  5
9F
331
B6
  5
A0
331
B7
  5
A1
331
B8
  5
A2
331
B9
  5
A3
331
BA
  5
A4
331
BB
  5
A5
331
BC
  5
A6
331
BD
  5
A7
331
BE
  5
A8
331
BF
  5
A9
331
C0
  5
AA
331
C1
  5
AB
331
C2
  5
AC
331
C3
  5
AD
331
C4
  5
AE
331
C5
  5
AF
331
C6
  5
B0
331
C7
  5
B1
331
C8
  5
B2
331
C9
  5
B3
331
CA
  5
B4
331
CB
  5
B5
331
CC
  5
B6
331
CD
  5
B7
331
CE
  5
B8
331
CF
  5
B9
331
D0
  5
BA
331
D1
  5
BB
331
D2
  5
BC
331
D3
  5
BD
331
D4
  5
BE
331
D5
  5
BF
331
D6
  5
C0
331
D7
  5
C1
331
D8
  5
C2
331
D9
  5
C3
331
DA
  5
C4
331
DB
  5
C5
331
DC
  5
F7
331
DD
  5
F8
331
DE
  5
F9
331
DF
  5
FA
331
E0
  5
FB
331
E1
  5
FC
331
E2
  5
FD
331
E3
  5
FE
331
E4
  5
FF
331
E5
  5
100
331
E6
  5
101
331
E7
  5
102
331
E8
  5
103
331
E9
  5
104
331
EA
  5
105
331
EB
  5
106
331
EC
  5
107
331
ED
  5
108
331
EE
  5
109
331
EF
  5
10A
331
F0
  5
10B
331
F1
  5
10C
331
F2
  5
10D
331
F3
  5
10E
331
F4
  5
10F
331
F5
  5
110
331
F6
  5
111
331
F7
  5
112
331
F8
  5
113
331
F9
  5
114
331
FA
  5
115
331
FB
  5
116
331
FC
  5
117
331
FD
  5
118
331
FE
  5
119
331
FF
  5
11A
331
100
  5
11B
331
101
  5
11C
331
102
  5
11D
331
103
  5
11E
331
104
  5
11F
331
105
  5
120
331
106
  5
121
331
107
  5
122
331
108
  5
123
331
109
  5
124
331
10A
  5
125
331
10B
  5
126
331
10C
  5
127
331
10D
  5
128
331
10E
  5
129
331
10F
  5
12A
331
110
  5
12B
331
111
  5
12C
331
112
  5
12D
331
113
  5
12E
331
114
  5
12F
331
115
  5
130
331
116
  5
131
331
117
  5
132
331
118
  5
133
331
119
  5
134
331
11A
  5
135
331
11B
  5
136
331
11C
  5
137
331
11D
  5
138
331
11E
  5
139
331
11F
  5
13A
331
120
  5
13B
331
121
  5
13C
331
122
  5
13D
331
123
  5
13E
331
124
  5
13F
331
125
  5
140
331
126
  5
141
331
127
  5
142
331
128
  5
143
331
129
  5
144
331
12A
  5
145
331
12B
  5
146
331
12C
  5
147
331
12D
  5
148
331
12E
  5
149
331
12F
  5
14A
331
130
  5
14B
331
131
  5
14C
331
132
  5
14D
331
133
  5
14E
331
134
  5
14F
331
135
  5
150
331
136
  5
151
331
137
  5
152
331
138
  5
153
331
139
  5
154
331
13A
  5
155
331
13B
  5
156
331
13C
  5
157
331
13D
  5
158
331
13E
  5
159
331
13F
  5
15A
331
140
  5
15B
331
141
  5
15C
331
142
  5
15D
331
143
  5
15E
331
144
  5
15F
331
145
  5
160
331
146
  5
161
331
147
  5
162
331
148
  5
163
331
149
  5
164
331
14A
  5
165
331
14B
  5
166
331
14C
  5
167
331
14D
  5
168
331
14E
  5
169
331
14F
  5
16A
331
150
  5
16B
331
151
  5
16C
331
152
  5
16D
331
153
  5
16E
331
154
  5
16F
331
155
  5
170
331
156
  5
171
331
157
  5
172
331
158
  5
173
331
159
  5
174
331
15A
  5
175
331
15B
  5
176
331
15C
  5
177
331
15D
  5
178
331
15E
  5
179
331
15F
  5
17A
331
160
  5
17B
331
161
  5
17C
331
162
  5
17D
331
163
  5
17E
331
164
  5
17F
331
165
  5
180
331
166
  5
181
331
167
  5
182
331
168
  5
183
331
169
  5
184
331
16A
  5
C6
331
16B
  5
185
331
16C
  5
186
331
16D
  5
187
331
16E
  5
188
331
16F
  5
189
331
170
  5
18A
331
171
  5
C7
331
172
  5
C8
331
173
  5
C9
331
174
  5
CA
331
175
  5
CB
331
176
  5
CC
331
177
  5
CD
331
178
  5
CE
331
179
  5
CF
331
17A
  5
D0
331
17B
  5
D1
331
17C
  5
D2
331
17D
  5
D3
331
17E
  5
D4
331
17F
  5
D5
331
180
  5
D6
331
181
  5
D7
331
182
  5
D8
331
183
  5
D9
331
184
  5
DA
331
185
  5
DB
331
186
  5
18B
331
187
  5
18C
331
188
  5
18D
331
189
  5
18E
331
18A
  5
18F
331
18B
  5
190
331
18C
  5
191
331
18D
  5
192
331
18E
  5
193
331
18F
  5
194
331
190
  5
195
331
191
  5
196
331
192
  5
197
331
193
  5
198
331
194
  5
199
331
195
  5
19A
331
196
  5
19B
331
197
  5
19C
331
198
  5
19D
331
199
  5
19E
331
19A
  5
19F
331
19B
  5
1A0
331
19C
  5
1A1
331
19D
  5
1A2
331
19E
  5
DC
331
19F
  5
1A3
331
1A0
  5
1A4
331
1A1
  5
1A5
331
1A2
  5
1A6
331
1A3
  5
1A7
331
1A4
  5
DD
331
1A5
  5
DE
331
1A6
  5
1A8
331
1A7
  5
1A9
331
1A8
  5
1AA
331
1A9
  5
1AB
331
1AA
  5
1AC
331
1AB
  5
DF
331
1AC
  5
1AD
331
1AD
  5
1AE
331
1AE
  5
1AF
331
1AF
  5
1B0
331
1B0
  5
1B1
331
1B1
  5
1B2
331
1B2
  5
1B3
331
1B3
  5
1B4
331
1B4
  5
1B5
331
1B5
  5
E0
  0
GROUP
  5
77
102
{ACAD_REACTORS
330
D
102
}
330
D
100
AcDbGroup
300

 70
     0
 71
     1
340
78
340
79
  0
LAYOUT
  5
1E
102
{ACAD_REACTORS
330
1A
102
}
330
1A
100
AcDbPlotSettings
  1

  2
none_device
  4
none_user_media
  6

 40
6.35
 41
19.05
 42
6.349974599999999
 43
19.0499873
 44
1484.98515
 45
1050.000000210002
 46
7582.617082382763
 47
3563.845277298853
 48
0.0
 49
0.0
140
0.0
141
0.0
142
1000.0
143
1.0
 70
   688
 72
     1
 73
     0
 74
     5
  7

 75
    33
 76
     0
 77
     2
 78
   300
147
1000.0
148
0.0
149
0.0
100
AcDbLayout
  1
Layout1
 70
     1
 71
     1
 10
0.0
 20
0.0
 11
12.0
 21
9.0
 12
0.0
 22
0.0
 32
0.0
 14
1.000000000000000E+20
 24
1.000000000000000E+20
 34
1.000000000000000E+20
 15
-1.000000000000000E+20
 25
-1.000000000000000E+20
 35
-1.000000000000000E+20
146
0.0
 13
0.0
 23
0.0
 33
0.0
 16
1.0
 26
0.0
 36
0.0
 17
0.0
 27
1.0
 37
0.0
 76
     0
330
1B
  0
LAYOUT
  5
26
102
{ACAD_REACTORS
330
1A
102
}
330
1A
100
AcDbPlotSettings
  1

  2
none_device
  4

  6

 40
0.0
 41
0.0
 42
0.0
 43
0.0
 44
0.0
 45
0.0
 46
0.0
 47
0.0
 48
0.0
 49
0.0
140
0.0
141
0.0
142
1.0
143
1.0
 70
   688
 72
     0
 73
     0
 74
     5
  7

 75
    16
 76
     0
 77
     2
 78
   300
147
1.0
148
0.0
149
0.0
100
AcDbLayout
  1
Layout2
 70
     1
 71
     2
 10
0.0
 20
0.0
 11
0.0
 21
0.0
 12
0.0
 22
0.0
 32
0.0
 14
0.0
 24
0.0
 34
0.0
 15
0.0
 25
0.0
 35
0.0
146
0.0
 13
0.0
 23
0.0
 33
0.0
 16
1.0
 26
0.0
 36
0.0
 17
0.0
 27
1.0
 37
0.0
 76
     0
330
23
  0
LAYOUT
  5
22
102
{ACAD_REACTORS
330
1A
102
}
330
1A
100
AcDbPlotSettings
  1

  2
none_device
  4
Letter_(8.50_x_11.00_Inches)
  6

 40
6.35
 41
6.35
 42
6.35000508
 43
6.35000508
 44
215.9
 45
279.4
 46
0.0
 47
0.0
 48
0.0
 49
0.0
140
0.0
141
0.0
142
1.0
143
1.0
 70
  1712
 72
     0
 73
     0
 74
     0
  7

 75
     0
 76
     0
 77
     2
 78
   300
147
1.0
148
0.0
149
0.0
100
AcDbLayout
  1
Model
 70
     1
 71
     0
 10
7.582617082382764
 20
3.563845277298853
 11
8.632617082592766
 21
5.048830427298854
 12
0.0
 22
0.0
 32
0.0
 14
7.582617082382764
 24
3.563845277298853
 34
7.582617082382764
 15
8.632617082592766
 25
5.048830427298854
 35
8.632617082592766
146
0.0
 13
0.0
 23
0.0
 33
0.0
 16
1.0
 26
0.0
 36
0.0
 17
0.0
 27
1.0
 37
0.0
 76
     0
330
1F
331
29
  0
MATERIAL
  5
45
102
{ACAD_REACTORS
330
43
102
}
330
43
100
AcDbMaterial
  1
ByBlock
 72
     1
 94
      127
  0
MATERIAL
  5
44
102
{ACAD_REACTORS
330
43
102
}
330
43
100
AcDbMaterial
  1
ByLayer
 72
     1
 94
      127
  0
MATERIAL
  5
46
102
{ACAD_REACTORS
330
43
102
}
330
43
100
AcDbMaterial
  1
Global
 72
     1
 94
      127
  0
MLEADERSTYLE
  5
6C
102
{ACAD_REACTORS
330
6B
102
}
330
6B
100
AcDbMLeaderStyle
179
     2
170
     2
171
     1
172
     0
 90
        2
 40
0.0
 41
0.0
173
     1
 91
-1056964608
340
14
 92
       -2
290
     1
 42
0.09
291
     1
 43
0.36
  3
Standard
341
0
 44
0.18
300

342
11
174
     1
178
     6
175
     1
176
     0
 93
-1056964608
 45
0.18
292
     0
297
     0
 46
0.18
343
0
 94
-1056964608
 47
1.0
 49
1.0
140
1.0
293
     1
141
0.0
294
     1
177
     0
142
1.0
295
     0
296
     0
143
0.125
271
     0
272
     9
273
     9
  0
MLINESTYLE
  5
18
102
{ACAD_REACTORS
330
17
102
}
330
17
100
AcDbMlineStyle
  2
Standard
 70
     0
  3

 62
   256
 51
90.0
 52
90.0
 71
     2
 49
0.5
 62
   256
  6
BYLAYER
 49
-0.5
 62
   256
  6
BYLAYER
  0
ACDBPLACEHOLDER
  5
F
102
{ACAD_REACTORS
330
E
102
}
330
E
  0
SCALE
  5
48
102
{ACAD_REACTORS
330
47
102
}
330
47
100
AcDbScale
 70
     0
300
1:1
140
1.0
141
1.0
290
     1
  0
SCALE
  5
49
102
{ACAD_REACTORS
330
47
102
}
330
47
100
AcDbScale
 70
     0
300
1:2
140
1.0
141
2.0
290
     0
  0
SCALE
  5
4A
102
{ACAD_REACTORS
330
47
102
}
330
47
100
AcDbScale
 70
     0
300
1:4
140
1.0
141
4.0
290
     0
  0
SCALE
  5
4B
102
{ACAD_REACTORS
330
47
102
}
330
47
100
AcDbScale
 70
     0
300
1:5
140
1.0
141
5.0
290
     0
  0
SCALE
  5
4C
102
{ACAD_REACTORS
330
47
102
}
330
47
100
AcDbScale
 70
     0
300
1:8
140
1.0
141
8.0
290
     0
  0
SCALE
  5
4D
102
{ACAD_REACTORS
330
47
102
}
330
47
100
AcDbScale
 70
     0
300
1:10
140
1.0
141
10.0
290
     0
  0
SCALE
  5
4E
102
{ACAD_REACTORS
330
47
102
}
330
47
100
AcDbScale
 70
     0
300
1:16
140
1.0
141
16.0
290
     0
  0
SCALE
  5
4F
102
{ACAD_REACTORS
330
47
102
}
330
47
100
AcDbScale
 70
     0
300
1:20
140
1.0
141
20.0
290
     0
  0
SCALE
  5
50
102
{ACAD_REACTORS
330
47
102
}
330
47
100
AcDbScale
 70
     0
300
1:30
140
1.0
141
30.0
290
     0
  0
SCALE
  5
51
102
{ACAD_REACTORS
330
47
102
}
330
47
100
AcDbScale
 70
     0
300
1:40
140
1.0
141
40.0
290
     0
  0
SCALE
  5
52
102
{ACAD_REACTORS
330
47
102
}
330
47
100
AcDbScale
 70
     0
300
1:50
140
1.0
141
50.0
290
     0
  0
SCALE
  5
53
102
{ACAD_REACTORS
330
47
102
}
330
47
100
AcDbScale
 70
     0
300
1:100
140
1.0
141
100.0
290
     0
  0
SCALE
  5
54
102
{ACAD_REACTORS
330
47
102
}
330
47
100
AcDbScale
 70
     0
300
2:1
140
2.0
141
1.0
290
     0
  0
SCALE
  5
55
102
{ACAD_REACTORS
330
47
102
}
330
47
100
AcDbScale
 70
     0
300
4:1
140
4.0
141
1.0
290
     0
  0
SCALE
  5
56
102
{ACAD_REACTORS
330
47
102
}
330
47
100
AcDbScale
 70
     0
300
8:1
140
8.0
141
1.0
290
     0
  0
SCALE
  5
57
102
{ACAD_REACTORS
330
47
102
}
330
47
100
AcDbScale
 70
     0
300
10:1
140
10.0
141
1.0
290
     0
  0
SCALE
  5
58
102
{ACAD_REACTORS
330
47
102
}
330
47
100
AcDbScale
 70
     0
300
100:1
140
100.0
141
1.0
290
     0
  0
SCALE
  5
59
102
{ACAD_REACTORS
330
47
102
}
330
47
100
AcDbScale
 70
     0
300
1/128" = 1'-0"
140
0.0078125
141
12.0
290
     0
  0
SCALE
  5
5A
102
{ACAD_REACTORS
330
47
102
}
330
47
100
AcDbScale
 70
     0
300
1/64" = 1'-0"
140
0.015625
141
12.0
290
     0
  0
SCALE
  5
5B
102
{ACAD_REACTORS
330
47
102
}
330
47
100
AcDbScale
 70
     0
300
1/32" = 1'-0"
140
0.03125
141
12.0
290
     0
  0
SCALE
  5
5C
102
{ACAD_REACTORS
330
47
102
}
330
47
100
AcDbScale
 70
     0
300
1/16" = 1'-0"
140
0.0625
141
12.0
290
     0
  0
SCALE
  5
5D
102
{ACAD_REACTORS
330
47
102
}
330
47
100
AcDbScale
 70
     0
300
3/32" = 1'-0"
140
0.09375
141
12.0
290
     0
  0
SCALE
  5
5E
102
{ACAD_REACTORS
330
47
102
}
330
47
100
AcDbScale
 70
     0
300
1/8" = 1'-0"
140
0.125
141
12.0
290
     0
  0
SCALE
  5
5F
102
{ACAD_REACTORS
330
47
102
}
330
47
100
AcDbScale
 70
     0
300
3/16" = 1'-0"
140
0.1875
141
12.0
290
     0
  0
SCALE
  5
60
102
{ACAD_REACTORS
330
47
102
}
330
47
100
AcDbScale
 70
     0
300
1/4" = 1'-0"
140
0.25
141
12.0
290
     0
  0
SCALE
  5
61
102
{ACAD_REACTORS
330
47
102
}
330
47
100
AcDbScale
 70
     0
300
3/8" = 1'-0"
140
0.375
141
12.0
290
     0
  0
SCALE
  5
62
102
{ACAD_REACTORS
330
47
102
}
330
47
100
AcDbScale
 70
     0
300
1/2" = 1'-0"
140
0.5
141
12.0
290
     0
  0
SCALE
  5
63
102
{ACAD_REACTORS
330
47
102
}
330
47
100
AcDbScale
 70
     0
300
3/4" = 1'-0"
140
0.75
141
12.0
290
     0
  0
SCALE
  5
64
102
{ACAD_REACTORS
330
47
102
}
330
47
100
AcDbScale
 70
     0
300
1" = 1'-0"
140
1.0
141
12.0
290
     0
  0
SCALE
  5
65
102
{ACAD_REACTORS
330
47
102
}
330
47
100
AcDbScale
 70
     0
300
1-1/2" = 1'-0"
140
1.5
141
12.0
290
     0
  0
SCALE
  5
66
102
{ACAD_REACTORS
330
47
102
}
330
47
100
AcDbScale
 70
     0
300
3" = 1'-0"
140
3.0
141
12.0
290
     0
  0
SCALE
  5
67
102
{ACAD_REACTORS
330
47
102
}
330
47
100
AcDbScale
 70
     0
300
6" = 1'-0"
140
6.0
141
12.0
290
     0
  0
SCALE
  5
68
102
{ACAD_REACTORS
330
47
102
}
330
47
100
AcDbScale
 70
     0
300
1'-0" = 1'-0"
140
12.0
141
12.0
290
     0
  0
TABLESTYLE
  5
6A
102
{ACAD_REACTORS
330
69
102
}
102
{ACAD_XDICTIONARY
360
202
102
}
330
69
100
AcDbTableStyle
  3
Standard
 70
     0
 71
     0
 40
0.06
 41
0.06
280
     0
281
     0
  7
Standard
140
0.18
170
     2
 62
     0
 63
   257
283
     0
 90
        4
 91
        0
  1

274
    -2
284
     1
 64
     0
275
    -2
285
     1
 65
     0
276
    -2
286
     1
 66
     0
277
    -2
287
     1
 67
     0
278
    -2
288
     1
 68
     0
279
    -2
289
     1
 69
     0
  7
Standard
140
0.25
170
     5
 62
     0
 63
   257
283
     0
 90
        4
 91
        0
  1

274
    -2
284
     1
 64
     0
275
    -2
285
     1
 65
     0
276
    -2
286
     1
 66
     0
277
    -2
287
     1
 67
     0
278
    -2
288
     1
 68
     0
279
    -2
289
     1
 69
     0
  7
Standard
140
0.18
170
     5
 62
     0
 63
   257
283
     0
 90
        4
 91
        0
  1

274
    -2
284
     1
 64
     0
275
    -2
285
     1
 65
     0
276
    -2
286
     1
 66
     0
277
    -2
287
     1
 67
     0
278
    -2
288
     1
 68
     0
279
    -2
289
     1
 69
     0
  0
VISUALSTYLE
  5
2F
102
{ACAD_REACTORS
330
2A
102
}
102
{ACAD_XDICTIONARY
360
1DA
102
}
330
2A
100
AcDbVisualStyle
  2
2dWireframe
 70
     4
177
     2
291
     0
 71
     0
176
     1
 72
     2
176
     1
 73
     0
176
     1
 90
        0
176
     1
 40
0.6
176
     1
 41
30.0
176
     1
 62
     5
 63
     7
421
 16777215
176
     1
 74
     1
176
     1
 91
        4
176
     1
 64
     7
176
     1
 65
   257
176
     1
 75
     1
176
     1
175
     1
176
     1
 42
1.0
176
     1
 92
        0
176
     1
 66
   257
176
     1
 43
1.0
176
     1
 76
     1
176
     1
 77
     6
176
     1
 78
     2
176
     1
 67
     7
176
     1
 79
     5
176
     1
170
     0
176
     1
171
     0
176
     1
290
     0
176
     1
 93
        1
176
     1
 44
0.0
176
     1
173
     0
176
     1
  0
VISUALSTYLE
  5
32
102
{ACAD_REACTORS
330
2A
102
}
102
{ACAD_XDICTIONARY
360
1E0
102
}
330
2A
100
AcDbVisualStyle
  2
Basic
 70
     7
177
     2
291
     1
 71
     1
176
     1
 72
     0
176
     1
 73
     1
176
     1
 90
        0
176
     1
 40
0.6
176
     1
 41
30.0
176
     1
 62
     5
 63
     7
421
 16777215
176
     1
 74
     0
176
     1
 91
        4
176
     1
 64
     7
176
     1
 65
   257
176
     1
 75
     1
176
     1
175
     1
176
     1
 42
1.0
176
     1
 92
        8
176
     1
 66
     7
176
     1
 43
1.0
176
     1
 76
     1
176
     1
 77
     6
176
     1
 78
     2
176
     1
 67
     7
176
     1
 79
     5
176
     1
170
     0
176
     1
171
     0
176
     1
290
     0
176
     1
 93
        1
176
     1
 44
0.0
176
     1
173
     0
176
     1
  0
VISUALSTYLE
  5
36
102
{ACAD_REACTORS
330
2A
102
}
102
{ACAD_XDICTIONARY
360
1E8
102
}
330
2A
100
AcDbVisualStyle
  2
Brighten
 70
    12
177
     2
291
     1
 71
     2
176
     1
 72
     2
176
     1
 73
     0
176
     1
 90
        0
176
     1
 40
0.6
176
     1
 41
30.0
176
     1
 62
     5
 63
     7
421
 16777215
176
     1
 74
     1
176
     1
 91
        4
176
     1
 64
     7
176
     1
 65
   257
176
     1
 75
     1
176
     1
175
     1
176
     1
 42
1.0
176
     1
 92
        8
176
     1
 66
     7
176
     1
 43
1.0
176
     1
 76
     1
176
     1
 77
     6
176
     1
 78
     2
176
     1
 67
     7
176
     1
 79
     5
176
     1
170
     0
176
     1
171
     0
176
     1
290
     0
176
     1
 93
        1
176
     1
 44
50.0
176
     1
173
     0
176
     1
  0
VISUALSTYLE
  5
3A
102
{ACAD_REACTORS
330
2A
102
}
102
{ACAD_XDICTIONARY
360
1F0
102
}
330
2A
100
AcDbVisualStyle
  2
ColorChange
 70
    16
177
     2
291
     1
 71
     2
176
     1
 72
     2
176
     1
 73
     3
176
     1
 90
        0
176
     1
 40
0.6
176
     1
 41
30.0
176
     1
 62
     5
 63
     8
421
  8421504
176
     1
 74
     1
176
     1
 91
        4
176
     1
 64
     7
176
     1
 65
   257
176
     1
 75
     1
176
     1
175
     1
176
     1
 42
1.0
176
     1
 92
        8
176
     1
 66
     8
424
  8421504
176
     1
 43
1.0
176
     1
 76
     1
176
     1
 77
     6
176
     1
 78
     2
176
     1
 67
     7
176
     1
 79
     5
176
     1
170
     0
176
     1
171
     0
176
     1
290
     0
176
     1
 93
        1
176
     1
 44
0.0
176
     1
173
     0
176
     1
  0
VISUALSTYLE
  5
34
102
{ACAD_REACTORS
330
2A
102
}
102
{ACAD_XDICTIONARY
360
1E4
102
}
330
2A
100
AcDbVisualStyle
  2
Conceptual
 70
     9
177
     2
291
     0
 71
     3
176
     1
 72
     2
176
     1
 73
     0
176
     1
 90
        0
176
     1
 40
0.6
176
     1
 41
30.0
176
     1
 62
     5
 63
     7
421
 16777215
176
     1
 74
     2
176
     1
 91
        2
176
     1
 64
     7
176
     1
 65
   257
176
     1
 75
     1
176
     1
175
     1
176
     1
 42
179.0
176
     1
 92
        8
176
     1
 66
     7
176
     1
 43
1.0
176
     1
 76
     1
176
     1
 77
     6
176
     1
 78
     2
176
     1
 67
     7
176
     1
 79
     3
176
     1
170
     0
176
     1
171
     0
176
     1
290
     0
176
     1
 93
        1
176
     1
 44
0.0
176
     1
173
     0
176
     1
  0
VISUALSTYLE
  5
35
102
{ACAD_REACTORS
330
2A
102
}
102
{ACAD_XDICTIONARY
360
1E6
102
}
330
2A
100
AcDbVisualStyle
  2
Dim
 70
    11
177
     2
291
     1
 71
     2
176
     1
 72
     2
176
     1
 73
     0
176
     1
 90
        0
176
     1
 40
0.6
176
     1
 41
30.0
176
     1
 62
     5
 63
     7
421
 16777215
176
     1
 74
     1
176
     1
 91
        4
176
     1
 64
     7
176
     1
 65
   257
176
     1
 75
     1
176
     1
175
     1
176
     1
 42
1.0
176
     1
 92
        8
176
     1
 66
     7
176
     1
 43
1.0
176
     1
 76
     1
176
     1
 77
     6
176
     1
 78
     2
176
     1
 67
     7
176
     1
 79
     5
176
     1
170
     0
176
     1
171
     0
176
     1
290
     0
176
     1
 93
        1
176
     1
 44
-50.0
176
     1
173
     0
176
     1
  0
VISUALSTYLE
  5
3D
102
{ACAD_REACTORS
330
2A
102
}
102
{ACAD_XDICTIONARY
360
1F6
102
}
330
2A
100
AcDbVisualStyle
  2
EdgeColorOff
 70
    22
177
     2
291
     1
 71
     2
176
     0
 72
     2
176
     0
 73
     0
176
     0
 90
        0
176
     0
 40
0.6
176
     0
 41
30.0
176
     0
 62
     5
 63
     7
421
 16777215
176
     0
 74
     1
176
     0
 91
        4
176
     0
 64
     7
176
     0
 65
   257
176
     0
 75
     1
176
     0
175
     1
176
     0
 42
1.0
176
     0
 92
        8
176
     2
 66
     7
176
     0
 43
1.0
176
     0
 76
     1
176
     0
 77
     6
176
     0
 78
     2
176
     0
 67
     7
176
     0
 79
     5
176
     0
170
     0
176
     0
171
     0
176
     0
290
     0
176
     0
 93
        1
176
     0
 44
0.0
176
     0
173
     0
176
     0
  0
VISUALSTYLE
  5
39
102
{ACAD_REACTORS
330
2A
102
}
102
{ACAD_XDICTIONARY
360
1EE
102
}
330
2A
100
AcDbVisualStyle
  2
Facepattern
 70
    15
177
     2
291
     1
 71
     2
176
     1
 72
     2
176
     1
 73
     0
176
     1
 90
        0
176
     1
 40
0.6
176
     1
 41
30.0
176
     1
 62
     5
 63
     7
421
 16777215
176
     1
 74
     1
176
     1
 91
        4
176
     1
 64
     7
176
     1
 65
   257
176
     1
 75
     1
176
     1
175
     1
176
     1
 42
1.0
176
     1
 92
        8
176
     1
 66
     7
176
     1
 43
1.0
176
     1
 76
     1
176
     1
 77
     6
176
     1
 78
     2
176
     1
 67
     7
176
     1
 79
     5
176
     1
170
     0
176
     1
171
     0
176
     1
290
     0
176
     1
 93
        1
176
     1
 44
0.0
176
     1
173
     0
176
     1
  0
VISUALSTYLE
  5
2B
102
{ACAD_REACTORS
330
2A
102
}
102
{ACAD_XDICTIONARY
360
1D2
102
}
330
2A
100
AcDbVisualStyle
  2
Flat
 70
     0
177
     2
291
     1
 71
     2
176
     1
 72
     1
176
     1
 73
     1
176
     1
 90
        2
176
     1
 40
0.6
176
     1
 41
30.0
176
     1
 62
     5
 63
     7
421
 16777215
176
     1
 74
     0
176
     1
 91
        0
176
     1
 64
     7
176
     1
 65
   257
176
     1
 75
     1
176
     1
175
     1
176
     1
 42
1.0
176
     1
 92
        8
176
     1
 66
     7
176
     1
 43
1.0
176
     1
 76
     1
176
     1
 77
     6
176
     1
 78
     2
176
     1
 67
     7
176
     1
 79
     5
176
     1
170
     0
176
     1
171
     0
176
     1
290
     0
176
     1
 93
       13
176
     1
 44
0.0
176
     1
173
     0
176
     1
  0
VISUALSTYLE
  5
2C
102
{ACAD_REACTORS
330
2A
102
}
102
{ACAD_XDICTIONARY
360
1D4
102
}
330
2A
100
AcDbVisualStyle
  2
FlatWithEdges
 70
     1
177
     2
291
     1
 71
     2
176
     1
 72
     1
176
     1
 73
     1
176
     1
 90
        2
176
     1
 40
0.6
176
     1
 41
30.0
176
     1
 62
     5
 63
     7
421
 16777215
176
     1
 74
     1
176
     1
 91
        0
176
     1
 64
     7
176
     1
 65
   257
176
     1
 75
     1
176
     1
175
     1
176
     1
 42
1.0
176
     1
 92
        0
176
     1
 66
   257
176
     1
 43
1.0
176
     1
 76
     1
176
     1
 77
     6
176
     1
 78
     2
176
     1
 67
     7
176
     1
 79
     5
176
     1
170
     0
176
     1
171
     0
176
     1
290
     0
176
     1
 93
       13
176
     1
 44
0.0
176
     1
173
     0
176
     1
  0
VISUALSTYLE
  5
2D
102
{ACAD_REACTORS
330
2A
102
}
102
{ACAD_XDICTIONARY
360
1D6
102
}
330
2A
100
AcDbVisualStyle
  2
Gouraud
 70
     2
177
     2
291
     1
 71
     2
176
     1
 72
     2
176
     1
 73
     1
176
     1
 90
        2
176
     1
 40
0.6
176
     1
 41
30.0
176
     1
 62
     5
 63
     7
421
 16777215
176
     1
 74
     0
176
     1
 91
        0
176
     1
 64
     7
176
     1
 65
   257
176
     1
 75
     1
176
     1
175
     1
176
     1
 42
1.0
176
     1
 92
        0
176
     1
 66
     7
176
     1
 43
1.0
176
     1
 76
     1
176
     1
 77
     6
176
     1
 78
     2
176
     1
 67
     7
176
     1
 79
     5
176
     1
170
     0
176
     1
171
     0
176
     1
290
     0
176
     1
 93
       13
176
     1
 44
0.0
176
     1
173
     0
176
     1
  0
VISUALSTYLE
  5
2E
102
{ACAD_REACTORS
330
2A
102
}
102
{ACAD_XDICTIONARY
360
1D8
102
}
330
2A
100
AcDbVisualStyle
  2
GouraudWithEdges
 70
     3
177
     2
291
     1
 71
     2
176
     1
 72
     2
176
     1
 73
     1
176
     1
 90
        2
176
     1
 40
0.6
176
     1
 41
30.0
176
     1
 62
     5
 63
     7
421
 16777215
176
     1
 74
     1
176
     1
 91
        0
176
     1
 64
     7
176
     1
 65
   257
176
     1
 75
     1
176
     1
175
     1
176
     1
 42
1.0
176
     1
 92
        0
176
     1
 66
   257
176
     1
 43
1.0
176
     1
 76
     1
176
     1
 77
     6
176
     1
 78
     2
176
     1
 67
     7
176
     1
 79
     5
176
     1
170
     0
176
     1
171
     0
176
     1
290
     0
176
     1
 93
       13
176
     1
 44
0.0
176
     1
173
     0
176
     1
  0
VISUALSTYLE
  5
31
102
{ACAD_REACTORS
330
2A
102
}
102
{ACAD_XDICTIONARY
360
1DE
102
}
330
2A
100
AcDbVisualStyle
  2
Hidden
 70
     6
177
     2
291
     0
 71
     1
176
     1
 72
     2
176
     1
 73
     2
176
     1
 90
        0
176
     1
 40
0.6
176
     1
 41
30.0
176
     1
 62
     5
 63
     7
421
 16777215
176
     1
 74
     2
176
     1
 91
        2
176
     1
 64
     7
176
     1
 65
   257
176
     1
 75
     2
176
     1
175
     1
176
     1
 42
40.0
176
     1
 92
        0
176
     1
 66
   257
176
     1
 43
1.0
176
     1
 76
     1
176
     1
 77
     6
176
     1
 78
     2
176
     1
 67
     7
176
     1
 79
     3
176
     1
170
     0
176
     1
171
     0
176
     1
290
     0
176
     1
 93
        1
176
     1
 44
0.0
176
     1
173
     0
176
     1
  0
VISUALSTYLE
  5
3B
102
{ACAD_REACTORS
330
2A
102
}
102
{ACAD_XDICTIONARY
360
1F2
102
}
330
2A
100
AcDbVisualStyle
  2
JitterOff
 70
    20
177
     2
291
     1
 71
     2
176
     0
 72
     2
176
     0
 73
     0
176
     0
 90
        0
176
     0
 40
0.6
176
     0
 41
30.0
176
     0
 62
     5
 63
     7
421
 16777215
176
     0
 74
     1
176
     0
 91
        4
176
     0
 64
     7
176
     0
 65
   257
176
     0
 75
     1
176
     0
175
     1
176
     0
 42
1.0
176
     0
 92
       10
176
     2
 66
     7
176
     0
 43
1.0
176
     0
 76
     1
176
     0
 77
     6
176
     0
 78
     2
176
     0
 67
     7
176
     0
 79
     5
176
     0
170
     0
176
     0
171
     0
176
     0
290
     0
176
     0
 93
        1
176
     0
 44
0.0
176
     0
173
     0
176
     0
  0
VISUALSTYLE
  5
38
102
{ACAD_REACTORS
330
2A
102
}
102
{ACAD_XDICTIONARY
360
1EC
102
}
330
2A
100
AcDbVisualStyle
  2
Linepattern
 70
    14
177
     2
291
     1
 71
     2
176
     1
 72
     2
176
     1
 73
     0
176
     1
 90
        0
176
     1
 40
0.6
176
     1
 41
30.0
176
     1
 62
     5
 63
     7
421
 16777215
176
     1
 74
     1
176
     1
 91
        4
176
     1
 64
     7
176
     1
 65
   257
176
     1
 75
     7
176
     1
175
     7
176
     1
 42
1.0
176
     1
 92
        8
176
     1
 66
     7
176
     1
 43
1.0
176
     1
 76
     1
176
     1
 77
     6
176
     1
 78
     2
176
     1
 67
     7
176
     1
 79
     5
176
     1
170
     0
176
     1
171
     0
176
     1
290
     0
176
     1
 93
        1
176
     1
 44
0.0
176
     1
173
     0
176
     1
  0
VISUALSTYLE
  5
3C
102
{ACAD_REACTORS
330
2A
102
}
102
{ACAD_XDICTIONARY
360
1F4
102
}
330
2A
100
AcDbVisualStyle
  2
OverhangOff
 70
    21
177
     2
291
     1
 71
     2
176
     0
 72
     2
176
     0
 73
     0
176
     0
 90
        0
176
     0
 40
0.6
176
     0
 41
30.0
176
     0
 62
     5
 63
     7
421
 16777215
176
     0
 74
     1
176
     0
 91
        4
176
     0
 64
     7
176
     0
 65
   257
176
     0
 75
     1
176
     0
175
     1
176
     0
 42
1.0
176
     0
 92
        9
176
     2
 66
     7
176
     0
 43
1.0
176
     0
 76
     1
176
     0
 77
     6
176
     0
 78
     2
176
     0
 67
     7
176
     0
 79
     5
176
     0
170
     0
176
     0
171
     0
176
     0
290
     0
176
     0
 93
        1
176
     0
 44
0.0
176
     0
173
     0
176
     0
  0
VISUALSTYLE
  5
33
102
{ACAD_REACTORS
330
2A
102
}
102
{ACAD_XDICTIONARY
360
1E2
102
}
330
2A
100
AcDbVisualStyle
  2
Realistic
 70
     8
177
     2
291
     0
 71
     2
176
     1
 72
     3
176
     1
 73
     0
176
     1
 90
        2
176
     1
 40
0.6
176
     1
 41
30.0
176
     1
 62
     5
 63
     7
421
 16777215
176
     1
 74
     0
176
     1
 91
        0
176
     1
 64
     7
176
     1
 65
   257
176
     1
 75
     1
176
     1
175
     1
176
     1
 42
1.0
176
     1
 92
        8
176
     1
 66
   257
176
     1
 43
1.0
176
     1
 76
     1
176
     1
 77
     6
176
     1
 78
     2
176
     1
 67
     7
176
     1
 79
     3
176
     1
170
     0
176
     1
171
     0
176
     1
290
     0
176
     1
 93
       13
176
     1
 44
0.0
176
     1
173
     0
176
     1
  0
VISUALSTYLE
  5
42
102
{ACAD_REACTORS
330
2A
102
}
102
{ACAD_XDICTIONARY
360
200
102
}
330
2A
100
AcDbVisualStyle
  2
Shaded
 70
    27
177
     2
291
     0
 71
     2
176
     1
 72
     2
176
     1
 73
     1
176
     1
 90
        2
176
     1
 40
0.6
176
     1
 41
30.0
176
     1
 62
     5
 63
     7
421
 16777215
176
     1
 74
     0
176
     1
 91
        4
176
     1
 64
     7
176
     1
 65
   257
176
     1
 75
     1
176
     1
175
     1
176
     1
 42
1.0
176
     1
 92
        8
176
     1
 66
   257
176
     1
 43
1.0
176
     1
 76
     1
176
     1
 77
     6
176
     1
 78
     2
176
     1
 67
     8
425
  7895160
176
     1
 79
     3
176
     1
170
     0
176
     1
171
     0
176
     1
290
     0
176
     1
 93
        5
176
     1
 44
0.0
176
     1
173
     0
176
     1
  0
VISUALSTYLE
  5
41
102
{ACAD_REACTORS
330
2A
102
}
102
{ACAD_XDICTIONARY
360
1FE
102
}
330
2A
100
AcDbVisualStyle
  2
Shaded with edges
 70
    26
177
     2
291
     0
 71
     2
176
     1
 72
     2
176
     1
 73
     1
176
     1
 90
        2
176
     1
 40
0.6
176
     1
 41
30.0
176
     1
 62
     5
 63
     7
421
 16777215
176
     1
 74
     1
176
     1
 91
       10
176
     1
 64
     7
176
     1
 65
   257
176
     1
 75
     2
176
     1
175
     1
176
     1
 42
1.0
176
     1
 92
        8
176
     1
 66
   257
176
     1
 43
1.0
176
     1
 76
     1
176
     1
 77
     6
176
     1
 78
     2
176
     1
 67
     7
176
     1
 79
     3
176
     1
170
     0
176
     1
171
     0
176
     1
290
     0
176
     1
 93
        5
176
     1
 44
0.0
176
     1
173
     0
176
     1
  0
VISUALSTYLE
  5
3E
102
{ACAD_REACTORS
330
2A
102
}
102
{ACAD_XDICTIONARY
360
1F8
102
}
330
2A
100
AcDbVisualStyle
  2
Shades of Gray
 70
    23
177
     2
291
     0
 71
     2
176
     1
 72
     2
176
     1
 73
     3
176
     1
 90
        0
176
     1
 40
0.6
176
     1
 41
30.0
176
     1
 62
     5
 63
     7
421
 16777215
176
     1
 74
     2
176
     1
 91
        2
176
     1
 64
     7
176
     1
 65
     7
176
     1
 75
     1
176
     1
175
     1
176
     1
 42
40.0
176
     1
 92
        8
176
     1
 66
     7
176
     1
 43
1.0
176
     1
 76
     1
176
     1
 77
     6
176
     1
 78
     2
176
     1
 67
     7
176
     1
 79
     3
176
     1
170
     0
176
     1
171
     0
176
     1
290
     0
176
     1
 93
        1
176
     1
 44
0.0
176
     1
173
     0
176
     1
  0
VISUALSTYLE
  5
3F
102
{ACAD_REACTORS
330
2A
102
}
102
{ACAD_XDICTIONARY
360
1FA
102
}
330
2A
100
AcDbVisualStyle
  2
Sketchy
 70
    24
177
     2
291
     0
 71
     1
176
     1
 72
     2
176
     1
 73
     2
176
     1
 90
        0
176
     1
 40
0.6
176
     1
 41
30.0
176
     1
 62
     5
 63
     7
421
 16777215
176
     1
 74
     2
176
     1
 91
        2
176
     1
 64
     7
176
     1
 65
     7
176
     1
 75
     1
176
     1
175
     1
176
     1
 42
40.0
176
     1
 92
       11
176
     1
 66
     7
176
     1
 43
1.0
176
     1
 76
     1
176
     1
 77
     6
176
     1
 78
     2
176
     1
 67
     7
176
     1
 79
     6
176
     1
170
     0
176
     1
171
     0
176
     1
290
     0
176
     1
 93
        1
176
     1
 44
0.0
176
     1
173
     0
176
     1
  0
VISUALSTYLE
  5
37
102
{ACAD_REACTORS
330
2A
102
}
102
{ACAD_XDICTIONARY
360
1EA
102
}
330
2A
100
AcDbVisualStyle
  2
Thicken
 70
    13
177
     2
291
     1
 71
     2
176
     1
 72
     2
176
     1
 73
     0
176
     1
 90
        0
176
     1
 40
0.6
176
     1
 41
30.0
176
     1
 62
     5
 63
     7
421
 16777215
176
     1
 74
     1
176
     1
 91
        4
176
     1
 64
     7
176
     1
 65
   257
176
     1
 75
     1
176
     1
175
     1
176
     1
 42
1.0
176
     1
 92
       12
176
     1
 66
     7
176
     1
 43
1.0
176
     1
 76
     1
176
     1
 77
     6
176
     1
 78
     2
176
     1
 67
     7
176
     1
 79
     5
176
     1
170
     0
176
     1
171
     0
176
     1
290
     0
176
     1
 93
        1
176
     1
 44
0.0
176
     1
173
     0
176
     1
  0
VISUALSTYLE
  5
30
102
{ACAD_REACTORS
330
2A
102
}
102
{ACAD_XDICTIONARY
360
1DC
102
}
330
2A
100
AcDbVisualStyle
  2
Wireframe
 70
     5
177
     2
291
     0
 71
     0
176
     1
 72
     2
176
     1
 73
     0
176
     1
 90
        0
176
     1
 40
0.6
176
     1
 41
30.0
176
     1
 62
     5
 63
     7
421
 16777215
176
     1
 74
     1
176
     1
 91
        4
176
     1
 64
     7
176
     1
 65
   257
176
     1
 75
     1
176
     1
175
     1
176
     1
 42
1.0
176
     1
 92
        0
176
     1
 66
   257
176
     1
 43
1.0
176
     1
 76
     1
176
     1
 77
     6
176
     1
 78
     2
176
     1
 67
     7
176
     1
 79
     3
176
     1
170
     0
176
     1
171
     0
176
     1
290
     0
176
     1
 93
        1
176
     1
 44
0.0
176
     1
173
     0
176
     1
  0
VISUALSTYLE
  5
40
102
{ACAD_REACTORS
330
2A
102
}
102
{ACAD_XDICTIONARY
360
1FC
102
}
330
2A
100
AcDbVisualStyle
  2
X-Ray
 70
    25
177
     2
291
     0
 71
     2
176
     1
 72
     2
176
     1
 73
     1
176
     1
 90
        1
176
     1
 40
0.5
176
     1
 41
30.0
176
     1
 62
     5
 63
     7
421
 16777215
176
     1
 74
     1
176
     1
 91
        0
176
     1
 64
     7
176
     1
 65
   257
176
     1
 75
     1
176
     1
175
     1
176
     1
 42
1.0
176
     1
 92
        8
176
     1
 66
     7
176
     1
 43
1.0
176
     1
 76
     1
176
     1
 77
     6
176
     1
 78
     2
176
     1
 67
     7
176
     1
 79
     3
176
     1
170
     0
176
     1
171
     0
176
     1
290
     0
176
     1
 93
       13
176
     1
 44
0.0
176
     1
173
     0
176
     1
  0
DICTIONARYVAR
  5
1D1
102
{ACAD_REACTORS
330
1D0
102
}
330
1D0
100
DictionaryVariables
280
     0
  1
1:1
  0
DICTIONARYVAR
  5
206
102
{ACAD_REACTORS
330
1D0
102
}
330
1D0
100
DictionaryVariables
280
     0
  1
Standard
  0
DICTIONARYVAR
  5
205
102
{ACAD_REACTORS
330
1D0
102
}
330
1D0
100
DictionaryVariables
280
     0
  1
Standard
  0
DICTIONARY
  5
202
330
6A
100
AcDbDictionary
280
     1
281
     1
  3
ACAD_ROUNDTRIP_2008_TABLESTYLE_CELLSTYLEMAP
360
203
  0
DICTIONARY
  5
1DA
330
2F
100
AcDbDictionary
280
     1
281
     1
  3
ACAD_XREC_ROUNDTRIP
360
1DB
  0
DICTIONARY
  5
1E0
330
32
100
AcDbDictionary
280
     1
281
     1
  3
ACAD_XREC_ROUNDTRIP
360
1E1
  0
DICTIONARY
  5
1E8
330
36
100
AcDbDictionary
280
     1
281
     1
  3
ACAD_XREC_ROUNDTRIP
360
1E9
  0
DICTIONARY
  5
1F0
330
3A
100
AcDbDictionary
280
     1
281
     1
  3
ACAD_XREC_ROUNDTRIP
360
1F1
  0
DICTIONARY
  5
1E4
330
34
100
AcDbDictionary
280
     1
281
     1
  3
ACAD_XREC_ROUNDTRIP
360
1E5
  0
DICTIONARY
  5
1E6
330
35
100
AcDbDictionary
280
     1
281
     1
  3
ACAD_XREC_ROUNDTRIP
360
1E7
  0
DICTIONARY
  5
1F6
330
3D
100
AcDbDictionary
280
     1
281
     1
  3
ACAD_XREC_ROUNDTRIP
360
1F7
  0
DICTIONARY
  5
1EE
330
39
100
AcDbDictionary
280
     1
281
     1
  3
ACAD_XREC_ROUNDTRIP
360
1EF
  0
DICTIONARY
  5
1D2
330
2B
100
AcDbDictionary
280
     1
281
     1
  3
ACAD_XREC_ROUNDTRIP
360
1D3
  0
DICTIONARY
  5
1D4
330
2C
100
AcDbDictionary
280
     1
281
     1
  3
ACAD_XREC_ROUNDTRIP
360
1D5
  0
DICTIONARY
  5
1D6
330
2D
100
AcDbDictionary
280
     1
281
     1
  3
ACAD_XREC_ROUNDTRIP
360
1D7
  0
DICTIONARY
  5
1D8
330
2E
100
AcDbDictionary
280
     1
281
     1
  3
ACAD_XREC_ROUNDTRIP
360
1D9
  0
DICTIONARY
  5
1DE
330
31
100
AcDbDictionary
280
     1
281
     1
  3
ACAD_XREC_ROUNDTRIP
360
1DF
  0
DICTIONARY
  5
1F2
330
3B
100
AcDbDictionary
280
     1
281
     1
  3
ACAD_XREC_ROUNDTRIP
360
1F3
  0
DICTIONARY
  5
1EC
330
38
100
AcDbDictionary
280
     1
281
     1
  3
ACAD_XREC_ROUNDTRIP
360
1ED
  0
DICTIONARY
  5
1F4
330
3C
100
AcDbDictionary
280
     1
281
     1
  3
ACAD_XREC_ROUNDTRIP
360
1F5
  0
DICTIONARY
  5
1E2
330
33
100
AcDbDictionary
280
     1
281
     1
  3
ACAD_XREC_ROUNDTRIP
360
1E3
  0
DICTIONARY
  5
200
330
42
100
AcDbDictionary
280
     1
281
     1
  3
ACAD_XREC_ROUNDTRIP
360
201
  0
DICTIONARY
  5
1FE
330
41
100
AcDbDictionary
280
     1
281
     1
  3
ACAD_XREC_ROUNDTRIP
360
1FF
  0
DICTIONARY
  5
1F8
330
3E
100
AcDbDictionary
280
     1
281
     1
  3
ACAD_XREC_ROUNDTRIP
360
1F9
  0
DICTIONARY
  5
1FA
330
3F
100
AcDbDictionary
280
     1
281
     1
  3
ACAD_XREC_ROUNDTRIP
360
1FB
  0
DICTIONARY
  5
1EA
330
37
100
AcDbDictionary
280
     1
281
     1
  3
ACAD_XREC_ROUNDTRIP
360
1EB
  0
DICTIONARY
  5
1DC
330
30
100
AcDbDictionary
280
     1
281
     1
  3
ACAD_XREC_ROUNDTRIP
360
1DD
  0
DICTIONARY
  5
1FC
330
40
100
AcDbDictionary
280
     1
281
     1
  3
ACAD_XREC_ROUNDTRIP
360
1FD
  0
CELLSTYLEMAP
  5
203
102
{ACAD_REACTORS
330
202
102
}
330
202
100
AcDbCellStyleMap
 90
        3
300
CELLSTYLE
  1
TABLEFORMAT_BEGIN
 90
        5
170
     1
 91
        0
 92
    32768
 62
   257
 93
        1
300
CONTENTFORMAT
  1
CONTENTFORMAT_BEGIN
 90
        0
 91
        0
 92
        4
 93
        0
300

 40
0.0
140
1.0
 94
        5
 62
     0
340
11
144
0.25
309
CONTENTFORMAT_END
171
     1
301
MARGIN
  1
CELLMARGIN_BEGIN
 40
0.06
 40
0.06
 40
0.06
 40
0.06
 40
0.06
 40
0.06
309
CELLMARGIN_END
 94
        6
 95
        1
302
GRIDFORMAT
  1
GRIDFORMAT_BEGIN
 90
        0
 91
        1
 62
     0
 92
       -2
340
14
 93
        0
 40
0.045
309
GRIDFORMAT_END
 95
        2
302
GRIDFORMAT
  1
GRIDFORMAT_BEGIN
 90
        0
 91
        1
 62
     0
 92
       -2
340
14
 93
        0
 40
0.045
309
GRIDFORMAT_END
 95
        4
302
GRIDFORMAT
  1
GRIDFORMAT_BEGIN
 90
        0
 91
        1
 62
     0
 92
       -2
340
14
 93
        0
 40
0.045
309
GRIDFORMAT_END
 95
        8
302
GRIDFORMAT
  1
GRIDFORMAT_BEGIN
 90
        0
 91
        1
 62
     0
 92
       -2
340
14
 93
        0
 40
0.045
309
GRIDFORMAT_END
 95
       16
302
GRIDFORMAT
  1
GRIDFORMAT_BEGIN
 90
        0
 91
        1
 62
     0
 92
       -2
340
14
 93
        0
 40
0.045
309
GRIDFORMAT_END
 95
       32
302
GRIDFORMAT
  1
GRIDFORMAT_BEGIN
 90
        0
 91
        1
 62
     0
 92
       -2
340
14
 93
        0
 40
0.045
309
GRIDFORMAT_END
309
TABLEFORMAT_END
  1
CELLSTYLE_BEGIN
 90
        1
 91
        1
300
_TITLE
309
CELLSTYLE_END
300
CELLSTYLE
  1
TABLEFORMAT_BEGIN
 90
        5
170
     1
 91
        0
 92
        0
 62
   257
 93
        1
300
CONTENTFORMAT
  1
CONTENTFORMAT_BEGIN
 90
        0
 91
        0
 92
        4
 93
        0
300

 40
0.0
140
1.0
 94
        5
 62
     0
340
11
144
0.18
309
CONTENTFORMAT_END
171
     1
301
MARGIN
  1
CELLMARGIN_BEGIN
 40
0.06
 40
0.06
 40
0.06
 40
0.06
 40
0.06
 40
0.06
309
CELLMARGIN_END
 94
        6
 95
        1
302
GRIDFORMAT
  1
GRIDFORMAT_BEGIN
 90
        0
 91
        1
 62
     0
 92
       -2
340
14
 93
        0
 40
0.045
309
GRIDFORMAT_END
 95
        2
302
GRIDFORMAT
  1
GRIDFORMAT_BEGIN
 90
        0
 91
        1
 62
     0
 92
       -2
340
14
 93
        0
 40
0.045
309
GRIDFORMAT_END
 95
        4
302
GRIDFORMAT
  1
GRIDFORMAT_BEGIN
 90
        0
 91
        1
 62
     0
 92
       -2
340
14
 93
        0
 40
0.045
309
GRIDFORMAT_END
 95
        8
302
GRIDFORMAT
  1
GRIDFORMAT_BEGIN
 90
        0
 91
        1
 62
     0
 92
       -2
340
14
 93
        0
 40
0.045
309
GRIDFORMAT_END
 95
       16
302
GRIDFORMAT
  1
GRIDFORMAT_BEGIN
 90
        0
 91
        1
 62
     0
 92
       -2
340
14
 93
        0
 40
0.045
309
GRIDFORMAT_END
 95
       32
302
GRIDFORMAT
  1
GRIDFORMAT_BEGIN
 90
        0
 91
        1
 62
     0
 92
       -2
340
14
 93
        0
 40
0.045
309
GRIDFORMAT_END
309
TABLEFORMAT_END
  1
CELLSTYLE_BEGIN
 90
        2
 91
        1
300
_HEADER
309
CELLSTYLE_END
300
CELLSTYLE
  1
TABLEFORMAT_BEGIN
 90
        5
170
     1
 91
        0
 92
        0
 62
   257
 93
        1
300
CONTENTFORMAT
  1
CONTENTFORMAT_BEGIN
 90
        0
 91
        0
 92
        4
 93
        0
300

 40
0.0
140
1.0
 94
        2
 62
     0
340
11
144
0.18
309
CONTENTFORMAT_END
171
     1
301
MARGIN
  1
CELLMARGIN_BEGIN
 40
0.06
 40
0.06
 40
0.06
 40
0.06
 40
0.06
 40
0.06
309
CELLMARGIN_END
 94
        6
 95
        1
302
GRIDFORMAT
  1
GRIDFORMAT_BEGIN
 90
        0
 91
        1
 62
     0
 92
       -2
340
14
 93
        0
 40
0.045
309
GRIDFORMAT_END
 95
        2
302
GRIDFORMAT
  1
GRIDFORMAT_BEGIN
 90
        0
 91
        1
 62
     0
 92
       -2
340
14
 93
        0
 40
0.045
309
GRIDFORMAT_END
 95
        4
302
GRIDFORMAT
  1
GRIDFORMAT_BEGIN
 90
        0
 91
        1
 62
     0
 92
       -2
340
14
 93
        0
 40
0.045
309
GRIDFORMAT_END
 95
        8
302
GRIDFORMAT
  1
GRIDFORMAT_BEGIN
 90
        0
 91
        1
 62
     0
 92
       -2
340
14
 93
        0
 40
0.045
309
GRIDFORMAT_END
 95
       16
302
GRIDFORMAT
  1
GRIDFORMAT_BEGIN
 90
        0
 91
        1
 62
     0
 92
       -2
340
14
 93
        0
 40
0.045
309
GRIDFORMAT_END
 95
       32
302
GRIDFORMAT
  1
GRIDFORMAT_BEGIN
 90
        0
 91
        1
 62
     0
 92
       -2
340
14
 93
        0
 40
0.045
309
GRIDFORMAT_END
309
TABLEFORMAT_END
  1
CELLSTYLE_BEGIN
 90
        3
 91
        2
300
_DATA
309
CELLSTYLE_END
  0
XRECORD
  5
1DB
102
{ACAD_REACTORS
330
1DA
102
}
330
1DA
100
AcDbXrecord
280
     1
102
RTVSPost2010Prop28
280
     1
102
RTVSPost2010PropOp28
 70
     1
102
RTVSPost2010Prop29
280
     1
102
RTVSPost2010PropOp29
 70
     1
102
RTVSPost2010Prop30
280
     0
102
RTVSPost2010PropOp30
 70
     1
102
RTVSPost2010Prop31
280
     0
102
RTVSPost2010PropOp31
 70
     1
102
RTVSPost2010Prop32
280
     0
102
RTVSPost2010PropOp32
 70
     1
102
RTVSPost2010Prop33
280
     0
102
RTVSPost2010PropOp33
 70
     1
102
RTVSPost2010Prop34
280
     0
102
RTVSPost2010PropOp34
 70
     1
102
RTVSPost2010Prop35
280
     0
102
RTVSPost2010PropOp35
 70
     1
102
RTVSPost2010Prop36
280
     0
102
RTVSPost2010PropOp36
 70
     1
102
RTVSPost2010Prop37
 90
       50
102
RTVSPost2010PropOp37
 70
     1
102
RTVSPost2010Prop38
140
0.0
102
RTVSPost2010PropOp38
 70
     1
102
RTVSPost2010Prop39
140
1.0
102
RTVSPost2010PropOp39
 70
     1
102
RTVSPost2010Prop40
 90
        0
102
RTVSPost2010PropOp40
 70
     1
102
RTVSPost2010Prop41ColorIndex
 90
       18
102
RTVSPost2010Prop41ColorRGB
 90
        0
102
RTVSPost2010PropOp41
 70
     1
102
RTVSPost2010Prop42
 90
       50
102
RTVSPost2010PropOp42
 70
     1
102
RTVSPost2010Prop43
 90
        3
102
RTVSPost2010PropOp43
 70
     1
102
RTVSPost2010Prop44ColorIndex
 90
        5
102
RTVSPost2010Prop44ColorRGB
 90
      255
102
RTVSPost2010PropOp44
 70
     1
102
RTVSPost2010Prop45
280
     0
102
RTVSPost2010PropOp45
 70
     1
102
RTVSPost2010Prop46
 90
       50
102
RTVSPost2010PropOp46
 70
     1
102
RTVSPost2010Prop47
 90
       50
102
RTVSPost2010PropOp47
 70
     1
102
RTVSPost2010Prop48
 90
       50
102
RTVSPost2010PropOp48
 70
     1
102
RTVSPost2010Prop49
280
     0
102
RTVSPost2010PropOp49
 70
     1
102
RTVSPost2010Prop50
 90
       50
102
RTVSPost2010PropOp50
 70
     1
102
RTVSPost2010Prop51ColorIndex
 90
      256
102
RTVSPost2010Prop51ColorRGB
 90
-16777216
102
RTVSPost2010PropOp51
 70
     0
102
RTVSPost2010Prop52
140
1.0
102
RTVSPost2010PropOp52
 70
     0
102
RTVSPost2010Prop53
 90
        2
102
RTVSPost2010PropOp53
 70
     1
102
RTVSPost2010Prop54
  1
strokes_ogs.tif
102
RTVSPost2010PropOp54
 70
     1
102
RTVSPost2010Prop55
280
     0
102
RTVSPost2010PropOp55
 70
     1
102
RTVSPost2010Prop56
140
1.0
102
RTVSPost2010PropOp56
 70
     1
102
RTVSPost2010Prop57
140
1.0
102
RTVSPost2010PropOp57
 70
     1
  0
XRECORD
  5
1E1
102
{ACAD_REACTORS
330
1E0
102
}
330
1E0
100
AcDbXrecord
280
     1
102
RTVSPost2010Prop28
280
     0
102
RTVSPost2010PropOp28
 70
     1
102
RTVSPost2010Prop29
280
     1
102
RTVSPost2010PropOp29
 70
     1
102
RTVSPost2010Prop30
280
     1
102
RTVSPost2010PropOp30
 70
     1
102
RTVSPost2010Prop31
280
     0
102
RTVSPost2010PropOp31
 70
     1
102
RTVSPost2010Prop32
280
     0
102
RTVSPost2010PropOp32
 70
     1
102
RTVSPost2010Prop33
280
     0
102
RTVSPost2010PropOp33
 70
     1
102
RTVSPost2010Prop34
280
     0
102
RTVSPost2010PropOp34
 70
     1
102
RTVSPost2010Prop35
280
     0
102
RTVSPost2010PropOp35
 70
     1
102
RTVSPost2010Prop36
280
     0
102
RTVSPost2010PropOp36
 70
     1
102
RTVSPost2010Prop37
 90
       50
102
RTVSPost2010PropOp37
 70
     1
102
RTVSPost2010Prop38
140
0.0
102
RTVSPost2010PropOp38
 70
     1
102
RTVSPost2010Prop39
140
1.0
102
RTVSPost2010PropOp39
 70
     1
102
RTVSPost2010Prop40
 90
        0
102
RTVSPost2010PropOp40
 70
     1
102
RTVSPost2010Prop41ColorIndex
 90
       18
102
RTVSPost2010Prop41ColorRGB
 90
        0
102
RTVSPost2010PropOp41
 70
     1
102
RTVSPost2010Prop42
 90
       50
102
RTVSPost2010PropOp42
 70
     1
102
RTVSPost2010Prop43
 90
        3
102
RTVSPost2010PropOp43
 70
     1
102
RTVSPost2010Prop44ColorIndex
 90
        5
102
RTVSPost2010Prop44ColorRGB
 90
      255
102
RTVSPost2010PropOp44
 70
     1
102
RTVSPost2010Prop45
280
     0
102
RTVSPost2010PropOp45
 70
     1
102
RTVSPost2010Prop46
 90
       50
102
RTVSPost2010PropOp46
 70
     1
102
RTVSPost2010Prop47
 90
       50
102
RTVSPost2010PropOp47
 70
     1
102
RTVSPost2010Prop48
 90
       50
102
RTVSPost2010PropOp48
 70
     1
102
RTVSPost2010Prop49
280
     0
102
RTVSPost2010PropOp49
 70
     1
102
RTVSPost2010Prop50
 90
       50
102
RTVSPost2010PropOp50
 70
     1
102
RTVSPost2010Prop51ColorIndex
 90
      256
102
RTVSPost2010Prop51ColorRGB
 90
-16777216
102
RTVSPost2010PropOp51
 70
     0
102
RTVSPost2010Prop52
140
1.0
102
RTVSPost2010PropOp52
 70
     0
102
RTVSPost2010Prop53
 90
        2
102
RTVSPost2010PropOp53
 70
     1
102
RTVSPost2010Prop54
  1
strokes_ogs.tif
102
RTVSPost2010PropOp54
 70
     1
102
RTVSPost2010Prop55
280
     0
102
RTVSPost2010PropOp55
 70
     1
102
RTVSPost2010Prop56
140
1.0
102
RTVSPost2010PropOp56
 70
     1
102
RTVSPost2010Prop57
140
1.0
102
RTVSPost2010PropOp57
 70
     1
  0
XRECORD
  5
1E9
102
{ACAD_REACTORS
330
1E8
102
}
330
1E8
100
AcDbXrecord
280
     1
102
RTVSPost2010Prop28
280
     0
102
RTVSPost2010PropOp28
 70
     1
102
RTVSPost2010Prop29
280
     1
102
RTVSPost2010PropOp29
 70
     1
102
RTVSPost2010Prop30
280
     1
102
RTVSPost2010PropOp30
 70
     1
102
RTVSPost2010Prop31
280
     0
102
RTVSPost2010PropOp31
 70
     1
102
RTVSPost2010Prop32
280
     0
102
RTVSPost2010PropOp32
 70
     1
102
RTVSPost2010Prop33
280
     0
102
RTVSPost2010PropOp33
 70
     1
102
RTVSPost2010Prop34
280
     0
102
RTVSPost2010PropOp34
 70
     1
102
RTVSPost2010Prop35
280
     0
102
RTVSPost2010PropOp35
 70
     1
102
RTVSPost2010Prop36
280
     0
102
RTVSPost2010PropOp36
 70
     1
102
RTVSPost2010Prop37
 90
       50
102
RTVSPost2010PropOp37
 70
     1
102
RTVSPost2010Prop38
140
0.0
102
RTVSPost2010PropOp38
 70
     1
102
RTVSPost2010Prop39
140
1.0
102
RTVSPost2010PropOp39
 70
     1
102
RTVSPost2010Prop40
 90
        0
102
RTVSPost2010PropOp40
 70
     1
102
RTVSPost2010Prop41ColorIndex
 90
       18
102
RTVSPost2010Prop41ColorRGB
 90
        0
102
RTVSPost2010PropOp41
 70
     1
102
RTVSPost2010Prop42
 90
       50
102
RTVSPost2010PropOp42
 70
     1
102
RTVSPost2010Prop43
 90
        3
102
RTVSPost2010PropOp43
 70
     1
102
RTVSPost2010Prop44ColorIndex
 90
        5
102
RTVSPost2010Prop44ColorRGB
 90
      255
102
RTVSPost2010PropOp44
 70
     1
102
RTVSPost2010Prop45
280
     0
102
RTVSPost2010PropOp45
 70
     1
102
RTVSPost2010Prop46
 90
       50
102
RTVSPost2010PropOp46
 70
     1
102
RTVSPost2010Prop47
 90
       50
102
RTVSPost2010PropOp47
 70
     1
102
RTVSPost2010Prop48
 90
       50
102
RTVSPost2010PropOp48
 70
     1
102
RTVSPost2010Prop49
280
     0
102
RTVSPost2010PropOp49
 70
     1
102
RTVSPost2010Prop50
 90
       50
102
RTVSPost2010PropOp50
 70
     1
102
RTVSPost2010Prop51ColorIndex
 90
      256
102
RTVSPost2010Prop51ColorRGB
 90
-16777216
102
RTVSPost2010PropOp51
 70
     0
102
RTVSPost2010Prop52
140
1.0
102
RTVSPost2010PropOp52
 70
     0
102
RTVSPost2010Prop53
 90
        2
102
RTVSPost2010PropOp53
 70
     1
102
RTVSPost2010Prop54
  1
strokes_ogs.tif
102
RTVSPost2010PropOp54
 70
     1
102
RTVSPost2010Prop55
280
     0
102
RTVSPost2010PropOp55
 70
     1
102
RTVSPost2010Prop56
140
1.0
102
RTVSPost2010PropOp56
 70
     1
102
RTVSPost2010Prop57
140
1.0
102
RTVSPost2010PropOp57
 70
     1
  0
XRECORD
  5
1F1
102
{ACAD_REACTORS
330
1F0
102
}
330
1F0
100
AcDbXrecord
280
     1
102
RTVSPost2010Prop28
280
     0
102
RTVSPost2010PropOp28
 70
     1
102
RTVSPost2010Prop29
280
     1
102
RTVSPost2010PropOp29
 70
     1
102
RTVSPost2010Prop30
280
     1
102
RTVSPost2010PropOp30
 70
     1
102
RTVSPost2010Prop31
280
     0
102
RTVSPost2010PropOp31
 70
     1
102
RTVSPost2010Prop32
280
     0
102
RTVSPost2010PropOp32
 70
     1
102
RTVSPost2010Prop33
280
     0
102
RTVSPost2010PropOp33
 70
     1
102
RTVSPost2010Prop34
280
     0
102
RTVSPost2010PropOp34
 70
     1
102
RTVSPost2010Prop35
280
     0
102
RTVSPost2010PropOp35
 70
     1
102
RTVSPost2010Prop36
280
     0
102
RTVSPost2010PropOp36
 70
     1
102
RTVSPost2010Prop37
 90
       50
102
RTVSPost2010PropOp37
 70
     1
102
RTVSPost2010Prop38
140
0.0
102
RTVSPost2010PropOp38
 70
     1
102
RTVSPost2010Prop39
140
1.0
102
RTVSPost2010PropOp39
 70
     1
102
RTVSPost2010Prop40
 90
        0
102
RTVSPost2010PropOp40
 70
     1
102
RTVSPost2010Prop41ColorIndex
 90
       18
102
RTVSPost2010Prop41ColorRGB
 90
        0
102
RTVSPost2010PropOp41
 70
     1
102
RTVSPost2010Prop42
 90
       50
102
RTVSPost2010PropOp42
 70
     1
102
RTVSPost2010Prop43
 90
        3
102
RTVSPost2010PropOp43
 70
     1
102
RTVSPost2010Prop44ColorIndex
 90
        5
102
RTVSPost2010Prop44ColorRGB
 90
      255
102
RTVSPost2010PropOp44
 70
     1
102
RTVSPost2010Prop45
280
     0
102
RTVSPost2010PropOp45
 70
     1
102
RTVSPost2010Prop46
 90
       50
102
RTVSPost2010PropOp46
 70
     1
102
RTVSPost2010Prop47
 90
       50
102
RTVSPost2010PropOp47
 70
     1
102
RTVSPost2010Prop48
 90
       50
102
RTVSPost2010PropOp48
 70
     1
102
RTVSPost2010Prop49
280
     0
102
RTVSPost2010PropOp49
 70
     1
102
RTVSPost2010Prop50
 90
       50
102
RTVSPost2010PropOp50
 70
     1
102
RTVSPost2010Prop51ColorIndex
 90
      256
102
RTVSPost2010Prop51ColorRGB
 90
-16777216
102
RTVSPost2010PropOp51
 70
     0
102
RTVSPost2010Prop52
140
1.0
102
RTVSPost2010PropOp52
 70
     0
102
RTVSPost2010Prop53
 90
        2
102
RTVSPost2010PropOp53
 70
     1
102
RTVSPost2010Prop54
  1
strokes_ogs.tif
102
RTVSPost2010PropOp54
 70
     1
102
RTVSPost2010Prop55
280
     0
102
RTVSPost2010PropOp55
 70
     1
102
RTVSPost2010Prop56
140
1.0
102
RTVSPost2010PropOp56
 70
     1
102
RTVSPost2010Prop57
140
1.0
102
RTVSPost2010PropOp57
 70
     1
  0
XRECORD
  5
1E5
102
{ACAD_REACTORS
330
1E4
102
}
330
1E4
100
AcDbXrecord
280
     1
102
RTVSPost2010Prop28
280
     0
102
RTVSPost2010PropOp28
 70
     1
102
RTVSPost2010Prop29
280
     1
102
RTVSPost2010PropOp29
 70
     1
102
RTVSPost2010Prop30
280
     1
102
RTVSPost2010PropOp30
 70
     1
102
RTVSPost2010Prop31
280
     0
102
RTVSPost2010PropOp31
 70
     1
102
RTVSPost2010Prop32
280
     0
102
RTVSPost2010PropOp32
 70
     1
102
RTVSPost2010Prop33
280
     0
102
RTVSPost2010PropOp33
 70
     1
102
RTVSPost2010Prop34
280
     0
102
RTVSPost2010PropOp34
 70
     1
102
RTVSPost2010Prop35
280
     0
102
RTVSPost2010PropOp35
 70
     1
102
RTVSPost2010Prop36
280
     0
102
RTVSPost2010PropOp36
 70
     1
102
RTVSPost2010Prop37
 90
       50
102
RTVSPost2010PropOp37
 70
     1
102
RTVSPost2010Prop38
140
0.0
102
RTVSPost2010PropOp38
 70
     1
102
RTVSPost2010Prop39
140
1.0
102
RTVSPost2010PropOp39
 70
     1
102
RTVSPost2010Prop40
 90
        0
102
RTVSPost2010PropOp40
 70
     1
102
RTVSPost2010Prop41ColorIndex
 90
       18
102
RTVSPost2010Prop41ColorRGB
 90
        0
102
RTVSPost2010PropOp41
 70
     1
102
RTVSPost2010Prop42
 90
       50
102
RTVSPost2010PropOp42
 70
     1
102
RTVSPost2010Prop43
 90
        3
102
RTVSPost2010PropOp43
 70
     1
102
RTVSPost2010Prop44ColorIndex
 90
        5
102
RTVSPost2010Prop44ColorRGB
 90
      255
102
RTVSPost2010PropOp44
 70
     1
102
RTVSPost2010Prop45
280
     0
102
RTVSPost2010PropOp45
 70
     1
102
RTVSPost2010Prop46
 90
       50
102
RTVSPost2010PropOp46
 70
     1
102
RTVSPost2010Prop47
 90
       50
102
RTVSPost2010PropOp47
 70
     1
102
RTVSPost2010Prop48
 90
       50
102
RTVSPost2010PropOp48
 70
     1
102
RTVSPost2010Prop49
280
     0
102
RTVSPost2010PropOp49
 70
     1
102
RTVSPost2010Prop50
 90
       50
102
RTVSPost2010PropOp50
 70
     1
102
RTVSPost2010Prop51ColorIndex
 90
      256
102
RTVSPost2010Prop51ColorRGB
 90
-16777216
102
RTVSPost2010PropOp51
 70
     0
102
RTVSPost2010Prop52
140
1.0
102
RTVSPost2010PropOp52
 70
     0
102
RTVSPost2010Prop53
 90
        2
102
RTVSPost2010PropOp53
 70
     1
102
RTVSPost2010Prop54
  1
strokes_ogs.tif
102
RTVSPost2010PropOp54
 70
     1
102
RTVSPost2010Prop55
280
     0
102
RTVSPost2010PropOp55
 70
     1
102
RTVSPost2010Prop56
140
1.0
102
RTVSPost2010PropOp56
 70
     1
102
RTVSPost2010Prop57
140
1.0
102
RTVSPost2010PropOp57
 70
     1
  0
XRECORD
  5
1E7
102
{ACAD_REACTORS
330
1E6
102
}
330
1E6
100
AcDbXrecord
280
     1
102
RTVSPost2010Prop28
280
     0
102
RTVSPost2010PropOp28
 70
     1
102
RTVSPost2010Prop29
280
     1
102
RTVSPost2010PropOp29
 70
     1
102
RTVSPost2010Prop30
280
     1
102
RTVSPost2010PropOp30
 70
     1
102
RTVSPost2010Prop31
280
     0
102
RTVSPost2010PropOp31
 70
     1
102
RTVSPost2010Prop32
280
     0
102
RTVSPost2010PropOp32
 70
     1
102
RTVSPost2010Prop33
280
     0
102
RTVSPost2010PropOp33
 70
     1
102
RTVSPost2010Prop34
280
     0
102
RTVSPost2010PropOp34
 70
     1
102
RTVSPost2010Prop35
280
     0
102
RTVSPost2010PropOp35
 70
     1
102
RTVSPost2010Prop36
280
     0
102
RTVSPost2010PropOp36
 70
     1
102
RTVSPost2010Prop37
 90
       50
102
RTVSPost2010PropOp37
 70
     1
102
RTVSPost2010Prop38
140
0.0
102
RTVSPost2010PropOp38
 70
     1
102
RTVSPost2010Prop39
140
1.0
102
RTVSPost2010PropOp39
 70
     1
102
RTVSPost2010Prop40
 90
        0
102
RTVSPost2010PropOp40
 70
     1
102
RTVSPost2010Prop41ColorIndex
 90
       18
102
RTVSPost2010Prop41ColorRGB
 90
        0
102
RTVSPost2010PropOp41
 70
     1
102
RTVSPost2010Prop42
 90
       50
102
RTVSPost2010PropOp42
 70
     1
102
RTVSPost2010Prop43
 90
        3
102
RTVSPost2010PropOp43
 70
     1
102
RTVSPost2010Prop44ColorIndex
 90
        5
102
RTVSPost2010Prop44ColorRGB
 90
      255
102
RTVSPost2010PropOp44
 70
     1
102
RTVSPost2010Prop45
280
     0
102
RTVSPost2010PropOp45
 70
     1
102
RTVSPost2010Prop46
 90
       50
102
RTVSPost2010PropOp46
 70
     1
102
RTVSPost2010Prop47
 90
       50
102
RTVSPost2010PropOp47
 70
     1
102
RTVSPost2010Prop48
 90
       50
102
RTVSPost2010PropOp48
 70
     1
102
RTVSPost2010Prop49
280
     0
102
RTVSPost2010PropOp49
 70
     1
102
RTVSPost2010Prop50
 90
       50
102
RTVSPost2010PropOp50
 70
     1
102
RTVSPost2010Prop51ColorIndex
 90
      256
102
RTVSPost2010Prop51ColorRGB
 90
-16777216
102
RTVSPost2010PropOp51
 70
     0
102
RTVSPost2010Prop52
140
1.0
102
RTVSPost2010PropOp52
 70
     0
102
RTVSPost2010Prop53
 90
        2
102
RTVSPost2010PropOp53
 70
     1
102
RTVSPost2010Prop54
  1
strokes_ogs.tif
102
RTVSPost2010PropOp54
 70
     1
102
RTVSPost2010Prop55
280
     0
102
RTVSPost2010PropOp55
 70
     1
102
RTVSPost2010Prop56
140
1.0
102
RTVSPost2010PropOp56
 70
     1
102
RTVSPost2010Prop57
140
1.0
102
RTVSPost2010PropOp57
 70
     1
  0
XRECORD
  5
1F7
102
{ACAD_REACTORS
330
1F6
102
}
330
1F6
100
AcDbXrecord
280
     1
102
RTVSPost2010Prop28
280
     0
102
RTVSPost2010PropOp28
 70
     0
102
RTVSPost2010Prop29
280
     1
102
RTVSPost2010PropOp29
 70
     0
102
RTVSPost2010Prop30
280
     1
102
RTVSPost2010PropOp30
 70
     0
102
RTVSPost2010Prop31
280
     0
102
RTVSPost2010PropOp31
 70
     0
102
RTVSPost2010Prop32
280
     0
102
RTVSPost2010PropOp32
 70
     0
102
RTVSPost2010Prop33
280
     0
102
RTVSPost2010PropOp33
 70
     0
102
RTVSPost2010Prop34
280
     0
102
RTVSPost2010PropOp34
 70
     0
102
RTVSPost2010Prop35
280
     0
102
RTVSPost2010PropOp35
 70
     0
102
RTVSPost2010Prop36
280
     0
102
RTVSPost2010PropOp36
 70
     0
102
RTVSPost2010Prop37
 90
       50
102
RTVSPost2010PropOp37
 70
     0
102
RTVSPost2010Prop38
140
0.0
102
RTVSPost2010PropOp38
 70
     0
102
RTVSPost2010Prop39
140
1.0
102
RTVSPost2010PropOp39
 70
     0
102
RTVSPost2010Prop40
 90
        0
102
RTVSPost2010PropOp40
 70
     0
102
RTVSPost2010Prop41ColorIndex
 90
       18
102
RTVSPost2010Prop41ColorRGB
 90
        0
102
RTVSPost2010PropOp41
 70
     0
102
RTVSPost2010Prop42
 90
       50
102
RTVSPost2010PropOp42
 70
     0
102
RTVSPost2010Prop43
 90
        3
102
RTVSPost2010PropOp43
 70
     0
102
RTVSPost2010Prop44ColorIndex
 90
        5
102
RTVSPost2010Prop44ColorRGB
 90
      255
102
RTVSPost2010PropOp44
 70
     0
102
RTVSPost2010Prop45
280
     0
102
RTVSPost2010PropOp45
 70
     0
102
RTVSPost2010Prop46
 90
       50
102
RTVSPost2010PropOp46
 70
     0
102
RTVSPost2010Prop47
 90
       50
102
RTVSPost2010PropOp47
 70
     0
102
RTVSPost2010Prop48
 90
       50
102
RTVSPost2010PropOp48
 70
     0
102
RTVSPost2010Prop49
280
     0
102
RTVSPost2010PropOp49
 70
     0
102
RTVSPost2010Prop50
 90
       50
102
RTVSPost2010PropOp50
 70
     0
102
RTVSPost2010Prop51ColorIndex
 90
      256
102
RTVSPost2010Prop51ColorRGB
 90
-16777216
102
RTVSPost2010PropOp51
 70
     0
102
RTVSPost2010Prop52
140
1.0
102
RTVSPost2010PropOp52
 70
     0
102
RTVSPost2010Prop53
 90
        2
102
RTVSPost2010PropOp53
 70
     0
102
RTVSPost2010Prop54
  1
strokes_ogs.tif
102
RTVSPost2010PropOp54
 70
     0
102
RTVSPost2010Prop55
280
     0
102
RTVSPost2010PropOp55
 70
     0
102
RTVSPost2010Prop56
140
1.0
102
RTVSPost2010PropOp56
 70
     0
102
RTVSPost2010Prop57
140
1.0
102
RTVSPost2010PropOp57
 70
     0
  0
XRECORD
  5
1EF
102
{ACAD_REACTORS
330
1EE
102
}
330
1EE
100
AcDbXrecord
280
     1
102
RTVSPost2010Prop28
280
     0
102
RTVSPost2010PropOp28
 70
     1
102
RTVSPost2010Prop29
280
     1
102
RTVSPost2010PropOp29
 70
     1
102
RTVSPost2010Prop30
280
     1
102
RTVSPost2010PropOp30
 70
     1
102
RTVSPost2010Prop31
280
     0
102
RTVSPost2010PropOp31
 70
     1
102
RTVSPost2010Prop32
280
     0
102
RTVSPost2010PropOp32
 70
     1
102
RTVSPost2010Prop33
280
     0
102
RTVSPost2010PropOp33
 70
     1
102
RTVSPost2010Prop34
280
     0
102
RTVSPost2010PropOp34
 70
     1
102
RTVSPost2010Prop35
280
     0
102
RTVSPost2010PropOp35
 70
     1
102
RTVSPost2010Prop36
280
     0
102
RTVSPost2010PropOp36
 70
     1
102
RTVSPost2010Prop37
 90
       50
102
RTVSPost2010PropOp37
 70
     1
102
RTVSPost2010Prop38
140
0.0
102
RTVSPost2010PropOp38
 70
     1
102
RTVSPost2010Prop39
140
1.0
102
RTVSPost2010PropOp39
 70
     1
102
RTVSPost2010Prop40
 90
        0
102
RTVSPost2010PropOp40
 70
     1
102
RTVSPost2010Prop41ColorIndex
 90
       18
102
RTVSPost2010Prop41ColorRGB
 90
        0
102
RTVSPost2010PropOp41
 70
     1
102
RTVSPost2010Prop42
 90
       50
102
RTVSPost2010PropOp42
 70
     1
102
RTVSPost2010Prop43
 90
        3
102
RTVSPost2010PropOp43
 70
     1
102
RTVSPost2010Prop44ColorIndex
 90
        5
102
RTVSPost2010Prop44ColorRGB
 90
      255
102
RTVSPost2010PropOp44
 70
     1
102
RTVSPost2010Prop45
280
     0
102
RTVSPost2010PropOp45
 70
     1
102
RTVSPost2010Prop46
 90
       50
102
RTVSPost2010PropOp46
 70
     1
102
RTVSPost2010Prop47
 90
       50
102
RTVSPost2010PropOp47
 70
     1
102
RTVSPost2010Prop48
 90
       50
102
RTVSPost2010PropOp48
 70
     1
102
RTVSPost2010Prop49
280
     0
102
RTVSPost2010PropOp49
 70
     1
102
RTVSPost2010Prop50
 90
       50
102
RTVSPost2010PropOp50
 70
     1
102
RTVSPost2010Prop51ColorIndex
 90
      256
102
RTVSPost2010Prop51ColorRGB
 90
-16777216
102
RTVSPost2010PropOp51
 70
     0
102
RTVSPost2010Prop52
140
1.0
102
RTVSPost2010PropOp52
 70
     0
102
RTVSPost2010Prop53
 90
        2
102
RTVSPost2010PropOp53
 70
     1
102
RTVSPost2010Prop54
  1
strokes_ogs.tif
102
RTVSPost2010PropOp54
 70
     1
102
RTVSPost2010Prop55
280
     0
102
RTVSPost2010PropOp55
 70
     1
102
RTVSPost2010Prop56
140
1.0
102
RTVSPost2010PropOp56
 70
     1
102
RTVSPost2010Prop57
140
1.0
102
RTVSPost2010PropOp57
 70
     1
  0
XRECORD
  5
1D3
102
{ACAD_REACTORS
330
1D2
102
}
330
1D2
100
AcDbXrecord
280
     1
102
RTVSPost2010Prop28
280
     0
102
RTVSPost2010PropOp28
 70
     1
102
RTVSPost2010Prop29
280
     1
102
RTVSPost2010PropOp29
 70
     1
102
RTVSPost2010Prop30
280
     1
102
RTVSPost2010PropOp30
 70
     1
102
RTVSPost2010Prop31
280
     0
102
RTVSPost2010PropOp31
 70
     1
102
RTVSPost2010Prop32
280
     0
102
RTVSPost2010PropOp32
 70
     1
102
RTVSPost2010Prop33
280
     0
102
RTVSPost2010PropOp33
 70
     1
102
RTVSPost2010Prop34
280
     0
102
RTVSPost2010PropOp34
 70
     1
102
RTVSPost2010Prop35
280
     0
102
RTVSPost2010PropOp35
 70
     1
102
RTVSPost2010Prop36
280
     0
102
RTVSPost2010PropOp36
 70
     1
102
RTVSPost2010Prop37
 90
       50
102
RTVSPost2010PropOp37
 70
     1
102
RTVSPost2010Prop38
140
0.0
102
RTVSPost2010PropOp38
 70
     1
102
RTVSPost2010Prop39
140
1.0
102
RTVSPost2010PropOp39
 70
     1
102
RTVSPost2010Prop40
 90
        0
102
RTVSPost2010PropOp40
 70
     1
102
RTVSPost2010Prop41ColorIndex
 90
       18
102
RTVSPost2010Prop41ColorRGB
 90
        0
102
RTVSPost2010PropOp41
 70
     1
102
RTVSPost2010Prop42
 90
       50
102
RTVSPost2010PropOp42
 70
     1
102
RTVSPost2010Prop43
 90
        3
102
RTVSPost2010PropOp43
 70
     1
102
RTVSPost2010Prop44ColorIndex
 90
        5
102
RTVSPost2010Prop44ColorRGB
 90
      255
102
RTVSPost2010PropOp44
 70
     1
102
RTVSPost2010Prop45
280
     0
102
RTVSPost2010PropOp45
 70
     1
102
RTVSPost2010Prop46
 90
       50
102
RTVSPost2010PropOp46
 70
     1
102
RTVSPost2010Prop47
 90
       50
102
RTVSPost2010PropOp47
 70
     1
102
RTVSPost2010Prop48
 90
       50
102
RTVSPost2010PropOp48
 70
     1
102
RTVSPost2010Prop49
280
     0
102
RTVSPost2010PropOp49
 70
     1
102
RTVSPost2010Prop50
 90
       50
102
RTVSPost2010PropOp50
 70
     1
102
RTVSPost2010Prop51ColorIndex
 90
      256
102
RTVSPost2010Prop51ColorRGB
 90
-16777216
102
RTVSPost2010PropOp51
 70
     0
102
RTVSPost2010Prop52
140
1.0
102
RTVSPost2010PropOp52
 70
     0
102
RTVSPost2010Prop53
 90
        2
102
RTVSPost2010PropOp53
 70
     1
102
RTVSPost2010Prop54
  1
strokes_ogs.tif
102
RTVSPost2010PropOp54
 70
     1
102
RTVSPost2010Prop55
280
     0
102
RTVSPost2010PropOp55
 70
     1
102
RTVSPost2010Prop56
140
1.0
102
RTVSPost2010PropOp56
 70
     1
102
RTVSPost2010Prop57
140
1.0
102
RTVSPost2010PropOp57
 70
     1
  0
XRECORD
  5
1D5
102
{ACAD_REACTORS
330
1D4
102
}
330
1D4
100
AcDbXrecord
280
     1
102
RTVSPost2010Prop28
280
     0
102
RTVSPost2010PropOp28
 70
     1
102
RTVSPost2010Prop29
280
     1
102
RTVSPost2010PropOp29
 70
     1
102
RTVSPost2010Prop30
280
     1
102
RTVSPost2010PropOp30
 70
     1
102
RTVSPost2010Prop31
280
     0
102
RTVSPost2010PropOp31
 70
     1
102
RTVSPost2010Prop32
280
     0
102
RTVSPost2010PropOp32
 70
     1
102
RTVSPost2010Prop33
280
     0
102
RTVSPost2010PropOp33
 70
     1
102
RTVSPost2010Prop34
280
     0
102
RTVSPost2010PropOp34
 70
     1
102
RTVSPost2010Prop35
280
     0
102
RTVSPost2010PropOp35
 70
     1
102
RTVSPost2010Prop36
280
     0
102
RTVSPost2010PropOp36
 70
     1
102
RTVSPost2010Prop37
 90
       50
102
RTVSPost2010PropOp37
 70
     1
102
RTVSPost2010Prop38
140
0.0
102
RTVSPost2010PropOp38
 70
     1
102
RTVSPost2010Prop39
140
1.0
102
RTVSPost2010PropOp39
 70
     1
102
RTVSPost2010Prop40
 90
        0
102
RTVSPost2010PropOp40
 70
     1
102
RTVSPost2010Prop41ColorIndex
 90
       18
102
RTVSPost2010Prop41ColorRGB
 90
        0
102
RTVSPost2010PropOp41
 70
     1
102
RTVSPost2010Prop42
 90
       50
102
RTVSPost2010PropOp42
 70
     1
102
RTVSPost2010Prop43
 90
        3
102
RTVSPost2010PropOp43
 70
     1
102
RTVSPost2010Prop44ColorIndex
 90
        5
102
RTVSPost2010Prop44ColorRGB
 90
      255
102
RTVSPost2010PropOp44
 70
     1
102
RTVSPost2010Prop45
280
     0
102
RTVSPost2010PropOp45
 70
     1
102
RTVSPost2010Prop46
 90
       50
102
RTVSPost2010PropOp46
 70
     1
102
RTVSPost2010Prop47
 90
       50
102
RTVSPost2010PropOp47
 70
     1
102
RTVSPost2010Prop48
 90
       50
102
RTVSPost2010PropOp48
 70
     1
102
RTVSPost2010Prop49
280
     0
102
RTVSPost2010PropOp49
 70
     1
102
RTVSPost2010Prop50
 90
       50
102
RTVSPost2010PropOp50
 70
     1
102
RTVSPost2010Prop51ColorIndex
 90
      256
102
RTVSPost2010Prop51ColorRGB
 90
-16777216
102
RTVSPost2010PropOp51
 70
     0
102
RTVSPost2010Prop52
140
1.0
102
RTVSPost2010PropOp52
 70
     0
102
RTVSPost2010Prop53
 90
        2
102
RTVSPost2010PropOp53
 70
     1
102
RTVSPost2010Prop54
  1
strokes_ogs.tif
102
RTVSPost2010PropOp54
 70
     1
102
RTVSPost2010Prop55
280
     0
102
RTVSPost2010PropOp55
 70
     1
102
RTVSPost2010Prop56
140
1.0
102
RTVSPost2010PropOp56
 70
     1
102
RTVSPost2010Prop57
140
1.0
102
RTVSPost2010PropOp57
 70
     1
  0
XRECORD
  5
1D7
102
{ACAD_REACTORS
330
1D6
102
}
330
1D6
100
AcDbXrecord
280
     1
102
RTVSPost2010Prop28
280
     0
102
RTVSPost2010PropOp28
 70
     1
102
RTVSPost2010Prop29
280
     1
102
RTVSPost2010PropOp29
 70
     1
102
RTVSPost2010Prop30
280
     1
102
RTVSPost2010PropOp30
 70
     1
102
RTVSPost2010Prop31
280
     0
102
RTVSPost2010PropOp31
 70
     1
102
RTVSPost2010Prop32
280
     0
102
RTVSPost2010PropOp32
 70
     1
102
RTVSPost2010Prop33
280
     0
102
RTVSPost2010PropOp33
 70
     1
102
RTVSPost2010Prop34
280
     0
102
RTVSPost2010PropOp34
 70
     1
102
RTVSPost2010Prop35
280
     0
102
RTVSPost2010PropOp35
 70
     1
102
RTVSPost2010Prop36
280
     0
102
RTVSPost2010PropOp36
 70
     1
102
RTVSPost2010Prop37
 90
       50
102
RTVSPost2010PropOp37
 70
     1
102
RTVSPost2010Prop38
140
0.0
102
RTVSPost2010PropOp38
 70
     1
102
RTVSPost2010Prop39
140
1.0
102
RTVSPost2010PropOp39
 70
     1
102
RTVSPost2010Prop40
 90
        0
102
RTVSPost2010PropOp40
 70
     1
102
RTVSPost2010Prop41ColorIndex
 90
       18
102
RTVSPost2010Prop41ColorRGB
 90
        0
102
RTVSPost2010PropOp41
 70
     1
102
RTVSPost2010Prop42
 90
       50
102
RTVSPost2010PropOp42
 70
     1
102
RTVSPost2010Prop43
 90
        3
102
RTVSPost2010PropOp43
 70
     1
102
RTVSPost2010Prop44ColorIndex
 90
        5
102
RTVSPost2010Prop44ColorRGB
 90
      255
102
RTVSPost2010PropOp44
 70
     1
102
RTVSPost2010Prop45
280
     0
102
RTVSPost2010PropOp45
 70
     1
102
RTVSPost2010Prop46
 90
       50
102
RTVSPost2010PropOp46
 70
     1
102
RTVSPost2010Prop47
 90
       50
102
RTVSPost2010PropOp47
 70
     1
102
RTVSPost2010Prop48
 90
       50
102
RTVSPost2010PropOp48
 70
     1
102
RTVSPost2010Prop49
280
     0
102
RTVSPost2010PropOp49
 70
     1
102
RTVSPost2010Prop50
 90
       50
102
RTVSPost2010PropOp50
 70
     1
102
RTVSPost2010Prop51ColorIndex
 90
      256
102
RTVSPost2010Prop51ColorRGB
 90
-16777216
102
RTVSPost2010PropOp51
 70
     0
102
RTVSPost2010Prop52
140
1.0
102
RTVSPost2010PropOp52
 70
     0
102
RTVSPost2010Prop53
 90
        2
102
RTVSPost2010PropOp53
 70
     1
102
RTVSPost2010Prop54
  1
strokes_ogs.tif
102
RTVSPost2010PropOp54
 70
     1
102
RTVSPost2010Prop55
280
     0
102
RTVSPost2010PropOp55
 70
     1
102
RTVSPost2010Prop56
140
1.0
102
RTVSPost2010PropOp56
 70
     1
102
RTVSPost2010Prop57
140
1.0
102
RTVSPost2010PropOp57
 70
     1
  0
XRECORD
  5
1D9
102
{ACAD_REACTORS
330
1D8
102
}
330
1D8
100
AcDbXrecord
280
     1
102
RTVSPost2010Prop28
280
     0
102
RTVSPost2010PropOp28
 70
     1
102
RTVSPost2010Prop29
280
     1
102
RTVSPost2010PropOp29
 70
     1
102
RTVSPost2010Prop30
280
     1
102
RTVSPost2010PropOp30
 70
     1
102
RTVSPost2010Prop31
280
     0
102
RTVSPost2010PropOp31
 70
     1
102
RTVSPost2010Prop32
280
     0
102
RTVSPost2010PropOp32
 70
     1
102
RTVSPost2010Prop33
280
     0
102
RTVSPost2010PropOp33
 70
     1
102
RTVSPost2010Prop34
280
     0
102
RTVSPost2010PropOp34
 70
     1
102
RTVSPost2010Prop35
280
     0
102
RTVSPost2010PropOp35
 70
     1
102
RTVSPost2010Prop36
280
     0
102
RTVSPost2010PropOp36
 70
     1
102
RTVSPost2010Prop37
 90
       50
102
RTVSPost2010PropOp37
 70
     1
102
RTVSPost2010Prop38
140
0.0
102
RTVSPost2010PropOp38
 70
     1
102
RTVSPost2010Prop39
140
1.0
102
RTVSPost2010PropOp39
 70
     1
102
RTVSPost2010Prop40
 90
        0
102
RTVSPost2010PropOp40
 70
     1
102
RTVSPost2010Prop41ColorIndex
 90
       18
102
RTVSPost2010Prop41ColorRGB
 90
        0
102
RTVSPost2010PropOp41
 70
     1
102
RTVSPost2010Prop42
 90
       50
102
RTVSPost2010PropOp42
 70
     1
102
RTVSPost2010Prop43
 90
        3
102
RTVSPost2010PropOp43
 70
     1
102
RTVSPost2010Prop44ColorIndex
 90
        5
102
RTVSPost2010Prop44ColorRGB
 90
      255
102
RTVSPost2010PropOp44
 70
     1
102
RTVSPost2010Prop45
280
     0
102
RTVSPost2010PropOp45
 70
     1
102
RTVSPost2010Prop46
 90
       50
102
RTVSPost2010PropOp46
 70
     1
102
RTVSPost2010Prop47
 90
       50
102
RTVSPost2010PropOp47
 70
     1
102
RTVSPost2010Prop48
 90
       50
102
RTVSPost2010PropOp48
 70
     1
102
RTVSPost2010Prop49
280
     0
102
RTVSPost2010PropOp49
 70
     1
102
RTVSPost2010Prop50
 90
       50
102
RTVSPost2010PropOp50
 70
     1
102
RTVSPost2010Prop51ColorIndex
 90
      256
102
RTVSPost2010Prop51ColorRGB
 90
-16777216
102
RTVSPost2010PropOp51
 70
     0
102
RTVSPost2010Prop52
140
1.0
102
RTVSPost2010PropOp52
 70
     0
102
RTVSPost2010Prop53
 90
        2
102
RTVSPost2010PropOp53
 70
     1
102
RTVSPost2010Prop54
  1
strokes_ogs.tif
102
RTVSPost2010PropOp54
 70
     1
102
RTVSPost2010Prop55
280
     0
102
RTVSPost2010PropOp55
 70
     1
102
RTVSPost2010Prop56
140
1.0
102
RTVSPost2010PropOp56
 70
     1
102
RTVSPost2010Prop57
140
1.0
102
RTVSPost2010PropOp57
 70
     1
  0
XRECORD
  5
1DF
102
{ACAD_REACTORS
330
1DE
102
}
330
1DE
100
AcDbXrecord
280
     1
102
RTVSPost2010Prop28
280
     0
102
RTVSPost2010PropOp28
 70
     1
102
RTVSPost2010Prop29
280
     1
102
RTVSPost2010PropOp29
 70
     1
102
RTVSPost2010Prop30
280
     1
102
RTVSPost2010PropOp30
 70
     1
102
RTVSPost2010Prop31
280
     0
102
RTVSPost2010PropOp31
 70
     1
102
RTVSPost2010Prop32
280
     0
102
RTVSPost2010PropOp32
 70
     1
102
RTVSPost2010Prop33
280
     0
102
RTVSPost2010PropOp33
 70
     1
102
RTVSPost2010Prop34
280
     0
102
RTVSPost2010PropOp34
 70
     1
102
RTVSPost2010Prop35
280
     0
102
RTVSPost2010PropOp35
 70
     1
102
RTVSPost2010Prop36
280
     0
102
RTVSPost2010PropOp36
 70
     1
102
RTVSPost2010Prop37
 90
       50
102
RTVSPost2010PropOp37
 70
     1
102
RTVSPost2010Prop38
140
0.0
102
RTVSPost2010PropOp38
 70
     1
102
RTVSPost2010Prop39
140
1.0
102
RTVSPost2010PropOp39
 70
     1
102
RTVSPost2010Prop40
 90
        0
102
RTVSPost2010PropOp40
 70
     1
102
RTVSPost2010Prop41ColorIndex
 90
       18
102
RTVSPost2010Prop41ColorRGB
 90
        0
102
RTVSPost2010PropOp41
 70
     1
102
RTVSPost2010Prop42
 90
       50
102
RTVSPost2010PropOp42
 70
     1
102
RTVSPost2010Prop43
 90
        3
102
RTVSPost2010PropOp43
 70
     1
102
RTVSPost2010Prop44ColorIndex
 90
        5
102
RTVSPost2010Prop44ColorRGB
 90
      255
102
RTVSPost2010PropOp44
 70
     1
102
RTVSPost2010Prop45
280
     0
102
RTVSPost2010PropOp45
 70
     1
102
RTVSPost2010Prop46
 90
       50
102
RTVSPost2010PropOp46
 70
     1
102
RTVSPost2010Prop47
 90
       50
102
RTVSPost2010PropOp47
 70
     1
102
RTVSPost2010Prop48
 90
       50
102
RTVSPost2010PropOp48
 70
     1
102
RTVSPost2010Prop49
280
     0
102
RTVSPost2010PropOp49
 70
     1
102
RTVSPost2010Prop50
 90
       50
102
RTVSPost2010PropOp50
 70
     1
102
RTVSPost2010Prop51ColorIndex
 90
      256
102
RTVSPost2010Prop51ColorRGB
 90
-16777216
102
RTVSPost2010PropOp51
 70
     0
102
RTVSPost2010Prop52
140
1.0
102
RTVSPost2010PropOp52
 70
     0
102
RTVSPost2010Prop53
 90
        2
102
RTVSPost2010PropOp53
 70
     1
102
RTVSPost2010Prop54
  1
strokes_ogs.tif
102
RTVSPost2010PropOp54
 70
     1
102
RTVSPost2010Prop55
280
     0
102
RTVSPost2010PropOp55
 70
     1
102
RTVSPost2010Prop56
140
1.0
102
RTVSPost2010PropOp56
 70
     1
102
RTVSPost2010Prop57
140
1.0
102
RTVSPost2010PropOp57
 70
     1
  0
XRECORD
  5
1F3
102
{ACAD_REACTORS
330
1F2
102
}
330
1F2
100
AcDbXrecord
280
     1
102
RTVSPost2010Prop28
280
     0
102
RTVSPost2010PropOp28
 70
     0
102
RTVSPost2010Prop29
280
     1
102
RTVSPost2010PropOp29
 70
     0
102
RTVSPost2010Prop30
280
     1
102
RTVSPost2010PropOp30
 70
     0
102
RTVSPost2010Prop31
280
     0
102
RTVSPost2010PropOp31
 70
     0
102
RTVSPost2010Prop32
280
     0
102
RTVSPost2010PropOp32
 70
     0
102
RTVSPost2010Prop33
280
     0
102
RTVSPost2010PropOp33
 70
     0
102
RTVSPost2010Prop34
280
     0
102
RTVSPost2010PropOp34
 70
     0
102
RTVSPost2010Prop35
280
     0
102
RTVSPost2010PropOp35
 70
     0
102
RTVSPost2010Prop36
280
     0
102
RTVSPost2010PropOp36
 70
     0
102
RTVSPost2010Prop37
 90
       50
102
RTVSPost2010PropOp37
 70
     0
102
RTVSPost2010Prop38
140
0.0
102
RTVSPost2010PropOp38
 70
     0
102
RTVSPost2010Prop39
140
1.0
102
RTVSPost2010PropOp39
 70
     0
102
RTVSPost2010Prop40
 90
        0
102
RTVSPost2010PropOp40
 70
     0
102
RTVSPost2010Prop41ColorIndex
 90
       18
102
RTVSPost2010Prop41ColorRGB
 90
        0
102
RTVSPost2010PropOp41
 70
     0
102
RTVSPost2010Prop42
 90
       50
102
RTVSPost2010PropOp42
 70
     0
102
RTVSPost2010Prop43
 90
        3
102
RTVSPost2010PropOp43
 70
     0
102
RTVSPost2010Prop44ColorIndex
 90
        5
102
RTVSPost2010Prop44ColorRGB
 90
      255
102
RTVSPost2010PropOp44
 70
     0
102
RTVSPost2010Prop45
280
     0
102
RTVSPost2010PropOp45
 70
     0
102
RTVSPost2010Prop46
 90
       50
102
RTVSPost2010PropOp46
 70
     0
102
RTVSPost2010Prop47
 90
       50
102
RTVSPost2010PropOp47
 70
     0
102
RTVSPost2010Prop48
 90
       50
102
RTVSPost2010PropOp48
 70
     0
102
RTVSPost2010Prop49
280
     0
102
RTVSPost2010PropOp49
 70
     0
102
RTVSPost2010Prop50
 90
       50
102
RTVSPost2010PropOp50
 70
     0
102
RTVSPost2010Prop51ColorIndex
 90
      256
102
RTVSPost2010Prop51ColorRGB
 90
-16777216
102
RTVSPost2010PropOp51
 70
     0
102
RTVSPost2010Prop52
140
1.0
102
RTVSPost2010PropOp52
 70
     0
102
RTVSPost2010Prop53
 90
        2
102
RTVSPost2010PropOp53
 70
     0
102
RTVSPost2010Prop54
  1
strokes_ogs.tif
102
RTVSPost2010PropOp54
 70
     0
102
RTVSPost2010Prop55
280
     0
102
RTVSPost2010PropOp55
 70
     0
102
RTVSPost2010Prop56
140
1.0
102
RTVSPost2010PropOp56
 70
     0
102
RTVSPost2010Prop57
140
1.0
102
RTVSPost2010PropOp57
 70
     0
  0
XRECORD
  5
1ED
102
{ACAD_REACTORS
330
1EC
102
}
330
1EC
100
AcDbXrecord
280
     1
102
RTVSPost2010Prop28
280
     0
102
RTVSPost2010PropOp28
 70
     1
102
RTVSPost2010Prop29
280
     1
102
RTVSPost2010PropOp29
 70
     1
102
RTVSPost2010Prop30
280
     1
102
RTVSPost2010PropOp30
 70
     1
102
RTVSPost2010Prop31
280
     0
102
RTVSPost2010PropOp31
 70
     1
102
RTVSPost2010Prop32
280
     0
102
RTVSPost2010PropOp32
 70
     1
102
RTVSPost2010Prop33
280
     0
102
RTVSPost2010PropOp33
 70
     1
102
RTVSPost2010Prop34
280
     0
102
RTVSPost2010PropOp34
 70
     1
102
RTVSPost2010Prop35
280
     0
102
RTVSPost2010PropOp35
 70
     1
102
RTVSPost2010Prop36
280
     0
102
RTVSPost2010PropOp36
 70
     1
102
RTVSPost2010Prop37
 90
       50
102
RTVSPost2010PropOp37
 70
     1
102
RTVSPost2010Prop38
140
0.0
102
RTVSPost2010PropOp38
 70
     1
102
RTVSPost2010Prop39
140
1.0
102
RTVSPost2010PropOp39
 70
     1
102
RTVSPost2010Prop40
 90
        0
102
RTVSPost2010PropOp40
 70
     1
102
RTVSPost2010Prop41ColorIndex
 90
       18
102
RTVSPost2010Prop41ColorRGB
 90
        0
102
RTVSPost2010PropOp41
 70
     1
102
RTVSPost2010Prop42
 90
       50
102
RTVSPost2010PropOp42
 70
     1
102
RTVSPost2010Prop43
 90
        3
102
RTVSPost2010PropOp43
 70
     1
102
RTVSPost2010Prop44ColorIndex
 90
        5
102
RTVSPost2010Prop44ColorRGB
 90
      255
102
RTVSPost2010PropOp44
 70
     1
102
RTVSPost2010Prop45
280
     0
102
RTVSPost2010PropOp45
 70
     1
102
RTVSPost2010Prop46
 90
       50
102
RTVSPost2010PropOp46
 70
     1
102
RTVSPost2010Prop47
 90
       50
102
RTVSPost2010PropOp47
 70
     1
102
RTVSPost2010Prop48
 90
       50
102
RTVSPost2010PropOp48
 70
     1
102
RTVSPost2010Prop49
280
     0
102
RTVSPost2010PropOp49
 70
     1
102
RTVSPost2010Prop50
 90
       50
102
RTVSPost2010PropOp50
 70
     1
102
RTVSPost2010Prop51ColorIndex
 90
      256
102
RTVSPost2010Prop51ColorRGB
 90
-16777216
102
RTVSPost2010PropOp51
 70
     0
102
RTVSPost2010Prop52
140
1.0
102
RTVSPost2010PropOp52
 70
     0
102
RTVSPost2010Prop53
 90
        2
102
RTVSPost2010PropOp53
 70
     1
102
RTVSPost2010Prop54
  1
strokes_ogs.tif
102
RTVSPost2010PropOp54
 70
     1
102
RTVSPost2010Prop55
280
     0
102
RTVSPost2010PropOp55
 70
     1
102
RTVSPost2010Prop56
140
1.0
102
RTVSPost2010PropOp56
 70
     1
102
RTVSPost2010Prop57
140
1.0
102
RTVSPost2010PropOp57
 70
     1
  0
XRECORD
  5
1F5
102
{ACAD_REACTORS
330
1F4
102
}
330
1F4
100
AcDbXrecord
280
     1
102
RTVSPost2010Prop28
280
     0
102
RTVSPost2010PropOp28
 70
     0
102
RTVSPost2010Prop29
280
     1
102
RTVSPost2010PropOp29
 70
     0
102
RTVSPost2010Prop30
280
     1
102
RTVSPost2010PropOp30
 70
     0
102
RTVSPost2010Prop31
280
     0
102
RTVSPost2010PropOp31
 70
     0
102
RTVSPost2010Prop32
280
     0
102
RTVSPost2010PropOp32
 70
     0
102
RTVSPost2010Prop33
280
     0
102
RTVSPost2010PropOp33
 70
     0
102
RTVSPost2010Prop34
280
     0
102
RTVSPost2010PropOp34
 70
     0
102
RTVSPost2010Prop35
280
     0
102
RTVSPost2010PropOp35
 70
     0
102
RTVSPost2010Prop36
280
     0
102
RTVSPost2010PropOp36
 70
     0
102
RTVSPost2010Prop37
 90
       50
102
RTVSPost2010PropOp37
 70
     0
102
RTVSPost2010Prop38
140
0.0
102
RTVSPost2010PropOp38
 70
     0
102
RTVSPost2010Prop39
140
1.0
102
RTVSPost2010PropOp39
 70
     0
102
RTVSPost2010Prop40
 90
        0
102
RTVSPost2010PropOp40
 70
     0
102
RTVSPost2010Prop41ColorIndex
 90
       18
102
RTVSPost2010Prop41ColorRGB
 90
        0
102
RTVSPost2010PropOp41
 70
     0
102
RTVSPost2010Prop42
 90
       50
102
RTVSPost2010PropOp42
 70
     0
102
RTVSPost2010Prop43
 90
        3
102
RTVSPost2010PropOp43
 70
     0
102
RTVSPost2010Prop44ColorIndex
 90
        5
102
RTVSPost2010Prop44ColorRGB
 90
      255
102
RTVSPost2010PropOp44
 70
     0
102
RTVSPost2010Prop45
280
     0
102
RTVSPost2010PropOp45
 70
     0
102
RTVSPost2010Prop46
 90
       50
102
RTVSPost2010PropOp46
 70
     0
102
RTVSPost2010Prop47
 90
       50
102
RTVSPost2010PropOp47
 70
     0
102
RTVSPost2010Prop48
 90
       50
102
RTVSPost2010PropOp48
 70
     0
102
RTVSPost2010Prop49
280
     0
102
RTVSPost2010PropOp49
 70
     0
102
RTVSPost2010Prop50
 90
       50
102
RTVSPost2010PropOp50
 70
     0
102
RTVSPost2010Prop51ColorIndex
 90
      256
102
RTVSPost2010Prop51ColorRGB
 90
-16777216
102
RTVSPost2010PropOp51
 70
     0
102
RTVSPost2010Prop52
140
1.0
102
RTVSPost2010PropOp52
 70
     0
102
RTVSPost2010Prop53
 90
        2
102
RTVSPost2010PropOp53
 70
     0
102
RTVSPost2010Prop54
  1
strokes_ogs.tif
102
RTVSPost2010PropOp54
 70
     0
102
RTVSPost2010Prop55
280
     0
102
RTVSPost2010PropOp55
 70
     0
102
RTVSPost2010Prop56
140
1.0
102
RTVSPost2010PropOp56
 70
     0
102
RTVSPost2010Prop57
140
1.0
102
RTVSPost2010PropOp57
 70
     0
  0
XRECORD
  5
1E3
102
{ACAD_REACTORS
330
1E2
102
}
330
1E2
100
AcDbXrecord
280
     1
102
RTVSPost2010Prop28
280
     0
102
RTVSPost2010PropOp28
 70
     1
102
RTVSPost2010Prop29
280
     1
102
RTVSPost2010PropOp29
 70
     1
102
RTVSPost2010Prop30
280
     1
102
RTVSPost2010PropOp30
 70
     1
102
RTVSPost2010Prop31
280
     0
102
RTVSPost2010PropOp31
 70
     1
102
RTVSPost2010Prop32
280
     0
102
RTVSPost2010PropOp32
 70
     1
102
RTVSPost2010Prop33
280
     0
102
RTVSPost2010PropOp33
 70
     1
102
RTVSPost2010Prop34
280
     0
102
RTVSPost2010PropOp34
 70
     1
102
RTVSPost2010Prop35
280
     0
102
RTVSPost2010PropOp35
 70
     1
102
RTVSPost2010Prop36
280
     0
102
RTVSPost2010PropOp36
 70
     1
102
RTVSPost2010Prop37
 90
       50
102
RTVSPost2010PropOp37
 70
     1
102
RTVSPost2010Prop38
140
0.0
102
RTVSPost2010PropOp38
 70
     1
102
RTVSPost2010Prop39
140
1.0
102
RTVSPost2010PropOp39
 70
     1
102
RTVSPost2010Prop40
 90
        0
102
RTVSPost2010PropOp40
 70
     1
102
RTVSPost2010Prop41ColorIndex
 90
       18
102
RTVSPost2010Prop41ColorRGB
 90
        0
102
RTVSPost2010PropOp41
 70
     1
102
RTVSPost2010Prop42
 90
       50
102
RTVSPost2010PropOp42
 70
     1
102
RTVSPost2010Prop43
 90
        3
102
RTVSPost2010PropOp43
 70
     1
102
RTVSPost2010Prop44ColorIndex
 90
        5
102
RTVSPost2010Prop44ColorRGB
 90
      255
102
RTVSPost2010PropOp44
 70
     1
102
RTVSPost2010Prop45
280
     0
102
RTVSPost2010PropOp45
 70
     1
102
RTVSPost2010Prop46
 90
       50
102
RTVSPost2010PropOp46
 70
     1
102
RTVSPost2010Prop47
 90
       50
102
RTVSPost2010PropOp47
 70
     1
102
RTVSPost2010Prop48
 90
       50
102
RTVSPost2010PropOp48
 70
     1
102
RTVSPost2010Prop49
280
     0
102
RTVSPost2010PropOp49
 70
     1
102
RTVSPost2010Prop50
 90
       50
102
RTVSPost2010PropOp50
 70
     1
102
RTVSPost2010Prop51ColorIndex
 90
      256
102
RTVSPost2010Prop51ColorRGB
 90
-16777216
102
RTVSPost2010PropOp51
 70
     0
102
RTVSPost2010Prop52
140
1.0
102
RTVSPost2010PropOp52
 70
     0
102
RTVSPost2010Prop53
 90
        2
102
RTVSPost2010PropOp53
 70
     1
102
RTVSPost2010Prop54
  1
strokes_ogs.tif
102
RTVSPost2010PropOp54
 70
     1
102
RTVSPost2010Prop55
280
     0
102
RTVSPost2010PropOp55
 70
     1
102
RTVSPost2010Prop56
140
1.0
102
RTVSPost2010PropOp56
 70
     1
102
RTVSPost2010Prop57
140
1.0
102
RTVSPost2010PropOp57
 70
     1
  0
XRECORD
  5
201
102
{ACAD_REACTORS
330
200
102
}
330
200
100
AcDbXrecord
280
     1
102
RTVSPost2010Prop28
280
     0
102
RTVSPost2010PropOp28
 70
     1
102
RTVSPost2010Prop29
280
     1
102
RTVSPost2010PropOp29
 70
     1
102
RTVSPost2010Prop30
280
     1
102
RTVSPost2010PropOp30
 70
     1
102
RTVSPost2010Prop31
280
     0
102
RTVSPost2010PropOp31
 70
     1
102
RTVSPost2010Prop32
280
     0
102
RTVSPost2010PropOp32
 70
     1
102
RTVSPost2010Prop33
280
     0
102
RTVSPost2010PropOp33
 70
     1
102
RTVSPost2010Prop34
280
     0
102
RTVSPost2010PropOp34
 70
     1
102
RTVSPost2010Prop35
280
     0
102
RTVSPost2010PropOp35
 70
     1
102
RTVSPost2010Prop36
280
     0
102
RTVSPost2010PropOp36
 70
     1
102
RTVSPost2010Prop37
 90
       50
102
RTVSPost2010PropOp37
 70
     1
102
RTVSPost2010Prop38
140
0.0
102
RTVSPost2010PropOp38
 70
     1
102
RTVSPost2010Prop39
140
1.0
102
RTVSPost2010PropOp39
 70
     1
102
RTVSPost2010Prop40
 90
        0
102
RTVSPost2010PropOp40
 70
     1
102
RTVSPost2010Prop41ColorIndex
 90
       18
102
RTVSPost2010Prop41ColorRGB
 90
        0
102
RTVSPost2010PropOp41
 70
     1
102
RTVSPost2010Prop42
 90
       50
102
RTVSPost2010PropOp42
 70
     1
102
RTVSPost2010Prop43
 90
        3
102
RTVSPost2010PropOp43
 70
     1
102
RTVSPost2010Prop44ColorIndex
 90
        5
102
RTVSPost2010Prop44ColorRGB
 90
      255
102
RTVSPost2010PropOp44
 70
     1
102
RTVSPost2010Prop45
280
     0
102
RTVSPost2010PropOp45
 70
     1
102
RTVSPost2010Prop46
 90
       50
102
RTVSPost2010PropOp46
 70
     1
102
RTVSPost2010Prop47
 90
       50
102
RTVSPost2010PropOp47
 70
     1
102
RTVSPost2010Prop48
 90
       50
102
RTVSPost2010PropOp48
 70
     1
102
RTVSPost2010Prop49
280
     0
102
RTVSPost2010PropOp49
 70
     1
102
RTVSPost2010Prop50
 90
       50
102
RTVSPost2010PropOp50
 70
     1
102
RTVSPost2010Prop51ColorIndex
 90
      256
102
RTVSPost2010Prop51ColorRGB
 90
-16777216
102
RTVSPost2010PropOp51
 70
     0
102
RTVSPost2010Prop52
140
1.0
102
RTVSPost2010PropOp52
 70
     0
102
RTVSPost2010Prop53
 90
        2
102
RTVSPost2010PropOp53
 70
     1
102
RTVSPost2010Prop54
  1
strokes_ogs.tif
102
RTVSPost2010PropOp54
 70
     1
102
RTVSPost2010Prop55
280
     0
102
RTVSPost2010PropOp55
 70
     1
102
RTVSPost2010Prop56
140
1.0
102
RTVSPost2010PropOp56
 70
     1
102
RTVSPost2010Prop57
140
1.0
102
RTVSPost2010PropOp57
 70
     1
  0
XRECORD
  5
1FF
102
{ACAD_REACTORS
330
1FE
102
}
330
1FE
100
AcDbXrecord
280
     1
102
RTVSPost2010Prop28
280
     0
102
RTVSPost2010PropOp28
 70
     1
102
RTVSPost2010Prop29
280
     1
102
RTVSPost2010PropOp29
 70
     1
102
RTVSPost2010Prop30
280
     1
102
RTVSPost2010PropOp30
 70
     1
102
RTVSPost2010Prop31
280
     0
102
RTVSPost2010PropOp31
 70
     1
102
RTVSPost2010Prop32
280
     0
102
RTVSPost2010PropOp32
 70
     1
102
RTVSPost2010Prop33
280
     0
102
RTVSPost2010PropOp33
 70
     1
102
RTVSPost2010Prop34
280
     0
102
RTVSPost2010PropOp34
 70
     1
102
RTVSPost2010Prop35
280
     0
102
RTVSPost2010PropOp35
 70
     1
102
RTVSPost2010Prop36
280
     0
102
RTVSPost2010PropOp36
 70
     1
102
RTVSPost2010Prop37
 90
       50
102
RTVSPost2010PropOp37
 70
     1
102
RTVSPost2010Prop38
140
0.0
102
RTVSPost2010PropOp38
 70
     1
102
RTVSPost2010Prop39
140
1.0
102
RTVSPost2010PropOp39
 70
     1
102
RTVSPost2010Prop40
 90
        0
102
RTVSPost2010PropOp40
 70
     1
102
RTVSPost2010Prop41ColorIndex
 90
       18
102
RTVSPost2010Prop41ColorRGB
 90
        0
102
RTVSPost2010PropOp41
 70
     1
102
RTVSPost2010Prop42
 90
       50
102
RTVSPost2010PropOp42
 70
     1
102
RTVSPost2010Prop43
 90
        3
102
RTVSPost2010PropOp43
 70
     1
102
RTVSPost2010Prop44ColorIndex
 90
        5
102
RTVSPost2010Prop44ColorRGB
 90
      255
102
RTVSPost2010PropOp44
 70
     1
102
RTVSPost2010Prop45
280
     0
102
RTVSPost2010PropOp45
 70
     1
102
RTVSPost2010Prop46
 90
       50
102
RTVSPost2010PropOp46
 70
     1
102
RTVSPost2010Prop47
 90
       50
102
RTVSPost2010PropOp47
 70
     1
102
RTVSPost2010Prop48
 90
       50
102
RTVSPost2010PropOp48
 70
     1
102
RTVSPost2010Prop49
280
     0
102
RTVSPost2010PropOp49
 70
     1
102
RTVSPost2010Prop50
 90
       50
102
RTVSPost2010PropOp50
 70
     1
102
RTVSPost2010Prop51ColorIndex
 90
      256
102
RTVSPost2010Prop51ColorRGB
 90
-16777216
102
RTVSPost2010PropOp51
 70
     0
102
RTVSPost2010Prop52
140
1.0
102
RTVSPost2010PropOp52
 70
     0
102
RTVSPost2010Prop53
 90
        2
102
RTVSPost2010PropOp53
 70
     1
102
RTVSPost2010Prop54
  1
strokes_ogs.tif
102
RTVSPost2010PropOp54
 70
     1
102
RTVSPost2010Prop55
280
     0
102
RTVSPost2010PropOp55
 70
     1
102
RTVSPost2010Prop56
140
1.0
102
RTVSPost2010PropOp56
 70
     1
102
RTVSPost2010Prop57
140
1.0
102
RTVSPost2010PropOp57
 70
     1
  0
XRECORD
  5
1F9
102
{ACAD_REACTORS
330
1F8
102
}
330
1F8
100
AcDbXrecord
280
     1
102
RTVSPost2010Prop28
280
     0
102
RTVSPost2010PropOp28
 70
     1
102
RTVSPost2010Prop29
280
     1
102
RTVSPost2010PropOp29
 70
     1
102
RTVSPost2010Prop30
280
     1
102
RTVSPost2010PropOp30
 70
     1
102
RTVSPost2010Prop31
280
     0
102
RTVSPost2010PropOp31
 70
     1
102
RTVSPost2010Prop32
280
     0
102
RTVSPost2010PropOp32
 70
     1
102
RTVSPost2010Prop33
280
     0
102
RTVSPost2010PropOp33
 70
     1
102
RTVSPost2010Prop34
280
     0
102
RTVSPost2010PropOp34
 70
     1
102
RTVSPost2010Prop35
280
     0
102
RTVSPost2010PropOp35
 70
     1
102
RTVSPost2010Prop36
280
     0
102
RTVSPost2010PropOp36
 70
     1
102
RTVSPost2010Prop37
 90
       50
102
RTVSPost2010PropOp37
 70
     1
102
RTVSPost2010Prop38
140
0.0
102
RTVSPost2010PropOp38
 70
     1
102
RTVSPost2010Prop39
140
1.0
102
RTVSPost2010PropOp39
 70
     1
102
RTVSPost2010Prop40
 90
        0
102
RTVSPost2010PropOp40
 70
     1
102
RTVSPost2010Prop41ColorIndex
 90
       18
102
RTVSPost2010Prop41ColorRGB
 90
        0
102
RTVSPost2010PropOp41
 70
     1
102
RTVSPost2010Prop42
 90
       50
102
RTVSPost2010PropOp42
 70
     1
102
RTVSPost2010Prop43
 90
        3
102
RTVSPost2010PropOp43
 70
     1
102
RTVSPost2010Prop44ColorIndex
 90
        5
102
RTVSPost2010Prop44ColorRGB
 90
      255
102
RTVSPost2010PropOp44
 70
     1
102
RTVSPost2010Prop45
280
     0
102
RTVSPost2010PropOp45
 70
     1
102
RTVSPost2010Prop46
 90
       50
102
RTVSPost2010PropOp46
 70
     1
102
RTVSPost2010Prop47
 90
       50
102
RTVSPost2010PropOp47
 70
     1
102
RTVSPost2010Prop48
 90
       50
102
RTVSPost2010PropOp48
 70
     1
102
RTVSPost2010Prop49
280
     0
102
RTVSPost2010PropOp49
 70
     1
102
RTVSPost2010Prop50
 90
       50
102
RTVSPost2010PropOp50
 70
     1
102
RTVSPost2010Prop51ColorIndex
 90
      256
102
RTVSPost2010Prop51ColorRGB
 90
-16777216
102
RTVSPost2010PropOp51
 70
     0
102
RTVSPost2010Prop52
140
1.0
102
RTVSPost2010PropOp52
 70
     0
102
RTVSPost2010Prop53
 90
        2
102
RTVSPost2010PropOp53
 70
     1
102
RTVSPost2010Prop54
  1
strokes_ogs.tif
102
RTVSPost2010PropOp54
 70
     1
102
RTVSPost2010Prop55
280
     0
102
RTVSPost2010PropOp55
 70
     1
102
RTVSPost2010Prop56
140
1.0
102
RTVSPost2010PropOp56
 70
     1
102
RTVSPost2010Prop57
140
1.0
102
RTVSPost2010PropOp57
 70
     1
  0
XRECORD
  5
1FB
102
{ACAD_REACTORS
330
1FA
102
}
330
1FA
100
AcDbXrecord
280
     1
102
RTVSPost2010Prop28
280
     0
102
RTVSPost2010PropOp28
 70
     1
102
RTVSPost2010Prop29
280
     1
102
RTVSPost2010PropOp29
 70
     1
102
RTVSPost2010Prop30
280
     1
102
RTVSPost2010PropOp30
 70
     1
102
RTVSPost2010Prop31
280
     0
102
RTVSPost2010PropOp31
 70
     1
102
RTVSPost2010Prop32
280
     0
102
RTVSPost2010PropOp32
 70
     1
102
RTVSPost2010Prop33
280
     0
102
RTVSPost2010PropOp33
 70
     1
102
RTVSPost2010Prop34
280
     0
102
RTVSPost2010PropOp34
 70
     1
102
RTVSPost2010Prop35
280
     0
102
RTVSPost2010PropOp35
 70
     1
102
RTVSPost2010Prop36
280
     0
102
RTVSPost2010PropOp36
 70
     1
102
RTVSPost2010Prop37
 90
       50
102
RTVSPost2010PropOp37
 70
     1
102
RTVSPost2010Prop38
140
0.0
102
RTVSPost2010PropOp38
 70
     1
102
RTVSPost2010Prop39
140
1.0
102
RTVSPost2010PropOp39
 70
     1
102
RTVSPost2010Prop40
 90
        0
102
RTVSPost2010PropOp40
 70
     1
102
RTVSPost2010Prop41ColorIndex
 90
       18
102
RTVSPost2010Prop41ColorRGB
 90
        0
102
RTVSPost2010PropOp41
 70
     1
102
RTVSPost2010Prop42
 90
       50
102
RTVSPost2010PropOp42
 70
     1
102
RTVSPost2010Prop43
 90
        3
102
RTVSPost2010PropOp43
 70
     1
102
RTVSPost2010Prop44ColorIndex
 90
        5
102
RTVSPost2010Prop44ColorRGB
 90
      255
102
RTVSPost2010PropOp44
 70
     1
102
RTVSPost2010Prop45
280
     0
102
RTVSPost2010PropOp45
 70
     1
102
RTVSPost2010Prop46
 90
       50
102
RTVSPost2010PropOp46
 70
     1
102
RTVSPost2010Prop47
 90
       50
102
RTVSPost2010PropOp47
 70
     1
102
RTVSPost2010Prop48
 90
       50
102
RTVSPost2010PropOp48
 70
     1
102
RTVSPost2010Prop49
280
     0
102
RTVSPost2010PropOp49
 70
     1
102
RTVSPost2010Prop50
 90
       50
102
RTVSPost2010PropOp50
 70
     1
102
RTVSPost2010Prop51ColorIndex
 90
      256
102
RTVSPost2010Prop51ColorRGB
 90
-16777216
102
RTVSPost2010PropOp51
 70
     0
102
RTVSPost2010Prop52
140
1.0
102
RTVSPost2010PropOp52
 70
     0
102
RTVSPost2010Prop53
 90
        2
102
RTVSPost2010PropOp53
 70
     1
102
RTVSPost2010Prop54
  1
strokes_ogs.tif
102
RTVSPost2010PropOp54
 70
     1
102
RTVSPost2010Prop55
280
     0
102
RTVSPost2010PropOp55
 70
     1
102
RTVSPost2010Prop56
140
1.0
102
RTVSPost2010PropOp56
 70
     1
102
RTVSPost2010Prop57
140
1.0
102
RTVSPost2010PropOp57
 70
     1
  0
XRECORD
  5
1EB
102
{ACAD_REACTORS
330
1EA
102
}
330
1EA
100
AcDbXrecord
280
     1
102
RTVSPost2010Prop28
280
     0
102
RTVSPost2010PropOp28
 70
     1
102
RTVSPost2010Prop29
280
     1
102
RTVSPost2010PropOp29
 70
     1
102
RTVSPost2010Prop30
280
     1
102
RTVSPost2010PropOp30
 70
     1
102
RTVSPost2010Prop31
280
     0
102
RTVSPost2010PropOp31
 70
     1
102
RTVSPost2010Prop32
280
     0
102
RTVSPost2010PropOp32
 70
     1
102
RTVSPost2010Prop33
280
     0
102
RTVSPost2010PropOp33
 70
     1
102
RTVSPost2010Prop34
280
     0
102
RTVSPost2010PropOp34
 70
     1
102
RTVSPost2010Prop35
280
     0
102
RTVSPost2010PropOp35
 70
     1
102
RTVSPost2010Prop36
280
     0
102
RTVSPost2010PropOp36
 70
     1
102
RTVSPost2010Prop37
 90
       50
102
RTVSPost2010PropOp37
 70
     1
102
RTVSPost2010Prop38
140
0.0
102
RTVSPost2010PropOp38
 70
     1
102
RTVSPost2010Prop39
140
1.0
102
RTVSPost2010PropOp39
 70
     1
102
RTVSPost2010Prop40
 90
        0
102
RTVSPost2010PropOp40
 70
     1
102
RTVSPost2010Prop41ColorIndex
 90
       18
102
RTVSPost2010Prop41ColorRGB
 90
        0
102
RTVSPost2010PropOp41
 70
     1
102
RTVSPost2010Prop42
 90
       50
102
RTVSPost2010PropOp42
 70
     1
102
RTVSPost2010Prop43
 90
        3
102
RTVSPost2010PropOp43
 70
     1
102
RTVSPost2010Prop44ColorIndex
 90
        5
102
RTVSPost2010Prop44ColorRGB
 90
      255
102
RTVSPost2010PropOp44
 70
     1
102
RTVSPost2010Prop45
280
     0
102
RTVSPost2010PropOp45
 70
     1
102
RTVSPost2010Prop46
 90
       50
102
RTVSPost2010PropOp46
 70
     1
102
RTVSPost2010Prop47
 90
       50
102
RTVSPost2010PropOp47
 70
     1
102
RTVSPost2010Prop48
 90
       50
102
RTVSPost2010PropOp48
 70
     1
102
RTVSPost2010Prop49
280
     0
102
RTVSPost2010PropOp49
 70
     1
102
RTVSPost2010Prop50
 90
       50
102
RTVSPost2010PropOp50
 70
     1
102
RTVSPost2010Prop51ColorIndex
 90
      256
102
RTVSPost2010Prop51ColorRGB
 90
-16777216
102
RTVSPost2010PropOp51
 70
     0
102
RTVSPost2010Prop52
140
1.0
102
RTVSPost2010PropOp52
 70
     0
102
RTVSPost2010Prop53
 90
        2
102
RTVSPost2010PropOp53
 70
     1
102
RTVSPost2010Prop54
  1
strokes_ogs.tif
102
RTVSPost2010PropOp54
 70
     1
102
RTVSPost2010Prop55
280
     0
102
RTVSPost2010PropOp55
 70
     1
102
RTVSPost2010Prop56
140
1.0
102
RTVSPost2010PropOp56
 70
     1
102
RTVSPost2010Prop57
140
1.0
102
RTVSPost2010PropOp57
 70
     1
  0
XRECORD
  5
1DD
102
{ACAD_REACTORS
330
1DC
102
}
330
1DC
100
AcDbXrecord
280
     1
102
RTVSPost2010Prop28
280
     0
102
RTVSPost2010PropOp28
 70
     1
102
RTVSPost2010Prop29
280
     1
102
RTVSPost2010PropOp29
 70
     1
102
RTVSPost2010Prop30
280
     1
102
RTVSPost2010PropOp30
 70
     1
102
RTVSPost2010Prop31
280
     0
102
RTVSPost2010PropOp31
 70
     1
102
RTVSPost2010Prop32
280
     0
102
RTVSPost2010PropOp32
 70
     1
102
RTVSPost2010Prop33
280
     0
102
RTVSPost2010PropOp33
 70
     1
102
RTVSPost2010Prop34
280
     0
102
RTVSPost2010PropOp34
 70
     1
102
RTVSPost2010Prop35
280
     0
102
RTVSPost2010PropOp35
 70
     1
102
RTVSPost2010Prop36
280
     0
102
RTVSPost2010PropOp36
 70
     1
102
RTVSPost2010Prop37
 90
       50
102
RTVSPost2010PropOp37
 70
     1
102
RTVSPost2010Prop38
140
0.0
102
RTVSPost2010PropOp38
 70
     1
102
RTVSPost2010Prop39
140
1.0
102
RTVSPost2010PropOp39
 70
     1
102
RTVSPost2010Prop40
 90
        0
102
RTVSPost2010PropOp40
 70
     1
102
RTVSPost2010Prop41ColorIndex
 90
       18
102
RTVSPost2010Prop41ColorRGB
 90
        0
102
RTVSPost2010PropOp41
 70
     1
102
RTVSPost2010Prop42
 90
       50
102
RTVSPost2010PropOp42
 70
     1
102
RTVSPost2010Prop43
 90
        3
102
RTVSPost2010PropOp43
 70
     1
102
RTVSPost2010Prop44ColorIndex
 90
        5
102
RTVSPost2010Prop44ColorRGB
 90
      255
102
RTVSPost2010PropOp44
 70
     1
102
RTVSPost2010Prop45
280
     0
102
RTVSPost2010PropOp45
 70
     1
102
RTVSPost2010Prop46
 90
       50
102
RTVSPost2010PropOp46
 70
     1
102
RTVSPost2010Prop47
 90
       50
102
RTVSPost2010PropOp47
 70
     1
102
RTVSPost2010Prop48
 90
       50
102
RTVSPost2010PropOp48
 70
     1
102
RTVSPost2010Prop49
280
     0
102
RTVSPost2010PropOp49
 70
     1
102
RTVSPost2010Prop50
 90
       50
102
RTVSPost2010PropOp50
 70
     1
102
RTVSPost2010Prop51ColorIndex
 90
      256
102
RTVSPost2010Prop51ColorRGB
 90
-16777216
102
RTVSPost2010PropOp51
 70
     0
102
RTVSPost2010Prop52
140
1.0
102
RTVSPost2010PropOp52
 70
     0
102
RTVSPost2010Prop53
 90
        2
102
RTVSPost2010PropOp53
 70
     1
102
RTVSPost2010Prop54
  1
strokes_ogs.tif
102
RTVSPost2010PropOp54
 70
     1
102
RTVSPost2010Prop55
280
     0
102
RTVSPost2010PropOp55
 70
     1
102
RTVSPost2010Prop56
140
1.0
102
RTVSPost2010PropOp56
 70
     1
102
RTVSPost2010Prop57
140
1.0
102
RTVSPost2010PropOp57
 70
     1
  0
XRECORD
  5
1FD
102
{ACAD_REACTORS
330
1FC
102
}
330
1FC
100
AcDbXrecord
280
     1
102
RTVSPost2010Prop28
280
     0
102
RTVSPost2010PropOp28
 70
     1
102
RTVSPost2010Prop29
280
     1
102
RTVSPost2010PropOp29
 70
     1
102
RTVSPost2010Prop30
280
     1
102
RTVSPost2010PropOp30
 70
     1
102
RTVSPost2010Prop31
280
     0
102
RTVSPost2010PropOp31
 70
     1
102
RTVSPost2010Prop32
280
     0
102
RTVSPost2010PropOp32
 70
     1
102
RTVSPost2010Prop33
280
     0
102
RTVSPost2010PropOp33
 70
     1
102
RTVSPost2010Prop34
280
     0
102
RTVSPost2010PropOp34
 70
     1
102
RTVSPost2010Prop35
280
     0
102
RTVSPost2010PropOp35
 70
     1
102
RTVSPost2010Prop36
280
     0
102
RTVSPost2010PropOp36
 70
     1
102
RTVSPost2010Prop37
 90
       50
102
RTVSPost2010PropOp37
 70
     1
102
RTVSPost2010Prop38
140
0.0
102
RTVSPost2010PropOp38
 70
     1
102
RTVSPost2010Prop39
140
1.0
102
RTVSPost2010PropOp39
 70
     1
102
RTVSPost2010Prop40
 90
        0
102
RTVSPost2010PropOp40
 70
     1
102
RTVSPost2010Prop41ColorIndex
 90
       18
102
RTVSPost2010Prop41ColorRGB
 90
        0
102
RTVSPost2010PropOp41
 70
     1
102
RTVSPost2010Prop42
 90
       50
102
RTVSPost2010PropOp42
 70
     1
102
RTVSPost2010Prop43
 90
        3
102
RTVSPost2010PropOp43
 70
     1
102
RTVSPost2010Prop44ColorIndex
 90
        5
102
RTVSPost2010Prop44ColorRGB
 90
      255
102
RTVSPost2010PropOp44
 70
     1
102
RTVSPost2010Prop45
280
     0
102
RTVSPost2010PropOp45
 70
     1
102
RTVSPost2010Prop46
 90
       50
102
RTVSPost2010PropOp46
 70
     1
102
RTVSPost2010Prop47
 90
       50
102
RTVSPost2010PropOp47
 70
     1
102
RTVSPost2010Prop48
 90
       50
102
RTVSPost2010PropOp48
 70
     1
102
RTVSPost2010Prop49
280
     0
102
RTVSPost2010PropOp49
 70
     1
102
RTVSPost2010Prop50
 90
       50
102
RTVSPost2010PropOp50
 70
     1
102
RTVSPost2010Prop51ColorIndex
 90
      256
102
RTVSPost2010Prop51ColorRGB
 90
-16777216
102
RTVSPost2010PropOp51
 70
     0
102
RTVSPost2010Prop52
140
1.0
102
RTVSPost2010PropOp52
 70
     0
102
RTVSPost2010Prop53
 90
        2
102
RTVSPost2010PropOp53
 70
     1
102
RTVSPost2010Prop54
  1
strokes_ogs.tif
102
RTVSPost2010PropOp54
 70
     1
102
RTVSPost2010Prop55
280
     0
102
RTVSPost2010PropOp55
 70
     1
102
RTVSPost2010Prop56
140
1.0
102
RTVSPost2010PropOp56
 70
     1
102
RTVSPost2010Prop57
140
1.0
102
RTVSPost2010PropOp57
 70
     1
  0
ENDSEC
  0
EOF
