  0
SECTION
  2
HEADER
  9
$ACADVER
  1
AC1024
  9
$ACADMAINTVER
 70
     6
  9
$DWGCODEPAGE
  3
ANSI_1252
  9
$LASTSAVEDBY
  1
BirnerR
  9
$INSBASE
 10
0.0
 20
0.0
 30
0.0
  9
$EXTMIN
 10
-4.265432
 20
-0.939177
 30
-4.265432
  9
$EXTMAX
 10
-3.215432
 20
0.545823
 30
-3.215432
  9
$LIMMIN
 10
-4.265432
 20
-0.939177
  9
$LIMMAX
 10
-3.215432
 20
0.545823
  9
$ORTHOMODE
 70
     0
  9
$REGENMODE
 70
     1
  9
$FILLMODE
 70
     1
  9
$QTEXTMODE
 70
     0
  9
$MIRRTEXT
 70
     1
  9
$LTSCALE
 40
1.0
  9
$ATTMODE
 70
     1
  9
$TEXTSIZE
 40
0.2
  9
$TRACEWID
 40
0.05
  9
$TEXTSTYLE
  7
Standard
  9
$CLAYER
  8
0
  9
$CELTYPE
  6
ByLayer
  9
$CECOLOR
 62
   256
  9
$CELTSCALE
 40
1.0
  9
$DISPSILH
 70
     0
  9
$DIMSCALE
 40
1.0
  9
$DIMASZ
 40
0.18
  9
$DIMEXO
 40
0.0625
  9
$DIMDLI
 40
0.38
  9
$DIMRND
 40
0.0
  9
$DIMDLE
 40
0.0
  9
$DIMEXE
 40
0.18
  9
$DIMTP
 40
0.0
  9
$DIMTM
 40
0.0
  9
$DIMTXT
 40
0.18
  9
$DIMCEN
 40
0.09
  9
$DIMTSZ
 40
0.0
  9
$DIMTOL
 70
     0
  9
$DIMLIM
 70
     0
  9
$DIMTIH
 70
     1
  9
$DIMTOH
 70
     1
  9
$DIMSE1
 70
     0
  9
$DIMSE2
 70
     0
  9
$DIMTAD
 70
     0
  9
$DIMZIN
 70
     0
  9
$DIMBLK
  1

  9
$DIMASO
 70
     1
  9
$DIMSHO
 70
     1
  9
$DIMPOST
  1

  9
$DIMAPOST
  1

  9
$DIMALT
 70
     0
  9
$DIMALTD
 70
     2
  9
$DIMALTF
 40
25.4
  9
$DIMLFAC
 40
1.0
  9
$DIMTOFL
 70
     0
  9
$DIMTVP
 40
0.0
  9
$DIMTIX
 70
     0
  9
$DIMSOXD
 70
     0
  9
$DIMSAH
 70
     0
  9
$DIMBLK1
  1

  9
$DIMBLK2
  1

  9
$DIMSTYLE
  2
Standard
  9
$DIMCLRD
 70
     0
  9
$DIMCLRE
 70
     0
  9
$DIMCLRT
 70
     0
  9
$DIMTFAC
 40
1.0
  9
$DIMGAP
 40
0.09
  9
$DIMJUST
 70
     0
  9
$DIMSD1
 70
     0
  9
$DIMSD2
 70
     0
  9
$DIMTOLJ
 70
     1
  9
$DIMTZIN
 70
     0
  9
$DIMALTZ
 70
     0
  9
$DIMALTTZ
 70
     0
  9
$DIMUPT
 70
     0
  9
$DIMDEC
 70
     4
  9
$DIMTDEC
 70
     4
  9
$DIMALTU
 70
     2
  9
$DIMALTTD
 70
     2
  9
$DIMTXSTY
  7
Standard
  9
$DIMAUNIT
 70
     0
  9
$DIMADEC
 70
     0
  9
$DIMALTRND
 40
0.0
  9
$DIMAZIN
 70
     0
  9
$DIMDSEP
 70
    46
  9
$DIMATFIT
 70
     3
  9
$DIMFRAC
 70
     0
  9
$DIMLDRBLK
  1

  9
$DIMLUNIT
 70
     2
  9
$DIMLWD
 70
    -2
  9
$DIMLWE
 70
    -2
  9
$DIMTMOVE
 70
     0
  9
$DIMFXL
 40
1.0
  9
$DIMFXLON
 70
     0
  9
$DIMJOGANG
 40
0.785398
  9
$DIMTFILL
 70
     0
  9
$DIMTFILLCLR
 70
     0
  9
$DIMARCSYM
 70
     0
  9
$DIMLTYPE
  6

  9
$DIMLTEX1
  6

  9
$DIMLTEX2
  6

  9
$DIMTXTDIRECTION
 70
     0
  9
$LUNITS
 70
     2
  9
$LUPREC
 70
     4
  9
$SKETCHINC
 40
0.1
  9
$FILLETRAD
 40
0.5
  9
$AUNITS
 70
     0
  9
$AUPREC
 70
     0
  9
$MENU
  1
.
  9
$ELEVATION
 40
0.0
  9
$PELEVATION
 40
0.0
  9
$THICKNESS
 40
0.0
  9
$LIMCHECK
 70
     0
  9
$CHAMFERA
 40
0.0
  9
$CHAMFERB
 40
0.0
  9
$CHAMFERC
 40
0.0
  9
$CHAMFERD
 40
0.0
  9
$SKPOLY
 70
     0
  9
$TDCREATE
 40
2459143.703420162
  9
$TDUCREATE
 40
2459143.620086829
  9
$TDUPDATE
 40
2459143.70344331
  9
$TDUUPDATE
 40
2459143.620109977
  9
$TDINDWG
 40
0.0000000116
  9
$TDUSRTIMER
 40
0.0000000116
  9
$USRTIMER
 70
     1
  9
$ANGBASE
 50
0.0
  9
$ANGDIR
 70
     0
  9
$PDMODE
 70
    65
  9
$PDSIZE
 40
0.0
  9
$PLINEWID
 40
0.0
  9
$SPLFRAME
 70
     0
  9
$SPLINETYPE
 70
     6
  9
$SPLINESEGS
 70
     8
  9
$HANDSEED
  5
102
  9
$SURFTAB1
 70
     6
  9
$SURFTAB2
 70
     6
  9
$SURFTYPE
 70
     6
  9
$SURFU
 70
     6
  9
$SURFV
 70
     6
  9
$UCSBASE
  2

  9
$UCSNAME
  2

  9
$UCSORG
 10
0.0
 20
0.0
 30
0.0
  9
$UCSXDIR
 10
1.0
 20
0.0
 30
0.0
  9
$UCSYDIR
 10
0.0
 20
1.0
 30
0.0
  9
$UCSORTHOREF
  2

  9
$UCSORTHOVIEW
 70
     0
  9
$UCSORGTOP
 10
0.0
 20
0.0
 30
0.0
  9
$UCSORGBOTTOM
 10
0.0
 20
0.0
 30
0.0
  9
$UCSORGLEFT
 10
0.0
 20
0.0
 30
0.0
  9
$UCSORGRIGHT
 10
0.0
 20
0.0
 30
0.0
  9
$UCSORGFRONT
 10
0.0
 20
0.0
 30
0.0
  9
$UCSORGBACK
 10
0.0
 20
0.0
 30
0.0
  9
$PUCSBASE
  2

  9
$PUCSNAME
  2

  9
$PUCSORG
 10
0.0
 20
0.0
 30
0.0
  9
$PUCSXDIR
 10
1.0
 20
0.0
 30
0.0
  9
$PUCSYDIR
 10
0.0
 20
1.0
 30
0.0
  9
$PUCSORTHOREF
  2

  9
$PUCSORTHOVIEW
 70
     0
  9
$PUCSORGTOP
 10
0.0
 20
0.0
 30
0.0
  9
$PUCSORGBOTTOM
 10
0.0
 20
0.0
 30
0.0
  9
$PUCSORGLEFT
 10
0.0
 20
0.0
 30
0.0
  9
$PUCSORGRIGHT
 10
0.0
 20
0.0
 30
0.0
  9
$PUCSORGFRONT
 10
0.0
 20
0.0
 30
0.0
  9
$PUCSORGBACK
 10
0.0
 20
0.0
 30
0.0
  9
$USERI1
 70
     0
  9
$USERI2
 70
     0
  9
$USERI3
 70
     0
  9
$USERI4
 70
     0
  9
$USERI5
 70
     0
  9
$USERR1
 40
0.0
  9
$USERR2
 40
0.0
  9
$USERR3
 40
0.0
  9
$USERR4
 40
0.0
  9
$USERR5
 40
0.0
  9
$WORLDVIEW
 70
     1
  9
$SHADEDGE
 70
     3
  9
$SHADEDIF
 70
    70
  9
$TILEMODE
 70
     0
  9
$MAXACTVP
 70
    64
  9
$PINSBASE
 10
0.0
 20
0.0
 30
0.0
  9
$PLIMCHECK
 70
     0
  9
$PEXTMIN
 10
-0.0001
 20
-0.0001
 30
0.0
  9
$PEXTMAX
 10
0.2101
 20
0.2971
 30
0.0
  9
$PLIMMIN
 10
-0.0001
 20
-0.0001
  9
$PLIMMAX
 10
0.2101
 20
0.2971
  9
$UNITMODE
 70
     0
  9
$VISRETAIN
 70
     1
  9
$PLINEGEN
 70
     0
  9
$PSLTSCALE
 70
     0
  9
$TREEDEPTH
 70
  3020
  9
$CMLSTYLE
  2
Standard
  9
$CMLJUST
 70
     0
  9
$CMLSCALE
 40
1.0
  9
$PROXYGRAPHICS
 70
     1
  9
$MEASUREMENT
 70
     1
  9
$CELWEIGHT
370
    -1
  9
$ENDCAPS
280
     0
  9
$JOINSTYLE
280
     0
  9
$LWDISPLAY
290
     0
  9
$INSUNITS
 70
     6
  9
$HYPERLINKBASE
  1

  9
$STYLESHEET
  1

  9
$XEDIT
290
     1
  9
$CEPSNTYPE
380
     0
  9
$PSTYLEMODE
290
     1
  9
$FINGERPRINTGUID
  2
{a469fe0d-03c9-4ca6-9491-3819380d0bc0}
  9
$VERSIONGUID
  2
{FAEB1C32-E019-11D5-929B-00C0DF256EC4}
  9
$EXTNAMES
290
     1
  9
$PSVPSCALE
 40
0.0
  9
$OLESTARTUP
290
     0
  9
$SORTENTS
280
   127
  9
$INDEXCTL
280
     0
  9
$HIDETEXT
280
     1
  9
$XCLIPFRAME
280
     2
  9
$HALOGAP
280
     0
  9
$OBSCOLOR
 70
   257
  9
$OBSLTYPE
280
     0
  9
$INTERSECTIONDISPLAY
280
     0
  9
$INTERSECTIONCOLOR
 70
   257
  9
$DIMASSOC
280
     2
  9
$PROJECTNAME
  1

  9
$CAMERADISPLAY
290
     0
  9
$LENSLENGTH
 40
50.0
  9
$CAMERAHEIGHT
 40
0.0
  9
$STEPSPERSEC
 40
2.0
  9
$STEPSIZE
 40
6.0
  9
$3DDWFPREC
 40
2.0
  9
$PSOLWIDTH
 40
0.25
  9
$PSOLHEIGHT
 40
4.0
  9
$LOFTANG1
 40
1.570796
  9
$LOFTANG2
 40
1.570796
  9
$LOFTMAG1
 40
0.0
  9
$LOFTMAG2
 40
0.0
  9
$LOFTPARAM
 70
     7
  9
$LOFTNORMALS
280
     1
  9
$LATITUDE
 40
37.795
  9
$LONGITUDE
 40
-122.394
  9
$NORTHDIRECTION
 40
0.0
  9
$TIMEZONE
 70
 -8000
  9
$LIGHTGLYPHDISPLAY
280
     1
  9
$TILEMODELIGHTSYNCH
280
     1
  9
$CMATERIAL
347
44
  9
$SOLIDHIST
280
     0
  9
$SHOWHIST
280
     1
  9
$DWFFRAME
280
     2
  9
$DGNFRAME
280
     2
  9
$REALWORLDSCALE
290
     1
  9
$INTERFERECOLOR
 62
   256
  9
$CSHADOW
280
     0
  9
$SHADOWPLANELOCATION
 40
0.0
  0
ENDSEC
  0
SECTION
  2
CLASSES
  0
CLASS
  1
ACDBDICTIONARYWDFLT
  2
AcDbDictionaryWithDefault
  3
ObjectDBX Classes
 90
        0
 91
        3
280
     0
281
     0
  0
CLASS
  1
VISUALSTYLE
  2
AcDbVisualStyle
  3
ObjectDBX Classes
 90
     4095
 91
        3
280
     0
281
     0
  0
CLASS
  1
MATERIAL
  2
AcDbMaterial
  3
ObjectDBX Classes
 90
     1153
 91
        3
280
     0
281
     0
  0
CLASS
  1
SCALE
  2
AcDbScale
  3
ObjectDBX Classes
 90
     1153
 91
        3
280
     0
281
     0
  0
CLASS
  1
TABLESTYLE
  2
AcDbTableStyle
  3
ObjectDBX Classes
 90
     4095
 91
        3
280
     0
281
     0
  0
CLASS
  1
MLEADERSTYLE
  2
AcDbMLeaderStyle
  3
ACDB_MLEADERSTYLE_CLASS
 90
     4095
 91
        3
280
     0
281
     0
  0
CLASS
  1
SUN
  2
AcDbSun
  3
SCENEOE
 90
     1153
 91
        3
280
     0
281
     0
  0
CLASS
  1
SORTENTSTABLE
  2
AcDbSortentsTable
  3
ObjectDBX Classes
 90
        0
 91
        3
280
     0
281
     0
  0
CLASS
  1
DICTIONARYVAR
  2
AcDbDictionaryVar
  3
ObjectDBX Classes
 90
        0
 91
        3
280
     0
281
     0
  0
CLASS
  1
CELLSTYLEMAP
  2
AcDbCellStyleMap
  3
ObjectDBX Classes
 90
     1152
 91
        3
280
     0
281
     0
  0
ENDSEC
  0
SECTION
  2
TABLES
  0
TABLE
  2
VPORT
  5
8
330
0
100
AcDbSymbolTable
 70
     1
  0
VPORT
  5
29
330
8
100
AcDbSymbolTableRecord
100
AcDbViewportTableRecord
  2
*Active
 70
     0
 10
0.0
 20
0.0
 11
1.0
 21
1.0
 12
-3.740432
 22
-0.196677
 13
0.0
 23
0.0
 14
0.5
 24
0.5
 15
0.5
 25
0.5
 16
0.0
 26
0.0
 36
1.0
 17
0.0
 27
0.0
 37
0.0
 40
1.782
 41
0.848485
 42
50.0
 43
0.0
 44
0.0
 50
0.0
 51
0.0
 71
     0
 72
   100
 73
     1
 74
     3
 75
     0
 76
     0
 77
     0
 78
     0
281
     0
 65
     1
110
0.0
120
0.0
130
0.0
111
1.0
121
0.0
131
0.0
112
0.0
122
1.0
132
0.0
 79
     0
146
0.0
348
2F
 60
     3
 61
     5
292
     1
282
     1
141
0.0
142
0.0
 63
   250
361
6D
  0
ENDTAB
  0
TABLE
  2
LTYPE
  5
5
330
0
100
AcDbSymbolTable
 70
     2
  0
LTYPE
  5
14
330
5
100
AcDbSymbolTableRecord
100
AcDbLinetypeTableRecord
  2
ByBlock
 70
     0
  3

 72
    65
 73
     0
 40
0.0
  0
LTYPE
  5
15
330
5
100
AcDbSymbolTableRecord
100
AcDbLinetypeTableRecord
  2
ByLayer
 70
     0
  3

 72
    65
 73
     0
 40
0.0
  0
LTYPE
  5
16
330
5
100
AcDbSymbolTableRecord
100
AcDbLinetypeTableRecord
  2
Continuous
 70
     0
  3
Solid line
 72
    65
 73
     0
 40
0.0
  0
LTYPE
  5
74
330
5
100
AcDbSymbolTableRecord
100
AcDbLinetypeTableRecord
  2
AUSGEZOGEN
 70
     0
  3
durchgezogene Linie
 72
    65
 73
     0
 40
0.0
  0
ENDTAB
  0
TABLE
  2
LAYER
  5
2
330
0
100
AcDbSymbolTable
 70
     4
  0
LAYER
  5
10
330
2
100
AcDbSymbolTableRecord
100
AcDbLayerTableRecord
  2
0
 70
     0
 62
     7
  6
Continuous
370
    -3
390
F
347
46
  0
LAYER
  5
76
330
2
100
AcDbSymbolTableRecord
100
AcDbLayerTableRecord
  2
PLAN_700
 70
     0
 62
     7
  6
AUSGEZOGEN
370
    -3
390
F
347
46
1001
AcCmTransparency
1071
 33554687
1001
AcAecLayerStandard
1000

1000
Dokument-Layer
  0
LAYER
  5
78
330
2
100
AcDbSymbolTableRecord
100
AcDbLayerTableRecord
  2
TB_700
 70
     0
 62
     7
  6
AUSGEZOGEN
370
    -3
390
F
347
46
1001
AcCmTransparency
1071
 33554687
1001
AcAecLayerStandard
1000

1000
Dokument-Layer
  0
LAYER
  5
7A
330
2
100
AcDbSymbolTableRecord
100
AcDbLayerTableRecord
  2
XR$1$TB_700_1
 70
     0
 62
     7
  6
AUSGEZOGEN
370
    -3
390
F
347
46
1001
AcCmTransparency
1071
 33554687
1001
AcAecLayerStandard
1000

1000
Dokument-Layer
  0
ENDTAB
  0
TABLE
  2
STYLE
  5
3
330
0
100
AcDbSymbolTable
 70
     2
  0
STYLE
  5
11
330
3
100
AcDbSymbolTableRecord
100
AcDbTextStyleTableRecord
  2
Standard
 70
     0
 40
0.0
 41
1.0
 50
0.0
 71
     0
 42
0.2
  3
txt
  4

  0
STYLE
  5
79
330
3
100
AcDbSymbolTableRecord
100
AcDbTextStyleTableRecord
  2
ARIAL
 70
     0
 40
0.0
 41
1.0
 50
0.0
 71
     0
 42
0.2
  3
ARIAL.TTF
  4

1001
ACAD
1000
Arial
1071
       34
  0
ENDTAB
  0
TABLE
  2
VIEW
  5
6
330
0
100
AcDbSymbolTable
 70
     0
  0
ENDTAB
  0
TABLE
  2
UCS
  5
7
330
0
100
AcDbSymbolTable
 70
     0
  0
ENDTAB
  0
TABLE
  2
APPID
  5
9
330
0
100
AcDbSymbolTable
 70
     3
  0
APPID
  5
12
330
9
100
AcDbSymbolTableRecord
100
AcDbRegAppTableRecord
  2
ACAD
 70
     0
  0
APPID
  5
75
330
9
100
AcDbSymbolTableRecord
100
AcDbRegAppTableRecord
  2
AcCmTransparency
 70
     0
  0
APPID
  5
77
330
9
100
AcDbSymbolTableRecord
100
AcDbRegAppTableRecord
  2
AcAecLayerStandard
 70
     0
  0
ENDTAB
  0
TABLE
  2
DIMSTYLE
  5
A
330
0
100
AcDbSymbolTable
 70
     1
100
AcDbDimStyleTable
  0
DIMSTYLE
105
27
330
A
100
AcDbSymbolTableRecord
100
AcDbDimStyleTableRecord
  2
Standard
 70
     0
178
     0
340
11
  0
ENDTAB
  0
TABLE
  2
BLOCK_RECORD
  5
1
330
0
100
AcDbSymbolTable
 70
     0
  0
BLOCK_RECORD
  5
1F
102
{ACAD_XDICTIONARY
360
C5
102
}
330
1
100
AcDbSymbolTableRecord
100
AcDbBlockTableRecord
  2
*Model_Space
340
22
 70
     0
280
     1
281
     0
  0
BLOCK_RECORD
  5
6E
330
1
100
AcDbSymbolTableRecord
100
AcDbBlockTableRecord
  2
*Paper_Space
340
6F
 70
     0
280
     1
281
     0
  0
ENDTAB
  0
ENDSEC
  0
SECTION
  2
BLOCKS
  0
BLOCK
  5
20
330
1F
100
AcDbEntity
  8
0
100
AcDbBlockBegin
  2
*Model_Space
 70
     0
 10
0.0
 20
0.0
 30
0.0
  3
*Model_Space
  1

  0
ENDBLK
  5
21
330
1F
100
AcDbEntity
  8
0
100
AcDbBlockEnd
  0
BLOCK
  5
70
330
6E
100
AcDbEntity
 67
     1
  8
0
100
AcDbBlockBegin
  2
*Paper_Space
 70
     0
 10
0.0
 20
0.0
 30
0.0
  3
*Paper_Space
  1

  0
ENDBLK
  5
71
330
6E
100
AcDbEntity
 67
     1
  8
0
100
AcDbBlockEnd
  0
ENDSEC
  0
SECTION
  2
ENTITIES
  0
HATCH
  5
7B
330
1F
100
AcDbEntity
  8
XR$1$TB_700_1
  6
AUSGEZOGEN
 62
    18
420
        0
440
 33554687
370
    35
100
AcDbHatch
 10
0.0
 20
0.0
 30
0.0
210
0.0
220
0.0
230
1.0
  2
SOLID
 70
     1
 71
     0
 91
       18
 92
        3
 72
     0
 73
     1
 93
       27
 10
-4.146175948940569
 20
-0.8011757733743942
 10
-4.142182205479628
 20
-0.8011757733743942
 10
-4.141605079089076
 20
-0.8011483769935819
 10
-4.141074093971466
 20
-0.8010658273724482
 10
-4.140579156723353
 20
-0.8009374969570588
 10
-4.140130360748189
 20
-0.8007543737800404
 10
-4.139718333599903
 20
-0.8005344817761413
 10
-4.139352087245872
 20
-0.8002597970106197
 10
-4.138719807614997
 20
-0.7996094934450036
 10
-4.138472519230282
 20
-0.799233874644902
 10
-4.138252627226396
 20
-0.7988218474966187
 10
-4.137913777253175
 20
-0.7979238950675924
 10
-4.137721642108786
 20
-0.7969257295613732
 10
-4.137657476901095
 20
-0.7958540264014026
 10
-4.137721642108786
 20
-0.7947087855876641
 10
-4.137913777253175
 20
-0.7936738512545706
 10
-4.138069504049373
 20
-0.7932066708659665
 10
-4.138252627226396
 20
-0.7927672473368637
 10
-4.138472519230282
 20
-0.7923638716772582
 10
-4.138719807614997
 20
-0.7919976253232306
 10
-4.139352087245872
 20
-0.7913747181384204
 10
-4.139718333599903
 20
-0.7911274297537119
 10
-4.140130360748189
 20
-0.7909169101958894
 10
-4.140579156723353
 20
-0.7907518109536102
 10
-4.141074093971466
 20
-0.7906328529842883
 10
-4.142182205479628
 20
-0.7905319189497111
 10
-4.146175948940569
 20
-0.7905319189497111
 97
        0
 92
        3
 72
     0
 73
     1
 93
       12
 10
-4.134469763801978
 20
-0.8011757733743942
 10
-4.126747949678265
 20
-0.8011757733743942
 10
-4.126747949678265
 20
-0.799847409383641
 10
-4.132866715045707
 20
-0.799847409383641
 10
-4.132866715045707
 20
-0.7963850115190078
 10
-4.127819652838239
 20
-0.7963850115190078
 10
-4.127819652838239
 20
-0.7950570080069499
 10
-4.132866715045707
 20
-0.7950570080069499
 10
-4.132866715045707
 20
-0.7918602829404706
 10
-4.127013622476417
 20
-0.7918602829404706
 10
-4.127013622476417
 20
-0.7905319189497111
 10
-4.134469763801978
 20
-0.7905319189497111
 97
        0
 92
        3
 72
     0
 73
     1
 93
       38
 10
-4.117176158892252
 20
-0.7905319189497111
 10
-4.117176158892252
 20
-0.7974477027116125
 10
-4.117212927719137
 20
-0.7980980062772285
 10
-4.117322513242383
 20
-0.7986477362869725
 10
-4.117524381311533
 20
-0.7991149166755802
 10
-4.117808078044439
 20
-0.7994811630296169
 10
-4.118174684877161
 20
-0.7997558477951386
 10
-4.118632492819702
 20
-0.7999573553855905
 10
-4.11918222282944
 20
-0.8000766738336113
 10
-4.119832526395061
 20
-0.8001130821817931
 10
-4.120482829960684
 20
-0.8000766738336113
 10
-4.121032559970422
 20
-0.7999573553855905
 10
-4.121490367912966
 20
-0.7997558477951386
 10
-4.121865986713062
 20
-0.7994811630296169
 10
-4.122140671478591
 20
-0.7991149166755802
 10
-4.122342179069044
 20
-0.7986477362869725
 10
-4.122452125070991
 20
-0.7980980062772285
 10
-4.122497905865245
 20
-0.7974477027116125
 10
-4.122497905865245
 20
-0.7905319189497111
 10
-4.123826269855991
 20
-0.7905319189497111
 10
-4.123826269855991
 20
-0.7977133755097582
 10
-4.123752732202225
 20
-0.7985651866658361
 10
-4.123542212644402
 20
-0.7993070518199654
 10
-4.123193990225125
 20
-0.7999483434182145
 10
-4.122726809836516
 20
-0.8004796890145224
 10
-4.122150043924658
 20
-0.8008917161628022
 10
-4.121462971532153
 20
-0.8011941577878313
 10
-4.12069334951851
 20
-0.8013772809648506
 10
-4.119832526395061
 20
-0.8014414461725462
 10
-4.118971342792912
 20
-0.8013772809648506
 10
-4.118202081257978
 20
-0.8011941577878313
 10
-4.117515008865469
 20
-0.8008917161628022
 10
-4.116937882474917
 20
-0.8004796890145224
 10
-4.116470702086305
 20
-0.7999483434182145
 10
-4.116131852113084
 20
-0.7993070518199654
 10
-4.115911960109194
 20
-0.7985651866658361
 10
-4.115838782934129
 20
-0.7977133755097582
 10
-4.115838782934129
 20
-0.7905319189497111
 97
        0
 92
        3
 72
     0
 73
     1
 93
        8
 10
-4.113182415431317
 20
-0.7905319189497111
 10
-4.113182415431317
 20
-0.7918602829404706
 10
-4.109985690364836
 20
-0.7918602829404706
 10
-4.109985690364836
 20
-0.8011757733743942
 10
-4.10865768685278
 20
-0.8011757733743942
 10
-4.10865768685278
 20
-0.7918602829404706
 10
-4.105469973753667
 20
-0.7918602829404706
 10
-4.105469973753667
 20
-0.7905319189497111
 97
        0
 92
        3
 72
     0
 73
     1
 93
       96
 10
-4.102465383831574
 20
-0.7940952508489189
 10
-4.102254864273752
 20
-0.7946172239991581
 10
-4.101925026267905
 20
-0.7950296116261395
 10
-4.101503626673543
 20
-0.795368461599355
 10
-4.101000037936755
 20
-0.7956341343974999
 10
-4.100431923513569
 20
-0.7958356419879618
 10
-4.099213866003457
 20
-0.7961561075477391
 10
-4.097995448014662
 20
-0.7964311527919496
 10
-4.097427694070174
 20
-0.7965865191094661
 10
-4.09692374485468
 20
-0.7967880266999217
 10
-4.096502705739028
 20
-0.7970356755633227
 10
-4.096172867733181
 20
-0.7973561411231002
 10
-4.095961987696656
 20
-0.7977501443366444
 10
-4.095888810521587
 20
-0.7982447211060641
 10
-4.095943963761917
 20
-0.7987119014946691
 10
-4.096117714492858
 20
-0.7990965322621394
 10
-4.096383387291017
 20
-0.7994263702679852
 10
-4.096722237264224
 20
-0.7996826706200661
 10
-4.09712525244514
 20
-0.7998751662431521
 10
-4.097574408898999
 20
-0.8000031361798472
 10
-4.098050601254981
 20
-0.8000856858009773
 10
-4.098545178024396
 20
-0.8001130821817931
 10
-4.099213866003457
 20
-0.8000766738336113
 10
-4.09980000436139
 20
-0.7999573553855905
 10
-4.100303953576875
 20
-0.7997558477951386
 10
-4.100743377105976
 20
-0.7994811630296169
 10
-4.101100611492634
 20
-0.7991149166755802
 10
-4.101394041150291
 20
-0.7986477362869725
 10
-4.101604560708121
 20
-0.7980980062772285
 10
-4.101741903090885
 20
-0.7974477027116125
 10
-4.103070267081635
 20
-0.7977133755097582
 10
-4.102978345014434
 20
-0.7986383638409077
 10
-4.102859387045103
 20
-0.7990507514678836
 10
-4.102703660248905
 20
-0.7994169978219177
 10
-4.102502152658452
 20
-0.7997558477951386
 10
-4.102273248687186
 20
-0.8000673013875401
 10
-4.101705134264
 20
-0.8005802625704007
 10
-4.101036806763629
 20
-0.8009648933378682
 10
-4.100267184749991
 20
-0.8012305661360204
 10
-4.099433758007354
 20
-0.8013862929322229
 10
-4.098545178024396
 20
-0.8014414461725462
 10
-4.097766544043391
 20
-0.8013862929322229
 10
-4.097024678889253
 20
-0.801239938582088
 10
-4.096346978942819
 20
-0.8009742657839423
 10
-4.095751468138826
 20
-0.8006076589512138
 10
-4.095256891369411
 20
-0.8001314665952339
 10
-4.094881272569308
 20
-0.7995359557912396
 10
-4.09474393018654
 20
-0.7991880938506463
 10
-4.094642996151978
 20
-0.7988218474966187
 10
-4.094560807009529
 20
-0.7979790483079103
 10
-4.094633984184594
 20
-0.7972552070885293
 10
-4.094844503742424
 20
-0.7966600567632275
 10
-4.095174341748272
 20
-0.7961835039285459
 10
-4.095595741342632
 20
-0.7958082456071459
 10
-4.096099690558112
 20
-0.7955151764281816
 10
-4.096658432535226
 20
-0.7952859119782267
 10
-4.097885502012715
 20
-0.7949560739723727
 10
-4.099103920001514
 20
-0.7946907616529186
 10
-4.099662661978622
 20
-0.7945350348567197
 10
-4.100166611194111
 20
-0.7943515512010061
 10
-4.100597022755839
 20
-0.7941136352623623
 10
-4.100926860761679
 20
-0.7938111936373332
 10
-4.101137380319516
 20
-0.7934175509024897
 10
-4.101210557494578
 20
-0.7929226136543746
 10
-4.101146392286886
 20
-0.7925653792677165
 10
-4.100981653523318
 20
-0.7922723100887513
 10
-4.100734365138603
 20
-0.7920343941501103
 10
-4.100413899578826
 20
-0.7918602829404706
 10
-4.100038280778723
 20
-0.7917413249711424
 10
-4.099635265597819
 20
-0.7916587753500096
 10
-4.098810850822548
 20
-0.7915946101423158
 10
-4.098242736399365
 20
-0.791622006523129
 10
-4.0977301356952
 20
-0.7917045561442626
 10
-4.097271967273965
 20
-0.7918512709730892
 10
-4.096887336506504
 20
-0.7920617905309262
 10
-4.096575882914093
 20
-0.7923548597098886
 10
-4.096346978942819
 20
-0.7927211060639181
 10
-4.096200264113998
 20
-0.7931792744851535
 10
-4.096154483319739
 20
-0.7937290044948911
 10
-4.094560807009529
 20
-0.7937290044948911
 10
-4.094808095394244
 20
-0.7928862053061855
 10
-4.095146945367457
 20
-0.7921717365328693
 10
-4.095577356929192
 20
-0.7915762257288759
 10
-4.096090318112047
 20
-0.7911000333728959
 10
-4.096676456469972
 20
-0.7907334265401703
 10
-4.097326760035597
 20
-0.7904681142207162
 10
-4.098041228808909
 20
-0.7903213993918896
 10
-4.098810850822548
 20
-0.7902666066302606
 10
-4.099506935182419
 20
-0.7903123874245109
 10
-4.100184635128861
 20
-0.7904681142207162
 10
-4.100807542313672
 20
-0.7907154026054284
 10
-4.101375656736853
 20
-0.7910632645460153
 10
-4.101851849092828
 20
-0.7915120605211831
 10
-4.102218095446867
 20
-0.7920617905309262
 10
-4.102456371864197
 20
-0.7927120940965522
 10
-4.102538921485338
 20
-0.7934633316967454
 97
        0
 92
        3
 72
     0
 73
     1
 93
       78
 10
-4.09023722554275
 20
-0.7949838308318811
 10
-4.090054102365738
 20
-0.7941778004700589
 10
-4.089742648773331
 20
-0.7934539592506715
 10
-4.08930286476554
 20
-0.7928310520658622
 10
-4.088744122788422
 20
-0.7923090789156347
 10
-4.088057410874618
 20
-0.7919244481481644
 10
-4.08724200806672
 20
-0.7916861717308218
 10
-4.086307647289511
 20
-0.7915946101423158
 10
-4.085804058552722
 20
-0.7916313789691992
 10
-4.085291097369855
 20
-0.791750336938521
 10
-4.084787148154369
 20
-0.7919334601155312
 10
-4.084310955798398
 20
-0.7921991329136916
 10
-4.083889556204037
 20
-0.7925289709195311
 10
-4.083541333784749
 20
-0.7929409980678173
 10
-4.083276021465294
 20
-0.793426562869862
 10
-4.083120294669089
 20
-0.7939943168143543
 10
-4.081782918710974
 20
-0.7937290044948911
 10
-4.082048591509122
 20
-0.7928862053061855
 10
-4.082414837863154
 20
-0.7921717365328693
 10
-4.082891030219136
 20
-0.7915762257288759
 10
-4.08344977219625
 20
-0.7911000333728959
 10
-4.084082051827124
 20
-0.7907334265401703
 10
-4.084778136187003
 20
-0.7904681142207162
 10
-4.085529013308506
 20
-0.7903213993918896
 10
-4.086307647289511
 20
-0.7902666066302606
 10
-4.086939926920381
 20
-0.7902940030110674
 10
-4.087535077245684
 20
-0.7903761921535095
 10
-4.088084807255428
 20
-0.7905045225688953
 10
-4.088597768438295
 20
-0.7906876457459145
 10
-4.089073960794263
 20
-0.7909169101958894
 10
-4.089513744802075
 20
-0.7911915949614083
 10
-4.089907387536909
 20
-0.7915120605211831
 10
-4.09026462192356
 20
-0.7918602829404706
 10
-4.090585447962034
 20
-0.7922542861540094
 10
-4.09086013272756
 20
-0.79268469771573
 10
-4.091089036698831
 20
-0.7931425056582727
 10
-4.091281532321914
 20
-0.7936370824276908
 10
-4.091547205120055
 20
-0.7946997736202973
 10
-4.091629394262501
 20
-0.7958540264014026
 10
-4.091547205120055
 20
-0.7970079187038144
 10
-4.091281532321914
 20
-0.7980706098964218
 10
-4.091089036698831
 20
-0.7985651866658361
 10
-4.09086013272756
 20
-0.7990233550870678
 10
-4.090585447962034
 20
-0.7994537666488011
 10
-4.09026462192356
 20
-0.799847409383641
 10
-4.089907387536909
 20
-0.8001956318029204
 10
-4.089513744802075
 20
-0.8005160973627106
 10
-4.089073960794263
 20
-0.8007911426069202
 10
-4.088597768438295
 20
-0.8010200465781925
 10
-4.088084807255428
 20
-0.8012031697552072
 10
-4.087535077245684
 20
-0.801331500170594
 10
-4.086939926920381
 20
-0.8014140497917304
 10
-4.086307647289511
 20
-0.8014414461725462
 10
-4.08551098937376
 20
-0.8013679085187857
 10
-4.084741367360118
 20
-0.8011483769935819
 10
-4.083999502205987
 20
-0.8008001545742989
 10
-4.083312429813489
 20
-0.800314589772255
 10
-4.082707907042123
 20
-0.799701055033507
 10
-4.082194945859256
 20
-0.7989682018467444
 10
-4.081791930678343
 20
-0.7981347751041119
 10
-4.081517245912825
 20
-0.7971820299134604
 10
-4.083120294669089
 20
-0.7971820299134604
 10
-4.08326664901923
 20
-0.7978417059251504
 10
-4.083504925436565
 20
-0.7984278442830771
 10
-4.083825390996341
 20
-0.7989314330198729
 10
-4.08421002176381
 20
-0.7993438206468452
 10
-4.084668190185052
 20
-0.7996736586527002
 10
-4.085171778921845
 20
-0.7999115745913439
 10
-4.085721508931583
 20
-0.8000582894201614
 10
-4.086307647289511
 20
-0.8001130821817931
 10
-4.08724200806672
 20
-0.8000308930393519
 10
-4.088057410874618
 20
-0.7997836046546397
 10
-4.088744122788422
 20
-0.7993986134084768
 10
-4.08930286476554
 20
-0.7988766402582439
 10
-4.089742648773331
 20
-0.7982537330734311
 10
-4.090054102365738
 20
-0.7975302523327426
 10
-4.09023722554275
 20
-0.796724221970924
 10
-4.090301390750446
 20
-0.7958540264014026
 97
        0
 92
        3
 72
     0
 73
     1
 93
       12
 10
-4.078329532813705
 20
-0.8011757733743942
 10
-4.077001529301647
 20
-0.8011757733743942
 10
-4.077001529301647
 20
-0.7963850115190078
 10
-4.071414109530509
 20
-0.7963850115190078
 10
-4.071414109530509
 20
-0.8011757733743942
 10
-4.069811060774231
 20
-0.8011757733743942
 10
-4.069811060774231
 20
-0.7905319189497111
 10
-4.071414109530509
 20
-0.7905319189497111
 10
-4.071414109530509
 20
-0.7950570080069499
 10
-4.077001529301647
 20
-0.7950570080069499
 10
-4.077001529301647
 20
-0.7905319189497111
 10
-4.078329532813705
 20
-0.7905319189497111
 97
        0
 92
        3
 72
     0
 73
     1
 93
       12
 10
-4.066357674876969
 20
-0.8011757733743942
 10
-4.058901894030098
 20
-0.8011757733743942
 10
-4.058901894030098
 20
-0.799847409383641
 10
-4.065020298918857
 20
-0.799847409383641
 10
-4.065020298918857
 20
-0.7963850115190078
 10
-4.059707924391928
 20
-0.7963850115190078
 10
-4.059707924391928
 20
-0.7950570080069499
 10
-4.065020298918857
 20
-0.7950570080069499
 10
-4.065020298918857
 20
-0.7918602829404706
 10
-4.058901894030098
 20
-0.7918602829404706
 10
-4.058901894030098
 20
-0.7905319189497111
 10
-4.066357674876969
 20
-0.7905319189497111
 97
        0
 92
        3
 72
     0
 73
     1
 93
       90
 10
-4.143647911853142
 20
-0.8087418607019116
 10
-4.143949992999488
 20
-0.8084484310442547
 10
-4.144023530653244
 20
-0.8082836922806799
 10
-4.144041554587994
 20
-0.8080911966575967
 10
-4.14399577379374
 20
-0.8078165118920695
 10
-4.143867803857039
 20
-0.8075876079208008
 10
-4.143684320201336
 20
-0.8074044847437888
 10
-4.143446404262693
 20
-0.8072577699149531
 10
-4.142924070633762
 20
-0.8070836587053197
 10
-4.142447878277787
 20
-0.8070288659436817
 10
-4.141660232329402
 20
-0.8071204275321877
 10
-4.141275601561926
 20
-0.8072393855015214
 10
-4.140918367175265
 20
-0.8073951122977158
 10
-4.140277075577025
 20
-0.8078165118920695
 10
-4.139791510774979
 20
-0.8083568694557433
 10
-4.137657476901095
 20
-0.8070288659436817
 10
-4.13817043808395
 20
-0.8065526735877081
 10
-4.138701423201557
 20
-0.8061312739933535
 10
-4.139251153211298
 20
-0.8057740396067018
 10
-4.139818907155782
 20
-0.8054625860142903
 10
-4.140405405992412
 20
-0.805224309596955
 10
-4.140991544350333
 20
-0.8050411864199394
 10
-4.141587055154326
 20
-0.8049402523853594
 10
-4.142182205479628
 20
-0.8049038440371766
 10
-4.143052401049141
 20
-0.8049496248314361
 10
-4.143858431410972
 20
-0.8051053516276386
 10
-4.144582272630355
 20
-0.8053616519797194
 10
-4.145205179815172
 20
-0.8057282588124424
 10
-4.145727152965395
 20
-0.8062134631357947
 10
-4.146111783732866
 20
-0.8068089739397944
 10
-4.146249126115627
 20
-0.8071478239130063
 10
-4.146359072117582
 20
-0.8075234427131052
 10
-4.146441621738707
 20
-0.8083568694557433
 10
-4.146386468498392
 20
-0.8089339958463059
 10
-4.14623074170219
 20
-0.809456329475225
 10
-4.145983453317475
 20
-0.8099231493851401
 10
-4.145644603344273
 20
-0.810335537012116
 10
-4.145223203749912
 20
-0.8106833989527092
 10
-4.144719615013123
 20
-0.8109584441969253
 10
-4.144133476655191
 20
-0.8111689637547596
 10
-4.143492185056947
 20
-0.8113063061375194
 10
-4.141357790704368
 20
-0.8117460901453076
 10
-4.140890610315763
 20
-0.8118560361472599
 10
-4.140570144755984
 20
-0.8120301473568996
 10
-4.1403776491329
 20
-0.8122680632955469
 10
-4.140322856371272
 20
-0.812616285714829
 10
-4.140368637165531
 20
-0.8129003429264183
 10
-4.140496967580911
 20
-0.8131566432785019
 10
-4.140698475171378
 20
-0.8133855472497679
 10
-4.140954775523459
 20
-0.8135780428728593
 10
-4.141238832735048
 20
-0.8137337696690617
 10
-4.141559298294824
 20
-0.8138527276383755
 10
-4.142182205479628
 20
-0.8139442892268905
 10
-4.143089169876034
 20
-0.8138527276383755
 10
-4.143482812610872
 20
-0.8137337696690617
 10
-4.143849419443602
 20
-0.8135780428728593
 10
-4.144499723009215
 20
-0.8131566432785019
 10
-4.145113257747965
 20
-0.812616285714829
 10
-4.147238640133167
 20
-0.8136789769074301
 10
-4.146652141296547
 20
-0.8142283464384762
 10
-4.146075014906
 20
-0.8146865148597078
 10
-4.145516272928877
 20
-0.8150527612137446
 10
-4.144939507017024
 20
-0.8153458303927126
 10
-4.144362380626465
 20
-0.815556710429233
 10
-4.143757857855095
 20
-0.8157030647793643
 10
-4.143125578224218
 20
-0.8157856144004979
 10
-4.142447878277787
 20
-0.8158130107813137
 10
-4.141706013123646
 20
-0.8157762419544331
 10
-4.140918367175265
 20
-0.8156756683985511
 10
-4.140112336813449
 20
-0.8154741608080929
 10
-4.139352087245872
 20
-0.8151443228022506
 10
-4.139003864826586
 20
-0.8149244307983515
 10
-4.13868339926681
 20
-0.8146681304462706
 10
-4.13839934205522
 20
-0.8143656888212388
 10
-4.138142681224442
 20
-0.8140084544345861
 10
-4.137941173633989
 20
-0.8136148116997372
 10
-4.137785446837791
 20
-0.8131566432785019
 10
-4.137693885249274
 20
-0.8126530545417098
 10
-4.137657476901095
 20
-0.8120849401185285
 10
-4.137693885249274
 20
-0.8116545285568043
 10
-4.137794819283855
 20
-0.8112698977893277
 10
-4.137950546080064
 20
-0.8109400597834826
 10
-4.138152053670513
 20
-0.8106469906045266
 10
-4.138408354022602
 20
-0.8103903297737449
 10
-4.138692411234183
 20
-0.8101707982485439
 10
-4.139370111180618
 20
-0.8098225758292581
 10
-4.140130360748189
 20
-0.8095842994119191
 10
-4.140936391110022
 20
-0.8094101882022731
 10
-4.142447878277787
 20
-0.8091538878501922
 10
-4.143143962637655
 20
-0.8089707646731802
 97
        0
 92
        3
 72
     0
 73
     1
 93
        8
 10
-4.131273038735499
 20
-0.8072945387418365
 10
-4.128616671232692
 20
-0.8072945387418365
 10
-4.128616671232692
 20
-0.805169516835326
 10
-4.136594785708485
 20
-0.805169516835326
 10
-4.136594785708485
 20
-0.8072945387418365
 10
-4.133938418205685
 20
-0.8072945387418365
 10
-4.133938418205685
 20
-0.8155383260157893
 10
-4.131273038735499
 20
-0.8155383260157893
 97
        0
 92
        3
 72
     0
 73
     1
 93
       12
 10
-4.126747949678265
 20
-0.8155383260157893
 10
-4.118769835202463
 20
-0.8155383260157893
 10
-4.118769835202463
 20
-0.8136789769074301
 10
-4.124357254973601
 20
-0.8136789769074301
 10
-4.124357254973601
 20
-0.8112882822027675
 10
-4.119566853596912
 20
-0.8112882822027675
 10
-4.119566853596912
 20
-0.8091538878501922
 10
-4.124357254973601
 20
-0.8091538878501922
 10
-4.124357254973601
 20
-0.8072945387418365
 10
-4.11930118079876
 20
-0.8072945387418365
 10
-4.11930118079876
 20
-0.805169516835326
 10
-4.126747949678265
 20
-0.805169516835326
 97
        0
 92
        3
 72
     0
 73
     1
 93
        4
 10
-4.116910486094103
 20
-0.8155383260157893
 10
-4.114245106623922
 20
-0.8155383260157893
 10
-4.114245106623922
 20
-0.805169516835326
 10
-4.116910486094103
 20
-0.805169516835326
 97
        0
 92
        3
 72
     0
 73
     1
 93
       10
 10
-4.109454344768531
 20
-0.8155383260157893
 10
-4.109454344768531
 20
-0.8091538878501922
 10
-4.105735646551819
 20
-0.8155383260157893
 10
-4.103070267081635
 20
-0.8155383260157893
 10
-4.103070267081635
 20
-0.805169516835326
 10
-4.105469973753667
 20
-0.805169516835326
 10
-4.105469973753667
 20
-0.8118192673203828
 10
-4.109188671970379
 20
-0.805169516835326
 10
-4.111854411919259
 20
-0.805169516835326
 10
-4.111854411919259
 20
-0.8155383260157893
 97
        0
 92
        3
 72
     0
 73
     1
 93
       10
 10
-4.092160739858802
 20
-0.8072945387418365
 10
-4.092160739858802
 20
-0.805169516835326
 10
-4.100679572376971
 20
-0.805169516835326
 10
-4.100679572376971
 20
-0.8072945387418365
 10
-4.09535746492529
 20
-0.8072945387418365
 10
-4.100944884696433
 20
-0.8136789769074301
 10
-4.100944884696433
 20
-0.8155383260157893
 10
-4.092160739858802
 20
-0.8155383260157893
 10
-4.092160739858802
 20
-0.8136789769074301
 10
-4.097748159629954
 20
-0.8136789769074301
 97
        0
 92
        3
 72
     0
 73
     1
 93
       12
 10
-4.090035717952297
 20
-0.8155383260157893
 10
-4.082048591509122
 20
-0.8155383260157893
 10
-4.082048591509122
 20
-0.8136789769074301
 10
-4.087370338482108
 20
-0.8136789769074301
 10
-4.087370338482108
 20
-0.8112882822027675
 10
-4.082854621870948
 20
-0.8112882822027675
 10
-4.082854621870948
 20
-0.8091538878501922
 10
-4.087370338482108
 20
-0.8091538878501922
 10
-4.087370338482108
 20
-0.8072945387418365
 10
-4.082323276274644
 20
-0.8072945387418365
 10
-4.082323276274644
 20
-0.805169516835326
 10
-4.090035717952297
 20
-0.805169516835326
 97
        0
 92
        3
 72
     0
 73
     1
 93
       42
 10
-4.077532514419253
 20
-0.805169516835326
 10
-4.080188881922061
 20
-0.805169516835326
 10
-4.080188881922061
 20
-0.8120849401185285
 10
-4.080161485541258
 20
-0.8125614929532001
 10
-4.080078935920126
 20
-0.8130102889283678
 10
-4.079950965983425
 20
-0.8134133041092816
 10
-4.079785866741159
 20
-0.813788562430688
 10
-4.079318686352554
 20
-0.8144298540289344
 10
-4.078723536027245
 20
-0.8149428152117923
 10
-4.078036463634739
 20
-0.8153274459792627
 10
-4.077276214067172
 20
-0.8156024912234859
 10
-4.076470183705354
 20
-0.8157582180196821
 10
-4.075664153343528
 20
-0.8158130107813137
 10
-4.074949684570218
 20
-0.8157582180196821
 10
-4.074216831383451
 20
-0.8156024912234859
 10
-4.073502362610135
 20
-0.8153274459792627
 10
-4.072843047077148
 20
-0.8149428152117923
 10
-4.072265920686582
 20
-0.8144298540289344
 10
-4.071817124711422
 20
-0.813788562430688
 10
-4.071643013501776
 20
-0.8134133041092816
 10
-4.071514683086395
 20
-0.8130102889283678
 10
-4.071441505911316
 20
-0.8125614929532001
 10
-4.071414109530509
 20
-0.8120849401185285
 10
-4.071414109530509
 20
-0.805169516835326
 10
-4.073804804235172
 20
-0.805169516835326
 10
-4.073804804235172
 20
-0.8118192673203828
 10
-4.073832200615983
 20
-0.8122132705339179
 10
-4.073905377791052
 20
-0.8125979013013919
 10
-4.074042720173813
 20
-0.8129551356880436
 10
-4.074235215796892
 20
-0.8132849736938885
 10
-4.07449151614898
 20
-0.8135506464920407
 10
-4.07481234218745
 20
-0.8137611660498721
 10
-4.075205984922293
 20
-0.8138985084326312
 10
-4.075664153343528
 20
-0.8139442892268905
 10
-4.076131333732136
 20
-0.8138985084326312
 10
-4.076515964499601
 20
-0.8137611660498721
 10
-4.076836430059385
 20
-0.8135506464920407
 10
-4.07709309089016
 20
-0.8132849736938885
 10
-4.077294598480613
 20
-0.8129551356880436
 10
-4.077422928896008
 20
-0.8125979013013919
 10
-4.07750511803845
 20
-0.8122132705339179
 10
-4.077532514419253
 20
-0.8118192673203828
 97
        0
 92
        3
 72
     0
 73
     1
 93
       75
 10
-4.069206538002865
 20
-0.8116361441433617
 10
-4.068986645998967
 20
-0.812662066509082
 10
-4.068812534789329
 20
-0.813138258865062
 10
-4.068611027198872
 20
-0.8135780428728593
 10
-4.068363738814157
 20
-0.8139810580537676
 10
-4.068079681602572
 20
-0.814347304407798
 10
-4.067410993623502
 20
-0.8149702115926045
 10
-4.067017350888661
 20
-0.815217499977314
 10
-4.066586939326934
 20
-0.8154283800138399
 10
-4.066119758938337
 20
-0.8155931187774147
 10
-4.065615809722843
 20
-0.8157124372254345
 10
-4.064489313801248
 20
-0.8158130107813137
 10
-4.063545580577967
 20
-0.8157582180196821
 10
-4.062730538248771
 20
-0.8155747343639721
 10
-4.062373303862103
 20
-0.8154283800138399
 10
-4.062061850269703
 20
-0.8152452568368187
 10
-4.061787165504177
 20
-0.815015992386864
 10
-4.061567273500277
 20
-0.8147413076213368
 10
-4.061567273500277
 20
-0.8155383260157893
 10
-4.059432879147709
 20
-0.8155383260157893
 10
-4.059432879147709
 20
-0.8099509062446448
 10
-4.06395796820494
 20
-0.8099509062446448
 10
-4.06395796820494
 20
-0.8118192673203828
 10
-4.061832946298436
 20
-0.8118192673203828
 10
-4.06188773906006
 20
-0.8122774357416145
 10
-4.062052838302329
 20
-0.8126710784764544
 10
-4.062290754240981
 20
-0.8129919045149243
 10
-4.062593195866
 20
-0.8132482048670142
 10
-4.06293204583922
 20
-0.8134407004900884
 10
-4.063289280225871
 20
-0.8135780428728593
 10
-4.06395796820494
 20
-0.8136789769074301
 10
-4.064608271770568
 20
-0.8136238236671095
 10
-4.065158001780309
 20
-0.8134407004900884
 10
-4.065624821690212
 20
-0.8131566432785019
 10
-4.065991428522938
 20
-0.8127810244784066
 10
-4.066266113288464
 20
-0.8123138440897962
 10
-4.066467620878927
 20
-0.8117734865261261
 10
-4.066586939326934
 20
-0.8111599517873809
 10
-4.066623347675125
 20
-0.810491263808324
 10
-4.066568554913497
 20
-0.8096484646196157
 10
-4.066431212530736
 20
-0.8089339958463059
 10
-4.06620194808076
 20
-0.8083388455210004
 10
-4.065890494488368
 20
-0.8078622926863197
 10
-4.065505863720896
 20
-0.8074960463322948
 10
-4.065048055778359
 20
-0.8072303735341427
 10
-4.064535094595502
 20
-0.807074646737941
 10
-4.06395796820494
 20
-0.8070288659436817
 10
-4.063216103050813
 20
-0.8071204275321877
 10
-4.062876892598895
 20
-0.8072393855015214
 10
-4.062565799485189
 20
-0.8073951122977158
 10
-4.062016069475451
 20
-0.8078165118920695
 10
-4.061567273500277
 20
-0.8083568694557433
 10
-4.059432879147709
 20
-0.8075602115399886
 10
-4.059863651188122
 20
-0.8069099079743662
 10
-4.060339843544107
 20
-0.8063601779646212
 10
-4.060861816694341
 20
-0.8059020095433895
 10
-4.061429931117527
 20
-0.8055357631893592
 10
-4.062052838302329
 20
-0.8052517059777736
 10
-4.062730538248771
 20
-0.8050501983873144
 10
-4.063454018989446
 20
-0.8049402523853594
 10
-4.064223641003088
 20
-0.8049038440371766
 10
-4.064855560155276
 20
-0.8049312404179926
 10
-4.06543268654583
 20
-0.8050137900391325
 10
-4.065973044109501
 20
-0.8051417599758204
 10
-4.066476993324991
 20
-0.8053252436315249
 10
-4.066934801267532
 20
-0.8055541476028028
 10
-4.067347188894509
 20
-0.8058288323683207
 10
-4.067722447215906
 20
-0.8061402859607322
 10
-4.068052285221746
 20
-0.8064975203473839
 10
-4.06834535440072
 20
-0.8068915235609226
 10
-4.068592642785434
 20
-0.8073129231552737
 10
-4.068803522821955
 20
-0.8077797430651924
 10
-4.068977634031597
 20
-0.8082653078672372
 10
-4.069206538002865
 20
-0.8093279990598382
 10
-4.069279715177934
 20
-0.810491263808324
 97
        0
 92
       18
 72
     0
 73
     1
 93
       19
 10
-4.142447878277787
 20
-0.7918602829404706
 10
-4.141614451535147
 20
-0.7919334601155312
 10
-4.140899982761828
 20
-0.7921533521194322
 10
-4.140304471957828
 20
-0.7924922020926504
 10
-4.139818907155782
 20
-0.792959382481258
 10
-4.139452660801751
 20
-0.7935365088718052
 10
-4.139196360449677
 20
-0.7942235812643146
 10
-4.139040633653472
 20
-0.7949928427992534
 10
-4.138994852859213
 20
-0.7958540264014026
 10
-4.139040633653472
 20
-0.7967148495248473
 10
-4.139196360449677
 20
-0.7974844715384959
 10
-4.139452660801751
 20
-0.7981711834523038
 10
-4.139818907155782
 20
-0.7987483098428518
 10
-4.140304471957828
 20
-0.7992154902314594
 10
-4.140899982761828
 20
-0.7995543402046794
 10
-4.141614451535147
 20
-0.7997742322085721
 10
-4.142447878277787
 20
-0.799847409383641
 10
-4.144847945428504
 20
-0.799847409383641
 10
-4.144847945428504
 20
-0.7918602829404706
 97
        0
 75
     0
 76
     1
 98
        0
  0
HATCH
  5
7C
330
1F
100
AcDbEntity
  8
XR$1$TB_700_1
  6
AUSGEZOGEN
 62
    18
420
        0
440
 33554687
370
    35
100
AcDbHatch
 10
0.0
 20
0.0
 30
0.0
210
0.0
220
0.0
230
1.0
  2
SOLID
 70
     1
 71
     0
 91
       20
 92
        3
 72
     0
 73
     1
 93
        8
 10
-4.013139484189661
 20
-0.7907975917478696
 10
-4.022986320219893
 20
-0.8155383260157893
 10
-4.020595625515237
 20
-0.8155383260157893
 10
-4.0176645732469
 20
-0.8080911966575967
 10
-4.00675504602407
 20
-0.8080911966575967
 10
-4.004098678521262
 20
-0.8155383260157893
 10
-4.001433299051077
 20
-0.8155383260157893
 10
-4.011014462283157
 20
-0.7907975917478696
 97
        0
 92
        3
 72
     0
 73
     1
 93
      116
 10
-3.998511258750113
 20
-0.8033007952808991
 10
-3.998474850401929
 20
-0.8023480500902477
 10
-3.998383288813419
 20
-0.8013862929322229
 10
-3.998227562017221
 20
-0.8004155238068195
 10
-3.99799829756726
 20
-0.7994627786161671
 10
-3.997705228388294
 20
-0.798537790285023
 10
-3.997347994001636
 20
-0.7976308258886246
 10
-3.996917582439909
 20
-0.7967700027651706
 10
-3.996413633224415
 20
-0.7959545999572809
 10
-3.995836867312565
 20
-0.7952037228357856
 10
-3.995195575714314
 20
-0.7945166504432798
 10
-3.994481106941005
 20
-0.7939027552258446
 10
-3.993684088546542
 20
-0.7933897940429849
 10
-3.992813892977024
 20
-0.7929687549273255
 10
-3.991861508265064
 20
-0.7926573013349205
 10
-3.990835585899348
 20
-0.7924648057118373
 10
-3.989727113912489
 20
-0.7923916285367684
 10
-3.98840812236781
 20
-0.7924738176792104
 10
-3.987226473205886
 20
-0.7927030821291762
 10
-3.986686115642208
 20
-0.7928768328601179
 10
-3.986182526905413
 20
-0.7930967248640197
 10
-3.985715346516815
 20
-0.7933533856947932
 10
-3.985275562509017
 20
-0.7936554668411306
 10
-3.984487916560628
 20
-0.7943973319952591
 10
-3.983819228581578
 20
-0.7953133083590308
 10
-3.983260486604456
 20
-0.7964217803458848
 10
-3.982811690629292
 20
-0.7977133755097582
 10
-3.980420995924636
 20
-0.7963850115190078
 10
-3.981162861078758
 20
-0.7949744583858135
 10
-3.982023684202216
 20
-0.7937470284296394
 10
-3.98298544136024
 20
-0.7926937096831023
 10
-3.983516786956544
 20
-0.7922359017405659
 10
-3.984075528933662
 20
-0.7918328865596493
 10
-3.984661667291576
 20
-0.7914662797269264
 10
-3.985284574476397
 20
-0.7911548261345304
 10
-3.985944250488085
 20
-0.7908801413689969
 10
-3.986631322880588
 20
-0.7906602493651042
 10
-3.988106041221471
 20
-0.7903671801861426
 10
-3.989727113912489
 20
-0.7902666066302606
 10
-3.991128655078314
 20
-0.7903397838053268
 10
-3.992420250242182
 20
-0.7905503033631547
 10
-3.993629295784921
 20
-0.7908985257824405
 10
-3.994728395325702
 20
-0.7913657061710472
 10
-3.995735933277984
 20
-0.7919518445289775
 10
-3.996651909641761
 20
-0.7926389169214769
 10
-3.99747632441702
 20
-0.7934175509024897
 10
-3.998209177603781
 20
-0.7942877464720075
 10
-3.998850469202035
 20
-0.7952401311839674
 10
-3.999399838733075
 20
-0.7962570415823164
 10
-3.999867019121683
 20
-0.7973287447422898
 10
-4.000242637921779
 20
-0.7984646131099542
 10
-4.000535707100734
 20
-0.7996278778584381
 10
-4.000737214691202
 20
-0.8008369234011795
 10
-4.000865545106581
 20
-0.8020643533573564
 10
-4.000901953454776
 20
-0.8033007952808991
 10
-4.000865545106581
 20
-0.8046381712390246
 10
-4.000737214691202
 20
-0.8059297664028916
 10
-4.000535707100734
 20
-0.8071752202938222
 10
-4.000251649889159
 20
-0.8083752538691831
 10
-3.999885403535128
 20
-0.809511122236854
 10
-3.999427235113889
 20
-0.81058282539683
 10
-3.99889624999629
 20
-0.8115903633491051
 10
-3.998273342811473
 20
-0.8125153516802555
 10
-3.997577258451597
 20
-0.8133581508689638
 10
-3.996789252024525
 20
-0.814109388469157
 10
-3.99591004448763
 20
-0.814759692034783
 10
-3.99495729929698
 20
-0.8153184340118903
 10
-3.993913352996514
 20
-0.81574884557362
 10
-3.99277748462884
 20
-0.8160786835794596
 10
-3.991568439086105
 20
-0.8162711792025454
 10
-3.990258459508786
 20
-0.8163443563776116
 10
-3.989159359968001
 20
-0.8162801911699178
 10
-3.988050887981149
 20
-0.8160876955468382
 10
-3.986970172853801
 20
-0.8157672299870572
 10
-3.985934878042018
 20
-0.815309422044527
 10
-3.984982493330058
 20
-0.8147139112405273
 10
-3.984121309727906
 20
-0.8139810580537676
 10
-3.983388456541149
 20
-0.8131108624842552
 10
-3.98308637539481
 20
-0.812616285714829
 10
-3.982811690629292
 20
-0.8120849401185285
 10
-3.982811690629292
 20
-0.8155383260157893
 10
-3.980686668722777
 20
-0.8155383260157893
 10
-3.980686668722777
 20
-0.8027694496846014
 10
-3.991861508265064
 20
-0.8027694496846014
 10
-3.991861508265064
 20
-0.8049038440371766
 10
-3.982811690629292
 20
-0.8049038440371766
 10
-3.982811690629292
 20
-0.8062318475492318
 10
-3.982912264185171
 20
-0.8075692235073609
 10
-3.983223717777578
 20
-0.8089339958463059
 10
-3.983471006162289
 20
-0.809611695792735
 10
-3.983764075341248
 20
-0.8102713718044259
 10
-3.984121309727906
 20
-0.8109126634026723
 10
-3.98454270932226
 20
-0.8115171861740389
 10
-3.985018901678245
 20
-0.8120849401185285
 10
-3.985568631687979
 20
-0.8125979013013919
 10
-3.986173154459352
 20
-0.8130560697226236
 10
-3.986850854405783
 20
-0.8134497124574671
 10
-3.987593080038611
 20
-0.8137705384959371
 10
-3.988417494813878
 20
-0.8140084544345861
 10
-3.989296702350769
 20
-0.8141641812307833
 10
-3.990258459508786
 20
-0.8142099620250363
 10
-3.99132115070139
 20
-0.8141457968173461
 10
-3.992291919826791
 20
-0.8139536616729545
 10
-3.993198884223201
 20
-0.8136422080805494
 10
-3.994022938519763
 20
-0.8132208084862012
 10
-3.99476516415258
 20
-0.8126988353359628
 10
-3.995442864099029
 20
-0.8120943125645933
 10
-3.996047386870388
 20
-0.8114072401720958
 10
-3.996578732466688
 20
-0.8106560025718988
 10
-3.997045912855297
 20
-0.8098409602426989
 10
-3.997439555590142
 20
-0.8089797766405498
 10
-3.997778766042061
 20
-0.8080731727228428
 10
-3.998044078361515
 20
-0.8071388119456312
 10
-3.998245585951961
 20
-0.8061860667549879
 10
-3.998392300780793
 20
-0.805224309596955
 10
-3.99848386236931
 20
-0.8042625524389293
 97
        0
 92
        3
 72
     0
 73
     1
 93
       37
 10
-3.97722427085815
 20
-0.8155383260157893
 10
-3.974833576153487
 20
-0.8155383260157893
 10
-3.974833576153487
 20
-0.8046381712390246
 10
-3.96924579590365
 20
-0.8046381712390246
 10
-3.961258669460483
 20
-0.8155383260157893
 10
-3.958336629159511
 20
-0.8155383260157893
 10
-3.966314743635317
 20
-0.8046381712390246
 10
-3.964711694879045
 20
-0.8044366636485699
 10
-3.963969829724912
 20
-0.8042625524389293
 10
-3.963283117811104
 20
-0.8040426604350311
 10
-3.962641826212856
 20
-0.8037679756695068
 10
-3.96205568785492
 20
-0.8034475101097294
 10
-3.961514969812556
 20
-0.8030809032770064
 10
-3.961029765489212
 20
-0.8026688761287231
 10
-3.960589981481418
 20
-0.8022107077074886
 10
-3.960214362681315
 20
-0.8017071189706956
 10
-3.959884524675467
 20
-0.8011573889609515
 10
-3.959619212356013
 20
-0.8005528661895849
 10
-3.959408332319493
 20
-0.7999115745913439
 10
-3.959252605523291
 20
-0.799224862677527
 10
-3.959161043934785
 20
-0.79849200949077
 10
-3.959133647553975
 20
-0.7977133755097582
 10
-3.959234221109854
 20
-0.7964217803458848
 10
-3.959545674702253
 20
-0.7951759659762718
 10
-3.959783951119588
 20
-0.7945808156509663
 10
-3.960068008331185
 20
-0.7940036892604192
 10
-3.960425242717839
 20
-0.7934633316967454
 10
-3.960828257898748
 20
-0.792959382481258
 10
-3.961295438287353
 20
-0.7924922020926504
 10
-3.961817411437593
 20
-0.7920801749443633
 10
-3.962412922241586
 20
-0.7917045561442626
 10
-3.96306322580721
 20
-0.791393102551863
 10
-3.963777694580526
 20
-0.7911368021997767
 10
-3.964556328561534
 20
-0.7909533185440685
 10
-3.965398767271541
 20
-0.7908343605747502
 10
-3.966314743635317
 20
-0.7907975917478696
 10
-3.97722427085815
 20
-0.7907975917478696
 97
        0
 92
        3
 72
     0
 73
     1
 93
       64
 10
-3.957374872001488
 20
-0.8057740396067018
 10
-3.957164352443665
 20
-0.8069737127033638
 10
-3.956880295232065
 20
-0.8081463498979181
 10
-3.956504676431977
 20
-0.8092728458195141
 10
-3.956046868489436
 20
-0.8103539214255595
 10
-3.955506150447064
 20
-0.811370471345215
 10
-3.954874231294888
 20
-0.8123138440897962
 10
-3.954159762521568
 20
-0.813184039659315
 10
-3.953353732159743
 20
-0.8139720460863953
 10
-3.952456140209414
 20
-0.814658758000203
 10
-3.951475998637942
 20
-0.8152358843907567
 10
-3.950395283510587
 20
-0.8157030647793643
 10
-3.949232018762114
 20
-0.8160512871986464
 10
-3.94797683194643
 20
-0.8162711792025454
 10
-3.946640176945693
 20
-0.8163443563776116
 10
-3.945330197368384
 20
-0.8162711792025454
 10
-3.944111779379581
 20
-0.8160512871986464
 10
-3.942985283457975
 20
-0.8157030647793643
 10
-3.941940976678818
 20
-0.8152358843907567
 10
-3.940988591966851
 20
-0.814658758000203
 10
-3.940109023951273
 20
-0.8139720460863953
 10
-3.939321378002885
 20
-0.813184039659315
 10
-3.938625293643009
 20
-0.8123138440897962
 10
-3.93800238645821
 20
-0.811370471345215
 10
-3.937471040861899
 20
-0.8103539214255595
 10
-3.937013232919361
 20
-0.8092728458195141
 10
-3.936646626086636
 20
-0.8081463498979181
 10
-3.936362929353741
 20
-0.8069737127033638
 10
-3.93615204931722
 20
-0.8057740396067018
 10
-3.9360330913479
 20
-0.8045466096505249
 10
-3.935996322521019
 20
-0.8033007952808991
 10
-3.9360330913479
 20
-0.8020643533573564
 10
-3.93615204931722
 20
-0.8008369234011795
 10
-3.936362929353741
 20
-0.7996278778584381
 10
-3.936646626086636
 20
-0.7984646131099542
 10
-3.937013232919361
 20
-0.7973287447422898
 10
-3.937471040861899
 20
-0.7962570415823164
 10
-3.93800238645821
 20
-0.7952401311839674
 10
-3.938625293643009
 20
-0.7942877464720075
 10
-3.939321378002885
 20
-0.7934175509024897
 10
-3.940109023951273
 20
-0.7926389169214769
 10
-3.940988591966851
 20
-0.7919518445289775
 10
-3.941940976678818
 20
-0.7913657061710472
 10
-3.942985283457975
 20
-0.7908985257824405
 10
-3.944111779379581
 20
-0.7905503033631547
 10
-3.945330197368384
 20
-0.7903397838053268
 10
-3.946640176945693
 20
-0.7902666066302606
 10
-3.94797683194643
 20
-0.7903397838053268
 10
-3.949232018762114
 20
-0.7905503033631547
 10
-3.950395283510587
 20
-0.7908985257824405
 10
-3.951475998637942
 20
-0.7913657061710472
 10
-3.952456140209414
 20
-0.7919518445289775
 10
-3.953353732159743
 20
-0.7926389169214769
 10
-3.954159762521568
 20
-0.7934175509024897
 10
-3.954874231294888
 20
-0.7942877464720075
 10
-3.955506150447064
 20
-0.7952401311839674
 10
-3.956046868489436
 20
-0.7962570415823164
 10
-3.956504676431977
 20
-0.7973287447422898
 10
-3.956880295232065
 20
-0.7984646131099542
 10
-3.957164352443665
 20
-0.7996278778584381
 10
-3.957374872001488
 20
-0.8008369234011795
 10
-3.957493829970811
 20
-0.8020643533573564
 10
-3.957530598797697
 20
-0.8033007952808991
 10
-3.957493829970811
 20
-0.8045466096505249
 97
        0
 92
        3
 72
     0
 73
     1
 93
       57
 10
-3.92215610350855
 20
-0.8155383260157893
 10
-3.921148565556271
 20
-0.8155015571889087
 10
-3.920214204779058
 20
-0.8154009836330304
 10
-3.919344009209536
 20
-0.8152268724233843
 10
-3.91855600278245
 20
-0.8149885960060453
 10
-3.917832522041771
 20
-0.8146955268270838
 10
-3.91717320650877
 20
-0.814347304407798
 10
-3.916586707672154
 20
-0.8139536616729545
 10
-3.916073746489287
 20
-0.8135138776651636
 10
-3.91561593854675
 20
-0.813028312863116
 10
-3.915231307779274
 20
-0.8125153516802555
 10
-3.914901469773434
 20
-0.8119659821492058
 10
-3.914635796975278
 20
-0.8113888557586558
 10
-3.914434289384829
 20
-0.8107933449546588
 10
-3.914287574556
 20
-0.8101707982485439
 10
-3.914205385413566
 20
-0.8095385186176698
 10
-3.914177989032741
 20
-0.8088882150520464
 10
-3.914251166207813
 20
-0.8076333887150539
 10
-3.914480070179084
 20
-0.8064701239665745
 10
-3.914663193356092
 20
-0.8059203939568268
 10
-3.914874073392627
 20
-0.805407432773967
 10
-3.915139746190775
 20
-0.8049222284506202
 10
-3.915441827337108
 20
-0.8044640600293859
 10
-3.915790049756389
 20
-0.8040520328811015
 10
-3.916174680523861
 20
-0.803667041634936
 10
-3.916614464531659
 20
-0.8033191796943426
 10
-3.917090656887637
 20
-0.80301673806931
 10
-3.917622002483945
 20
-0.8027510652711642
 10
-3.918199128874497
 20
-0.8025405457133272
 10
-3.918821675580605
 20
-0.8023664345036939
 10
-3.919499736005741
 20
-0.8022381040882981
 10
-3.918382252051512
 20
-0.8019818037362163
 10
-3.917896687249466
 20
-0.8017986805591989
 10
-3.917447891274299
 20
-0.8015878005226721
 10
-3.916660245325918
 20
-0.8010842117858881
 10
-3.916037338141104
 20
-0.8004429201876353
 10
-3.915560785306435
 20
-0.7996826706200661
 10
-3.915377662129416
 20
-0.7992522590583392
 10
-3.915231307779274
 20
-0.7987940906371112
 10
-3.915038812156191
 20
-0.797786552684827
 10
-3.914974646948499
 20
-0.7966506843171571
 10
-3.915020427742754
 20
-0.7960187651649774
 10
-3.915203550919766
 20
-0.7951759659762718
 10
-3.915359277715975
 20
-0.7947087855876641
 10
-3.915579169719876
 20
-0.7942142088182407
 10
-3.915854214964084
 20
-0.7937196320488272
 10
-3.916202076904686
 20
-0.7932250552794037
 10
-3.916632488466405
 20
-0.7927488629234237
 10
-3.917145449649265
 20
-0.792300066948256
 10
-3.917749972420627
 20
-0.791887679321281
 10
-3.918455429226578
 20
-0.7915304449346229
 10
-3.91927047155577
 20
-0.7912283637882827
 10
-3.920195820365613
 20
-0.7909990993383188
 10
-3.921240127144777
 20
-0.7908527449881901
 10
-3.922421776306694
 20
-0.7907975917478696
 10
-3.933065270252682
 20
-0.7907975917478696
 10
-3.933065270252682
 20
-0.8155383260157893
 97
        0
 92
        3
 72
     0
 73
     1
 93
       56
 10
-3.906190502110875
 20
-0.8155383260157893
 10
-3.895015662568595
 20
-0.8155383260157893
 10
-3.892753298279319
 20
-0.8154557763946557
 10
-3.891718003467525
 20
-0.8153368184253302
 10
-3.890747234342142
 20
-0.8151717191830637
 10
-3.889849642391803
 20
-0.8149521876578626
 10
-3.889015855170469
 20
-0.8146865148597078
 10
-3.888255605602902
 20
-0.8143656888212388
 10
-3.887568533210399
 20
-0.8139810580537676
 10
-3.886954998471653
 20
-0.8135412740459758
 10
-3.886423652875353
 20
-0.81303768530918
 10
-3.885965844932815
 20
-0.8124695708859988
 10
-3.885590226132717
 20
-0.8118376517338136
 10
-3.885297156953754
 20
-0.8111415673739409
 10
-3.885086276917223
 20
-0.8103723058389967
 10
-3.884948934534465
 20
-0.8095385186176698
 10
-3.884912526186286
 20
-0.8086225422538916
 10
-3.884939922567096
 20
-0.8079538542748321
 10
-3.885031484155602
 20
-0.8073219351226469
 10
-3.885177838505743
 20
-0.8067448087320989
 10
-3.885379346096189
 20
-0.8062134631357947
 10
-3.885626994959595
 20
-0.8057282588124424
 10
-3.885920064138564
 20
-0.8052884748046543
 10
-3.886258914111778
 20
-0.8048944715911127
 10
-3.88663453291188
 20
-0.804537237204451
 10
-3.887055932506234
 20
-0.80421677164468
 10
-3.887504728481391
 20
-0.8039420868791493
 10
-3.887989932804746
 20
-0.8037038104618166
 10
-3.888502893987609
 20
-0.8035023028713584
 10
-3.889592981561024
 20
-0.8031998612463319
 10
-3.89076561875558
 20
-0.8030351224827507
 10
-3.89076561875558
 20
-0.8027694496846014
 10
-3.889629750387906
 20
-0.8024305997113841
 10
-3.888622212435624
 20
-0.8020092001170358
 10
-3.887761028833479
 20
-0.8014962389341724
 10
-3.887037548092797
 20
-0.8008733317493623
 10
-3.886469433669611
 20
-0.8001408390412978
 10
-3.886240529698341
 20
-0.7997378238603904
 10
-3.886048034075257
 20
-0.799288667406531
 10
-3.88579173372317
 20
-0.7983088863137525
 10
-3.885709184102037
 20
-0.7971820299134604
 10
-3.885745952928911
 20
-0.7963669875842623
 10
-3.885864910898238
 20
-0.7956157499840663
 10
-3.886057406521322
 20
-0.7949196656241873
 10
-3.886323079319474
 20
-0.7942783740259399
 10
-3.886652556846623
 20
-0.7937012476353864
 10
-3.887055932506234
 20
-0.7931792744851535
 10
-3.887513740448771
 20
-0.7927120940965522
 10
-3.888035713598997
 20
-0.792300066948256
 10
-3.88861283998956
 20
-0.7919334601155312
 10
-3.889244759141736
 20
-0.791622006523129
 10
-3.889922819566872
 20
-0.7913657061710472
 10
-3.890646300307554
 20
-0.7911641985805925
 10
-3.892221952683015
 20
-0.7908891533363729
 10
-3.893952971375994
 20
-0.7907975917478696
 10
-3.906190502110875
 20
-0.7907975917478696
 97
        0
 92
        3
 72
     0
 73
     1
 93
       58
 10
-3.880653109927199
 20
-0.8070288659436817
 10
-3.880588944719503
 20
-0.8082288995190545
 10
-3.880405821542484
 20
-0.8093370110272106
 10
-3.880103379917458
 20
-0.8103539214255595
 10
-3.879700364736538
 20
-0.8112882822027675
 10
-3.879205787967122
 20
-0.8121400933588491
 10
-3.878628661576567
 20
-0.8129003429264183
 10
-3.877978358010942
 20
-0.8135780428728593
 10
-3.87726388923763
 20
-0.8141825656442204
 10
-3.876485255256618
 20
-0.8147045387944597
 10
-3.875660840481355
 20
-0.8151443228022506
 10
-3.874809029325285
 20
-0.8155199416023522
 10
-3.873920809821014
 20
-0.8158220227486798
 10
-3.873013845424607
 20
-0.8160512871986464
 10
-3.872097869060835
 20
-0.8162160259622249
 10
-3.871181892697066
 20
-0.8163075875507309
 10
-3.870274928300666
 20
-0.8163443563776116
 10
-3.869368324382965
 20
-0.8163075875507309
 10
-3.868452348019189
 20
-0.8162160259622249
 10
-3.867536371655419
 20
-0.8160512871986464
 10
-3.866638779705088
 20
-0.8158220227486798
 10
-3.865750199722129
 20
-0.8155199416023522
 10
-3.864889016119977
 20
-0.8151443228022506
 10
-3.864064601344707
 20
-0.8147045387944597
 10
-3.863295339809777
 20
-0.8141825656442204
 10
-3.86257185906908
 20
-0.8135780428728593
 10
-3.861921195024762
 20
-0.8129003429264183
 10
-3.861344429112908
 20
-0.8121400933588491
 10
-3.860849491864795
 20
-0.8112882822027675
 10
-3.860446476683878
 20
-0.8103539214255595
 10
-3.860144395537539
 20
-0.8093370110272106
 10
-3.859961272360527
 20
-0.8082288995190545
 10
-3.859897107152835
 20
-0.8070288659436817
 10
-3.859897107152835
 20
-0.7907975917478696
 10
-3.866015872520274
 20
-0.7907975917478696
 10
-3.866015872520274
 20
-0.8064975203473839
 10
-3.866070665281905
 20
-0.8074686499514763
 10
-3.866235764524171
 20
-0.8083662419018135
 10
-3.866519461257077
 20
-0.8091812842310117
 10
-3.866950233297491
 20
-0.8098867410369582
 10
-3.867526999209352
 20
-0.8104728793948778
 10
-3.867875221628641
 20
-0.810711155812214
 10
-3.868259852396101
 20
-0.8109126634026723
 10
-3.868699636403896
 20
-0.8110683901988748
 10
-3.869175828759881
 20
-0.8111873481681976
 10
-3.870274928300666
 20
-0.8112882822027675
 10
-3.871374388320149
 20
-0.8111873481681976
 10
-3.871850580676134
 20
-0.8110683901988748
 10
-3.872290364683921
 20
-0.8109126634026723
 10
-3.872674995451397
 20
-0.810711155812214
 10
-3.873022857391991
 20
-0.8104728793948778
 10
-3.873599983782539
 20
-0.8098867410369582
 10
-3.874030395344259
 20
-0.8091812842310117
 10
-3.874314452555859
 20
-0.8083662419018135
 10
-3.874479551798117
 20
-0.8074686499514763
 10
-3.874534344559749
 20
-0.8064975203473839
 10
-3.874534344559749
 20
-0.7907975917478696
 10
-3.880653109927199
 20
-0.7907975917478696
 97
        0
 92
        3
 72
     0
 73
     1
 93
      105
 10
-3.849518925526302
 20
-0.8033007952808991
 10
-3.849491529145488
 20
-0.8022932573286214
 10
-3.84939996755699
 20
-0.8013588965514135
 10
-3.849253252728158
 20
-0.8004887009818947
 10
-3.849051745137701
 20
-0.799701055033507
 10
-3.848804456752986
 20
-0.7989772138141232
 10
-3.848502375606647
 20
-0.7983269102485062
 10
-3.848154153187362
 20
-0.7977407718905768
 10
-3.847760510452516
 20
-0.7972187987403374
 10
-3.847329738412092
 20
-0.7967606303191058
 10
-3.846862558023494
 20
-0.7963759995516319
 10
-3.846358969286706
 20
-0.7960461615457869
 10
-3.845818611723028
 20
-0.7957804887476384
 10
-3.845250497299846
 20
-0.7955789811571792
 10
-3.844655346974537
 20
-0.7954326268070506
 10
-3.844041451757111
 20
-0.7953500771859142
 10
-3.843400160158863
 20
-0.7953226808050956
 10
-3.842603502243105
 20
-0.7953958579801709
 10
-3.84182486826209
 20
-0.7956067380166967
 10
-3.841083003107971
 20
-0.795936215543841
 10
-3.84037754630202
 20
-0.7963850115190078
 10
-3.839736254703777
 20
-0.7969347415287482
 10
-3.839177512726655
 20
-0.7975666606809343
 10
-3.838710692816751
 20
-0.7982721174868719
 10
-3.838344085984022
 20
-0.7990507514678836
 10
-3.833297023776543
 20
-0.7966506843171571
 10
-3.83423138455376
 20
-0.7952311192165887
 10
-3.835248294952114
 20
-0.7939669204335321
 10
-3.836365778906336
 20
-0.7928768328601179
 10
-3.836960929231637
 20
-0.792400640504138
 10
-3.837583836416448
 20
-0.7919608564963498
 10
-3.838234139982072
 20
-0.7915762257288759
 10
-3.838912200407204
 20
-0.791237375755655
 10
-3.839626669180524
 20
-0.7909443065766935
 10
-3.84036853433464
 20
-0.7907060301593545
 10
-3.841137795869595
 20
-0.7905138950149692
 10
-3.841943826231421
 20
-0.7903761921535095
 10
-3.842786625420114
 20
-0.7902940030110674
 10
-3.843665832957008
 20
-0.7902666066302606
 10
-3.845076386090204
 20
-0.7903397838053268
 10
-3.846395738113587
 20
-0.7905412913957823
 10
-3.847641192004502
 20
-0.7908801413689969
 10
-3.848795444785613
 20
-0.791328937344161
 10
-3.849867147945583
 20
-0.7918970517673486
 10
-3.850847289517056
 20
-0.7925653792677165
 10
-3.851744881467391
 20
-0.7933350012813496
 10
-3.85255091182922
 20
-0.7941868124374312
 10
-3.853265380602537
 20
-0.7951301851820215
 10
-3.853888287787339
 20
-0.7961377231342992
 10
-3.85441963338364
 20
-0.7972187987403374
 10
-3.854859056912733
 20
-0.7983452946619434
 10
-3.855198267364648
 20
-0.7995359557912396
 10
-3.855445555749363
 20
-0.8007543737800404
 10
-3.855591910099497
 20
-0.802018572563097
 10
-3.855647063339819
 20
-0.8033007952808991
 10
-3.855591910099497
 20
-0.8045923904447716
 10
-3.855436183303295
 20
-0.805847216781767
 10
-3.85517051050514
 20
-0.807074646737941
 10
-3.854813276118481
 20
-0.808256295899864
 10
-3.854346095729881
 20
-0.8093921642675348
 10
-3.853787353752755
 20
-0.8104728793948778
 10
-3.853137050187134
 20
-0.8114804173471583
 10
-3.852386173065638
 20
-0.8124147781243762
 10
-3.851534361909561
 20
-0.8132756012478211
 10
-3.850600001132348
 20
-0.8140362112940909
 10
-3.849574078766628
 20
-0.8147139112405273
 10
-3.848456594812399
 20
-0.8152726532176373
 10
-3.847256561237034
 20
-0.8157304611601773
 10
-3.845964966073162
 20
-0.8160602991660223
 10
-3.844591181766856
 20
-0.8162711792025454
 10
-3.843134847839402
 20
-0.8163443563776116
 10
-3.842392622206581
 20
-0.8163169599968021
 10
-3.841660129498519
 20
-0.8162344103756648
 10
-3.840212807538445
 20
-0.8159045723698198
 10
-3.839516723178567
 20
-0.8156666564311789
 10
-3.838829650786064
 20
-0.8153732267735156
 10
-3.83816096280701
 20
-0.8150343768003011
 10
-3.837519671208756
 20
-0.8146407340654584
 10
-3.836292241252572
 20
-0.8137337696690617
 10
-3.835165745330974
 20
-0.8126346701282726
 10
-3.834167219346065
 20
-0.8113798437912799
 10
-3.833709411403531
 20
-0.8106833989527092
 10
-3.833297023776543
 20
-0.8099509062446448
 10
-3.83807841318587
 20
-0.8075602115399886
 10
-3.838536581607094
 20
-0.808393638282623
 10
-3.839095323584213
 20
-0.8091081070559428
 10
-3.839727242736392
 20
-0.8097036178599389
 10
-3.840414315128906
 20
-0.8101888221832858
 10
-3.84111941145615
 20
-0.8105554290160114
 10
-3.84182486826209
 20
-0.810811729368096
 10
-3.842502568208531
 20
-0.8109674561642986
 10
-3.843134847839402
 20
-0.8110226094046218
 10
-3.844041451757111
 20
-0.8109674561642986
 10
-3.844865866532374
 20
-0.8108301137815395
 10
-3.845607731686508
 20
-0.8106012098102672
 10
-3.846267407698192
 20
-0.810298768185238
 10
-3.846862558023494
 20
-0.8099231493851401
 10
-3.847375519206357
 20
-0.8094927378234131
 10
-3.847833687627589
 20
-0.8089981610539897
 10
-3.848227690841129
 20
-0.8084578034903195
 10
-3.848557168368275
 20
-0.8078806770997633
 10
-3.848832213612495
 20
-0.8072671423610234
 10
-3.849061117583765
 20
-0.8066258507627734
 10
-3.849235228793411
 20
-0.8059661747510861
 10
-3.84945476031861
 20
-0.8046287987929635
 97
        0
 92
        3
 72
     0
 73
     1
 93
       12
 10
-3.829834625911916
 20
-0.8155383260157893
 10
-3.823715860544474
 20
-0.8155383260157893
 10
-3.823715860544474
 20
-0.805169516835326
 10
-3.814400370110546
 20
-0.805169516835326
 10
-3.814400370110546
 20
-0.8155383260157893
 10
-3.808281965221802
 20
-0.8155383260157893
 10
-3.808281965221802
 20
-0.7907975917478696
 10
-3.814400370110546
 20
-0.7907975917478696
 10
-3.814400370110546
 20
-0.799847409383641
 10
-3.823715860544474
 20
-0.799847409383641
 10
-3.823715860544474
 20
-0.7907975917478696
 10
-3.829834625911916
 20
-0.7907975917478696
 97
        0
 92
        3
 72
     0
 73
     1
 93
        8
 10
-3.792316363824119
 20
-0.7955883536032532
 10
-3.785931925658536
 20
-0.7955883536032532
 10
-3.785931925658536
 20
-0.7907975917478696
 10
-3.805094252122685
 20
-0.7907975917478696
 10
-3.805094252122685
 20
-0.7955883536032532
 10
-3.798435129191569
 20
-0.7955883536032532
 10
-3.798435129191569
 20
-0.8155383260157893
 10
-3.792316363824119
 20
-0.8155383260157893
 97
        0
 92
        3
 72
     0
 73
     1
 93
        8
 10
-3.787800647212959
 20
-0.8155383260157893
 10
-3.78114152428184
 20
-0.8155383260157893
 10
-3.779813160291097
 20
-0.8118192673203828
 10
-3.770772715101382
 20
-0.8118192673203828
 10
-3.769435339143259
 20
-0.8155383260157893
 10
-3.762785228179516
 20
-0.8155383260157893
 10
-3.772100718613433
 20
-0.7907975917478696
 10
-3.778485156779027
 20
-0.7907975917478696
 97
        0
 92
        3
 72
     0
 73
     1
 93
        6
 10
-3.760128860676704
 20
-0.8155383260157893
 10
-3.744163619757724
 20
-0.8155383260157893
 10
-3.744163619757724
 20
-0.810491263808324
 10
-3.753744422511106
 20
-0.810491263808324
 10
-3.753744422511106
 20
-0.7907975917478696
 10
-3.760128860676704
 20
-0.7907975917478696
 97
        0
 92
       18
 72
     0
 73
     1
 93
        3
 10
-4.012077153475751
 20
-0.7939943168143543
 10
-4.007552064418526
 20
-0.8062318475492318
 10
-4.016867554852451
 20
-0.8062318475492318
 97
        0
 92
       18
 72
     0
 73
     1
 93
       29
 10
-3.967111762029766
 20
-0.7931976588985906
 10
-3.965637043688885
 20
-0.7932708360736594
 10
-3.964400601765337
 20
-0.7934907280775522
 10
-3.963869256169036
 20
-0.7936554668411306
 10
-3.96339270333436
 20
-0.7938569744315825
 10
-3.962962291772633
 20
-0.7940862388815528
 10
-3.962586672972534
 20
-0.7943609236470763
 10
-3.962266207412758
 20
-0.7946630047934048
 10
-3.96199152264724
 20
-0.7950022152453273
 10
-3.961762258197271
 20
-0.795368461599355
 10
-3.961579135020255
 20
-0.7957714767802625
 10
-3.961341219081608
 20
-0.7966784411766646
 10
-3.961258669460483
 20
-0.7977133755097582
 10
-3.961322834668167
 20
-0.7986109674600919
 10
-3.961542726672068
 20
-0.7994721510622382
 10
-3.961716477403016
 20
-0.7998841782105244
 10
-3.96193636940691
 20
-0.8002871933914327
 10
-3.962202042205062
 20
-0.8006628121915345
 10
-3.962522507764842
 20
-0.8010110346108229
 10
-3.96289812656493
 20
-0.801331500170594
 10
-3.963337910572736
 20
-0.8016245693495583
 10
-3.963841859788225
 20
-0.80188086970164
 10
-3.964400601765337
 20
-0.8020917497381631
 10
-3.96503252091752
 20
-0.8022658609478092
 10
-3.965737617244765
 20
-0.8023938308845033
 10
-3.966525623671844
 20
-0.8024763805056399
 10
-3.967377434827925
 20
-0.8025037768864557
 10
-3.974833576153487
 20
-0.8025037768864557
 10
-3.974833576153487
 20
-0.7931976588985906
 97
        0
 92
       18
 72
     0
 73
     1
 93
       64
 10
-3.955112507712223
 20
-0.8023480500902477
 10
-3.955011573677642
 20
-0.8013862929322229
 10
-3.95485584688144
 20
-0.8004155238068195
 10
-3.954635954877546
 20
-0.7994627786161671
 10
-3.95434288569858
 20
-0.798537790285023
 10
-3.953985651311918
 20
-0.7976308258886246
 10
-3.953564612196267
 20
-0.7967700027651706
 10
-3.953079047394224
 20
-0.7959545999572809
 10
-3.952520305417106
 20
-0.7952037228357856
 10
-3.951888025786225
 20
-0.7945166504432798
 10
-3.951191941426357
 20
-0.7939027552258446
 10
-3.950422679891413
 20
-0.7933897940429849
 10
-3.949589253148773
 20
-0.7929687549273255
 10
-3.948673276785
 20
-0.7926573013349205
 10
-3.947693495692233
 20
-0.7924648057118373
 10
-3.946640176945693
 20
-0.7923916285367684
 10
-3.945577485753095
 20
-0.7924648057118373
 10
-3.944597344181627
 20
-0.7926573013349205
 10
-3.943699752231299
 20
-0.7929687549273255
 10
-3.942875337456028
 20
-0.7933897940429849
 10
-3.942133472301902
 20
-0.7939027552258446
 10
-3.941455411876773
 20
-0.7945166504432798
 10
-3.9408508891054
 20
-0.7952037228357856
 10
-3.94031990398779
 20
-0.7959545999572809
 10
-3.939852723599192
 20
-0.7967700027651706
 10
-3.939458720385653
 20
-0.7976308258886246
 10
-3.939119870412435
 20
-0.798537790285023
 10
-3.938854197614276
 20
-0.7994627786161671
 10
-3.938643678056454
 20
-0.8004155238068195
 10
-3.938505975194999
 20
-0.8013862929322229
 10
-3.938414413606489
 20
-0.8023480500902477
 10
-3.938387017225675
 20
-0.8033007952808991
 10
-3.938414413606489
 20
-0.8042625524389293
 10
-3.938505975194999
 20
-0.805224309596955
 10
-3.938643678056454
 20
-0.8061860667549879
 10
-3.938854197614276
 20
-0.8071388119456312
 10
-3.939119870412435
 20
-0.8080731727228428
 10
-3.939458720385653
 20
-0.8089797766405498
 10
-3.939852723599192
 20
-0.8098409602426989
 10
-3.94031990398779
 20
-0.8106560025718988
 10
-3.9408508891054
 20
-0.8114072401720958
 10
-3.941455411876773
 20
-0.8120943125645933
 10
-3.942133472301902
 20
-0.8126988353359628
 10
-3.942875337456028
 20
-0.8132208084862012
 10
-3.943699752231299
 20
-0.8136422080805494
 10
-3.944597344181627
 20
-0.8139536616729545
 10
-3.945577485753095
 20
-0.8141457968173461
 10
-3.946640176945693
 20
-0.8142099620250363
 10
-3.947693495692233
 20
-0.8141457968173461
 10
-3.948673276785
 20
-0.8139536616729545
 10
-3.949589253148773
 20
-0.8136422080805494
 10
-3.950422679891413
 20
-0.8132208084862012
 10
-3.951191941426357
 20
-0.8126988353359628
 10
-3.951888025786225
 20
-0.8120943125645933
 10
-3.952520305417106
 20
-0.8114072401720958
 10
-3.953079047394224
 20
-0.8106560025718988
 10
-3.953564612196267
 20
-0.8098409602426989
 10
-3.953985651311918
 20
-0.8089797766405498
 10
-3.95434288569858
 20
-0.8080731727228428
 10
-3.954635954877546
 20
-0.8071388119456312
 10
-3.95485584688144
 20
-0.8061860667549879
 10
-3.955011573677642
 20
-0.805224309596955
 10
-3.955112507712223
 20
-0.8042625524389293
 10
-3.955139904093033
 20
-0.8033007952808991
 97
        0
 92
       18
 72
     0
 73
     1
 93
       26
 10
-3.922952761424312
 20
-0.7931976588985906
 10
-3.921643142325686
 20
-0.7932340672467797
 10
-3.920516285925393
 20
-0.7933717701082394
 10
-3.919554528767359
 20
-0.793609686046874
 10
-3.919133129173005
 20
-0.79378379725652
 10
-3.918766882818981
 20
-0.7939943168143543
 10
-3.918437044813133
 20
-0.7942325932316906
 10
-3.918152987601551
 20
-0.7945166504432798
 10
-3.917915071662904
 20
-0.7948464884491211
 10
-3.917722576039824
 20
-0.7952127348031516
 10
-3.917566849243619
 20
-0.7956341343974999
 10
-3.917456903241661
 20
-0.7960919423400425
 10
-3.917365341653155
 20
-0.7971820299134604
 10
-3.91746627568774
 20
-0.7981347751041119
 10
-3.917585233657056
 20
-0.7985651866658361
 10
-3.917759344866706
 20
-0.7989682018467444
 10
-3.917969864424532
 20
-0.7993528326142184
 10
-3.918226525255311
 20
-0.799701055033507
 10
-3.91886745637486
 20
-0.800314589772255
 10
-3.91966447476932
 20
-0.8008001545742989
 10
-3.920131655157918
 20
-0.8009926501973821
 10
-3.920626231927347
 20
-0.8011483769935819
 10
-3.921725331468128
 20
-0.8013679085187857
 10
-3.922952761424312
 20
-0.8014414461725462
 10
-3.930674575548029
 20
-0.8014414461725462
 10
-3.930674575548029
 20
-0.7931976588985906
 97
        0
 92
       18
 72
     0
 73
     1
 93
       28
 10
-3.922952761424312
 20
-0.8035664680790576
 10
-3.921459658669973
 20
-0.803667041634936
 10
-3.920159051538731
 20
-0.8039510988465252
 10
-3.919591297594251
 20
-0.8041619788830511
 10
-3.919068963965317
 20
-0.8044092672677596
 10
-3.918592771609335
 20
-0.8047023364467212
 10
-3.918171372014988
 20
-0.8050318139738718
 10
-3.917795753214893
 20
-0.8053984208066002
 10
-3.91746627568774
 20
-0.8058014359875113
 10
-3.91719123044352
 20
-0.8062412199953085
 10
-3.916971698918317
 20
-0.806708400383907
 10
-3.916797587708671
 20
-0.8072119891207028
 10
-3.916669257293283
 20
-0.8077433347170007
 10
-3.916568683737411
 20
-0.8088882150520464
 10
-3.916650872879843
 20
-0.8096942454138714
 10
-3.916879776851113
 20
-0.810491263808324
 10
-3.917283152510728
 20
-0.8112605253432664
 10
-3.917869290868649
 20
-0.8119475977357659
 10
-3.918226525255311
 20
-0.8122590513281709
 10
-3.91863855240359
 20
-0.8125431085397602
 10
-3.919096720824821
 20
-0.8127903969244742
 10
-3.919600309561617
 20
-0.8130102889283678
 10
-3.920159051538731
 20
-0.8131750276919427
 10
-3.920772946756161
 20
-0.8133033581073293
 10
-3.921441634735233
 20
-0.8133855472497679
 10
-3.92215610350855
 20
-0.8134133041092816
 10
-3.930674575548029
 20
-0.8134133041092816
 10
-3.930674575548029
 20
-0.8035664680790576
 97
        0
 92
       18
 72
     0
 73
     1
 93
       19
 10
-3.895015662568595
 20
-0.7955883536032532
 10
-3.89434697458953
 20
-0.7956157499840663
 10
-3.893733079372093
 20
-0.7956982996052
 10
-3.893192721808419
 20
-0.7958540264014026
 10
-3.892725541419814
 20
-0.7960829303726675
 10
-3.892349922619712
 20
-0.7964033959324477
 10
-3.892066225886814
 20
-0.7968247955268023
 10
-3.891892114677171
 20
-0.7973471291557332
 10
-3.891827949469479
 20
-0.7979790483079103
 10
-3.891892114677171
 20
-0.798629351873529
 10
-3.892066225886814
 20
-0.7991880938506463
 10
-3.892349922619712
 20
-0.7996459017931864
 10
-3.892725541419814
 20
-0.8000125086259148
 10
-3.893192721808419
 20
-0.8002965658375003
 10
-3.893733079372093
 20
-0.8004887009818947
 10
-3.89434697458953
 20
-0.8006076589512138
 10
-3.895015662568595
 20
-0.8006444277780936
 10
-3.900337409541577
 20
-0.8006444277780936
 10
-3.900337409541577
 20
-0.7955883536032532
 97
        0
 92
       18
 72
     0
 73
     1
 93
       19
 10
-3.893952971375994
 20
-0.805169516835326
 10
-3.893220118189233
 20
-0.8052152976295818
 10
-3.892597571483128
 20
-0.8053616519797194
 10
-3.892093622267635
 20
-0.805599928397053
 10
-3.891690607086722
 20
-0.8059297664028916
 10
-3.891397537907759
 20
-0.8063511659972517
 10
-3.891186657871228
 20
-0.8068457427666696
 10
-3.891067699901919
 20
-0.807431881124602
 10
-3.891030931075034
 20
-0.8080911966575967
 10
-3.891067699901919
 20
-0.8086776954942122
 10
-3.891205042284676
 20
-0.8092270650252646
 10
-3.89145233066938
 20
-0.8097216417946845
 10
-3.891827949469479
 20
-0.8101524138351031
 10
-3.892349922619712
 20
-0.8105186601891344
 10
-3.893046367458278
 20
-0.8107843329872865
 10
-3.893934586962549
 20
-0.8109584441969253
 10
-3.895015662568595
 20
-0.8110226094046218
 10
-3.900071736743429
 20
-0.8110226094046218
 10
-3.900071736743429
 20
-0.805169516835326
 97
        0
 92
       18
 72
     0
 73
     1
 93
        3
 10
-3.775288431712549
 20
-0.7969163571153083
 10
-3.772366391411589
 20
-0.8072945387418365
 10
-3.778485156779027
 20
-0.8072945387418365
 97
        0
 75
     0
 76
     1
 98
        0
  0
HATCH
  5
7E
102
{ACAD_REACTORS
330
7D
102
}
330
1F
100
AcDbEntity
  8
XR$1$TB_700_1
  6
AUSGEZOGEN
 62
     3
440
 33554687
370
    35
100
AcDbHatch
 10
0.0
 20
0.0
 30
0.0
210
0.0
220
0.0
230
1.0
  2
SOLID
 70
     1
 71
     0
 91
        1
 92
        3
 72
     0
 73
     1
 93
       22
 10
-4.051986110268204
 20
-0.8158130107813137
 10
-4.036817527264986
 20
-0.8158130107813137
 10
-4.03809974998279
 20
-0.8149702115926045
 10
-4.039345564352402
 20
-0.8140542352288365
 10
-4.040545597927775
 20
-0.813046697276556
 10
-4.041681466295448
 20
-0.8119475977357659
 10
-4.042734785041968
 20
-0.8107569366064706
 10
-4.043705554167372
 20
-0.8094469570291574
 10
-4.044575749736886
 20
-0.8080273919285926
 10
-4.04533599930446
 20
-0.8064975203473839
 10
-4.045803179693065
 20
-0.8054989943624822
 10
-4.046206194873978
 20
-0.8044914564102044
 10
-4.046554417293274
 20
-0.8034839184579176
 10
-4.046847486472226
 20
-0.8024763805056399
 10
-4.047250501653139
 20
-0.800451932155014
 10
-4.047433624830165
 20
-0.798446228696517
 10
-4.047397216481967
 20
-0.7964675611401415
 10
-4.047167952032006
 20
-0.7945256624106457
 10
-4.046746552437652
 20
-0.7926295444754093
 10
-4.04646285570475
 20
-0.7917045561442626
 10
-4.046133017698914
 20
-0.7907975917478696
 10
-4.051986110268204
 20
-0.7907975917478696
 97
        0
 75
     0
 76
     1
 98
        0
  0
HATCH
  5
7F
102
{ACAD_REACTORS
330
7D
102
}
330
1F
100
AcDbEntity
  8
XR$1$TB_700_1
  6
AUSGEZOGEN
 62
     3
440
 33554687
370
    35
100
AcDbHatch
 10
0.0
 20
0.0
 30
0.0
210
0.0
220
0.0
230
1.0
  2
SOLID
 70
     1
 71
     0
 91
        1
 92
        3
 72
     0
 73
     1
 93
       24
 10
-4.039418741527478
 20
-0.8120943125645933
 10
-4.038209695984743
 20
-0.8132117965188225
 10
-4.036881692472681
 20
-0.8142193344711038
 10
-4.035443742958671
 20
-0.8150801575945513
 10
-4.033895486964021
 20
-0.8158130107813137
 10
-4.026980063680817
 20
-0.8158130107813137
 10
-4.026980063680817
 20
-0.7907975917478696
 10
-4.040545597927775
 20
-0.7907975917478696
 10
-4.041104339904886
 20
-0.7914388833461169
 10
-4.04158053226086
 20
-0.7921623640868054
 10
-4.042404947036127
 20
-0.7937290044948911
 10
-4.042780565836222
 20
-0.7945256624106457
 10
-4.04311040384207
 20
-0.7953410652185446
 10
-4.043385088607588
 20
-0.7961561075477391
 10
-4.043613992578866
 20
-0.7969805223229984
 10
-4.04393481861734
 20
-0.798629351873529
 10
-4.044072161000101
 20
-0.8002781814240605
 10
-4.044035392173216
 20
-0.8019270109745974
 10
-4.043833884582763
 20
-0.8035390716982381
 10
-4.043467638228728
 20
-0.8051237360410758
 10
-4.042945304599805
 20
-0.8066622591109588
 10
-4.042267604653363
 20
-0.8081369774518496
 10
-4.041452201845477
 20
-0.8095478910637374
 10
-4.04049981713352
 20
-0.8108668826084192
 97
        0
 75
     0
 76
     1
 98
        0
  0
HATCH
  5
80
330
1F
100
AcDbEntity
  8
XR$1$TB_700_1
  6
AUSGEZOGEN
 62
     9
440
 33554687
370
    -3
100
AcDbHatch
 10
0.0
 20
0.0
 30
0.0
210
0.0
220
0.0
230
1.0
  2
SOLID
 70
     1
 71
     0
 91
        1
 92
        3
 72
     0
 73
     1
 93
        4
 10
-3.726119424642705
 20
-0.4850066721678999
 10
-3.726119424642703
 20
-0.3876733388443
 10
-4.091452757939503
 20
-0.3876733388443
 10
-4.091452757939504
 20
-0.4850066721678999
 97
        0
 75
     0
 76
     1
 98
        0
  0
HATCH
  5
81
330
1F
100
AcDbEntity
  8
XR$1$TB_700_1
  6
AUSGEZOGEN
 62
     9
440
 33554687
370
    -3
100
AcDbHatch
 10
0.0
 20
0.0
 30
0.0
210
0.0
220
0.0
230
1.0
  2
SOLID
 70
     1
 71
     0
 91
        1
 92
        3
 72
     0
 73
     1
 93
        4
 10
-3.726119424642703
 20
-0.3850066721778999
 10
-3.726119424642703
 20
-0.2876733388542999
 10
-4.091452757939503
 20
-0.2876733388542999
 10
-4.091452757939503
 20
-0.3850066721778999
 97
        0
 75
     0
 76
     1
 98
        0
  0
HATCH
  5
82
330
1F
100
AcDbEntity
  8
XR$1$TB_700_1
  6
AUSGEZOGEN
 62
     9
440
 33554687
370
    -3
100
AcDbHatch
 10
0.0
 20
0.0
 30
0.0
210
0.0
220
0.0
230
1.0
  2
SOLID
 70
     1
 71
     0
 91
        1
 92
        3
 72
     0
 73
     1
 93
        4
 10
-3.726119424642703
 20
-0.1876733388643
 10
-4.091452757939503
 20
-0.1876733388643
 10
-4.091452757939503
 20
-0.2850066721878999
 10
-3.726119424642703
 20
-0.2850066721878999
 97
        0
 75
     0
 76
     1
 98
        0
  0
HATCH
  5
83
330
1F
100
AcDbEntity
  8
XR$1$TB_700_1
  6
AUSGEZOGEN
 62
     9
440
 33554687
370
    -3
100
AcDbHatch
 10
0.0
 20
0.0
 30
0.0
210
0.0
220
0.0
230
1.0
  2
SOLID
 70
     1
 71
     0
 91
        1
 92
        3
 72
     0
 73
     1
 93
        4
 10
-3.726119424642703
 20
-0.0876733388742999
 10
-4.091452757939503
 20
-0.0876733388742999
 10
-4.091452757939503
 20
-0.1850066721979
 10
-3.726119424642703
 20
-0.1850066721979
 97
        0
 75
     0
 76
     1
 98
        0
  0
HATCH
  5
84
330
1F
100
AcDbEntity
  8
XR$1$TB_700_1
  6
AUSGEZOGEN
 62
     9
440
 33554687
370
    -3
100
AcDbHatch
 10
0.0
 20
0.0
 30
0.0
210
0.0
220
0.0
230
1.0
  2
SOLID
 70
     1
 71
     0
 91
        1
 92
        3
 72
     0
 73
     1
 93
        4
 10
-3.726119424642703
 20
0.0123266611157001
 10
-4.091452757939503
 20
0.0123266611157001
 10
-4.091452757939503
 20
-0.0850066722078999
 10
-3.726119424642703
 20
-0.0850066722078999
 97
        0
 75
     0
 76
     1
 98
        0
  0
HATCH
  5
85
330
1F
100
AcDbEntity
  8
XR$1$TB_700_1
  6
AUSGEZOGEN
 62
     9
440
 33554687
370
    -3
100
AcDbHatch
 10
0.0
 20
0.0
 30
0.0
210
0.0
220
0.0
230
1.0
  2
SOLID
 70
     1
 71
     0
 91
        1
 92
        3
 72
     0
 73
     1
 93
        4
 10
-3.726119424642703
 20
0.1123266611057001
 10
-4.091452757939503
 20
0.1123266611057001
 10
-4.091452757939503
 20
0.0149933277821001
 10
-3.726119424642703
 20
0.0149933277821001
 97
        0
 75
     0
 76
     1
 98
        0
  0
HATCH
  5
86
330
1F
100
AcDbEntity
  8
XR$1$TB_700_1
  6
AUSGEZOGEN
 62
     9
440
 33554687
370
    -3
100
AcDbHatch
 10
0.0
 20
0.0
 30
0.0
210
0.0
220
0.0
230
1.0
  2
SOLID
 70
     1
 71
     0
 91
        1
 92
        3
 72
     0
 73
     1
 93
        4
 10
-3.726119424642705
 20
-0.4876733388343
 10
-4.091452757939504
 20
-0.4876733388343
 10
-4.091452757939503
 20
-0.5470066721617
 10
-3.726119424642704
 20
-0.5470066721617
 97
        0
 75
     0
 76
     1
 98
        0
  0
HATCH
  5
87
330
1F
100
AcDbEntity
  8
XR$1$TB_700_1
  6
AUSGEZOGEN
 62
     9
440
 33554687
370
    -3
100
AcDbHatch
 10
0.0
 20
0.0
 30
0.0
210
0.0
220
0.0
230
1.0
  2
SOLID
 70
     1
 71
     0
 91
        1
 92
        3
 72
     0
 73
     1
 93
        4
 10
-3.726119424642704
 20
0.1863266610983001
 10
-4.091452757939503
 20
0.1863266610983001
 10
-4.091452757939503
 20
0.1149933277721001
 10
-3.726119424642703
 20
0.1149933277721001
 97
        0
 75
     0
 76
     1
 98
        0
  0
HATCH
  5
88
330
1F
100
AcDbEntity
  8
XR$1$TB_700_1
  6
AUSGEZOGEN
 62
     9
440
 33554687
370
    -3
100
AcDbHatch
 10
0.0
 20
0.0
 30
0.0
210
0.0
220
0.0
230
1.0
  2
SOLID
 70
     1
 71
     0
 91
        1
 92
        3
 72
     0
 73
     1
 93
        4
 10
-3.358119424679504
 20
-0.4850066721678999
 10
-3.358119424679502
 20
-0.3876733388443
 10
-3.723452757976303
 20
-0.3876733388443
 10
-3.723452757976304
 20
-0.4850066721678999
 97
        0
 75
     0
 76
     1
 98
        0
  0
HATCH
  5
89
330
1F
100
AcDbEntity
  8
XR$1$TB_700_1
  6
AUSGEZOGEN
 62
     9
440
 33554687
370
    -3
100
AcDbHatch
 10
0.0
 20
0.0
 30
0.0
210
0.0
220
0.0
230
1.0
  2
SOLID
 70
     1
 71
     0
 91
        1
 92
        3
 72
     0
 73
     1
 93
        4
 10
-3.358119424679502
 20
-0.2876733388542999
 10
-3.723452757976303
 20
-0.2876733388542999
 10
-3.723452757976303
 20
-0.3850066721778999
 10
-3.358119424679502
 20
-0.3850066721778999
 97
        0
 75
     0
 76
     1
 98
        0
  0
HATCH
  5
8A
330
1F
100
AcDbEntity
  8
XR$1$TB_700_1
  6
AUSGEZOGEN
 62
     9
440
 33554687
370
    -3
100
AcDbHatch
 10
0.0
 20
0.0
 30
0.0
210
0.0
220
0.0
230
1.0
  2
SOLID
 70
     1
 71
     0
 91
        1
 92
        3
 72
     0
 73
     1
 93
        4
 10
-3.358119424679502
 20
-0.2850066721878999
 10
-3.358119424679502
 20
-0.1876733388643
 10
-3.723452757976303
 20
-0.1876733388643
 10
-3.723452757976303
 20
-0.2850066721878999
 97
        0
 75
     0
 76
     1
 98
        0
  0
HATCH
  5
8B
330
1F
100
AcDbEntity
  8
XR$1$TB_700_1
  6
AUSGEZOGEN
 62
     9
440
 33554687
370
    -3
100
AcDbHatch
 10
0.0
 20
0.0
 30
0.0
210
0.0
220
0.0
230
1.0
  2
SOLID
 70
     1
 71
     0
 91
        1
 92
        3
 72
     0
 73
     1
 93
        4
 10
-3.358119424679502
 20
-0.1850066721979
 10
-3.358119424679502
 20
-0.0876733388742999
 10
-3.723452757976303
 20
-0.0876733388742999
 10
-3.723452757976303
 20
-0.1850066721979
 97
        0
 75
     0
 76
     1
 98
        0
  0
HATCH
  5
8C
330
1F
100
AcDbEntity
  8
XR$1$TB_700_1
  6
AUSGEZOGEN
 62
     9
440
 33554687
370
    -3
100
AcDbHatch
 10
0.0
 20
0.0
 30
0.0
210
0.0
220
0.0
230
1.0
  2
SOLID
 70
     1
 71
     0
 91
        1
 92
        3
 72
     0
 73
     1
 93
        4
 10
-3.358119424679502
 20
-0.0850066722078999
 10
-3.358119424679502
 20
0.0123266611157001
 10
-3.723452757976303
 20
0.0123266611157001
 10
-3.723452757976303
 20
-0.0850066722078999
 97
        0
 75
     0
 76
     1
 98
        0
  0
HATCH
  5
8D
330
1F
100
AcDbEntity
  8
XR$1$TB_700_1
  6
AUSGEZOGEN
 62
     9
440
 33554687
370
    -3
100
AcDbHatch
 10
0.0
 20
0.0
 30
0.0
210
0.0
220
0.0
230
1.0
  2
SOLID
 70
     1
 71
     0
 91
        1
 92
        3
 72
     0
 73
     1
 93
        4
 10
-3.358119424679502
 20
0.0149933277821001
 10
-3.358119424679502
 20
0.1123266611057001
 10
-3.723452757976303
 20
0.1123266611057001
 10
-3.723452757976303
 20
0.0149933277821001
 97
        0
 75
     0
 76
     1
 98
        0
  0
HATCH
  5
8E
330
1F
100
AcDbEntity
  8
XR$1$TB_700_1
  6
AUSGEZOGEN
 62
     9
440
 33554687
370
    -3
100
AcDbHatch
 10
0.0
 20
0.0
 30
0.0
210
0.0
220
0.0
230
1.0
  2
SOLID
 70
     1
 71
     0
 91
        1
 92
        3
 72
     0
 73
     1
 93
        4
 10
-3.358119424679503
 20
-0.5470066721617
 10
-3.358119424679504
 20
-0.4876733388343
 10
-3.723452757976304
 20
-0.4876733388343
 10
-3.723452757976303
 20
-0.5470066721617
 97
        0
 75
     0
 76
     1
 98
        0
  0
HATCH
  5
8F
330
1F
100
AcDbEntity
  8
XR$1$TB_700_1
  6
AUSGEZOGEN
 62
     9
440
 33554687
370
    -3
100
AcDbHatch
 10
0.0
 20
0.0
 30
0.0
210
0.0
220
0.0
230
1.0
  2
SOLID
 70
     1
 71
     0
 91
        1
 92
        3
 72
     0
 73
     1
 93
        4
 10
-3.358119424679502
 20
0.1149933277721001
 10
-3.358119424679503
 20
0.1863266610983001
 10
-3.723452757976303
 20
0.1863266610983001
 10
-3.723452757976303
 20
0.1149933277721001
 97
        0
 75
     0
 76
     1
 98
        0
  0
LINE
  5
90
330
1F
100
AcDbEntity
  8
XR$1$TB_700_1
  6
AUSGEZOGEN
 62
     7
440
 33554687
370
    -3
100
AcDbLine
 10
-3.338119
 20
-0.547007
 30
0.0
 11
-4.111453
 21
-0.547007
 31
0.0
  0
LINE
  5
91
330
1F
100
AcDbEntity
  8
XR$1$TB_700_1
  6
AUSGEZOGEN
 62
     7
440
 33554687
370
    -3
100
AcDbLine
 10
-3.358119
 20
-0.567007
 30
0.0
 11
-3.358119
 21
0.206327
 31
0.0
  0
LINE
  5
92
330
1F
100
AcDbEntity
  8
XR$1$TB_700_1
  6
AUSGEZOGEN
 62
     7
440
 33554687
370
    -3
100
AcDbLine
 10
-4.091453
 20
0.206327
 30
0.0
 11
-4.091453
 21
-0.567007
 31
0.0
  0
LINE
  5
93
330
1F
100
AcDbEntity
  8
XR$1$TB_700_1
  6
AUSGEZOGEN
 62
     7
440
 33554687
370
    -3
100
AcDbLine
 10
-4.111453
 20
0.186327
 30
0.0
 11
-3.338119
 21
0.186327
 31
0.0
  0
LINE
  5
94
330
1F
100
AcDbEntity
  8
XR$1$TB_700_1
  6
AUSGEZOGEN
 62
    35
440
 33554687
370
    70
100
AcDbLine
 10
-4.265432
 20
0.545823
 30
0.0
 11
-4.265432
 21
-0.939177
 31
0.0
  0
LINE
  5
95
330
1F
100
AcDbEntity
  8
XR$1$TB_700_1
  6
AUSGEZOGEN
 62
    35
440
 33554687
370
    70
100
AcDbLine
 10
-3.215432
 20
0.545823
 30
0.0
 11
-4.265432
 21
0.545823
 31
0.0
  0
LINE
  5
96
330
1F
100
AcDbEntity
  8
XR$1$TB_700_1
  6
AUSGEZOGEN
 62
    35
440
 33554687
370
    70
100
AcDbLine
 10
-3.215432
 20
-0.939177
 30
0.0
 11
-3.215432
 21
0.545823
 31
0.0
  0
LINE
  5
97
330
1F
100
AcDbEntity
  8
XR$1$TB_700_1
  6
AUSGEZOGEN
 62
     7
440
 33554687
370
    -3
100
AcDbLine
 10
-3.723453
 20
0.186327
 30
0.0
 11
-3.723453
 21
-0.547007
 31
0.0
  0
LINE
  5
98
330
1F
100
AcDbEntity
  8
XR$1$TB_700_1
  6
AUSGEZOGEN
 62
     7
440
 33554687
370
    -3
100
AcDbLine
 10
-3.726119
 20
0.186327
 30
0.0
 11
-3.726119
 21
-0.547007
 31
0.0
  0
LINE
  5
99
330
1F
100
AcDbEntity
  8
XR$1$TB_700_1
  6
AUSGEZOGEN
 62
    35
440
 33554687
370
    70
100
AcDbLine
 10
-4.265432
 20
-0.939177
 30
0.0
 11
-3.215432
 21
-0.939177
 31
0.0
  0
MTEXT
  5
9A
330
1F
100
AcDbEntity
  8
XR$1$TB_700_1
  6
AUSGEZOGEN
 62
     7
440
 33554687
370
    -3
100
AcDbMText
 10
-4.147624
 20
-0.871799
 30
0.0
 40
0.009
 41
0.89646
 46
0.0
 71
     7
 72
     5
  1
\W0.85;THESE ARE NOT BINDING CONSTRUCTION PROPOSALS WHICH HAVE TO BE VERIFIED FOR EACH INDIVIDUAL PROJECT AS REGARDS APPLICABILITY AND CORRECTNESS.
  7
ARIAL
 73
     1
 44
1.0
  0
MTEXT
  5
9B
330
1F
100
AcDbEntity
  8
XR$1$TB_700_1
  6
AUSGEZOGEN
 62
     7
440
 33554687
370
    -3
100
AcDbMText
 10
-4.147624
 20
-0.853799
 30
0.0
 40
0.009
 41
0.8975
 46
0.0
 71
     7
 72
     5
  1
\W0.91;DIES SIND UNVERBINDLICHE KONSTRUKTIONSVORSCHLÄGE, DIE FÜR JEDES PROJEKT AUF ANWENDBARKEIT UND RICHTIGKEIT GEPRÜFT WERDEN MÜSSEN.
  7
ARIAL
 73
     1
 44
1.0
  0
MTEXT
  5
9C
330
1F
100
AcDbEntity
  8
XR$1$TB_700_1
  6
AUSGEZOGEN
 62
     7
440
 33554687
370
    -3
100
AcDbMText
 10
-4.147624
 20
-0.889799
 30
0.0
 40
0.009
 41
0.895804
 46
0.0
 71
     7
 72
     5
  1
\W0.80;IL S' AGIT DE PROPOSITIONS DE CONSTRUCTION SANS ENGAGEMENT DE NOTRE PART QUI DOIVENT ETRE VERIFIEES POUR CHAQUE PROJET A LEUR EXACTITUDE ET FAISABILITE.
  7
ARIAL
 73
     1
 44
1.0
  0
MTEXT
  5
9D
330
1F
100
AcDbEntity
  8
XR$1$TB_700_1
  6
AUSGEZOGEN
 62
     7
440
 33554687
370
    -3
100
AcDbMText
 10
-4.054309
 20
-0.603738
 30
0.0
 40
0.0175
 41
0.678715
 46
0.0
 71
     7
 72
     5
  1
\W1.00;WEITERE OBJEKTSPEZIFISCHE DETAILS AUF ANFRAGE 
  7
ARIAL
 73
     1
 44
1.0
  0
MTEXT
  5
9E
330
1F
100
AcDbEntity
  8
XR$1$TB_700_1
  6
AUSGEZOGEN
 62
     7
440
 33554687
370
    -3
100
AcDbMText
 10
-4.055086
 20
-0.638914
 30
0.0
 40
0.0175
 41
0.686604
 46
0.0
 71
     7
 72
     5
  1
\W1.00;FURTHER PROJECT-RELATED DETAILS UPON REQUEST 
  7
ARIAL
 73
     1
 44
1.0
  0
MTEXT
  5
9F
330
1F
100
AcDbEntity
  8
XR$1$TB_700_1
  6
AUSGEZOGEN
 62
     7
440
 33554687
370
    -3
100
AcDbMText
 10
-4.055816
 20
-0.671735
 30
0.0
 40
0.0175
 41
0.702061
 46
0.0
 71
     7
 72
     5
  1
\W1.00;D'AUTRES DETAILS RELATIFS AU PROJET SUR DEMANDE 
  7
ARIAL
 73
     1
 44
1.0
  0
MTEXT
  5
A0
330
1F
100
AcDbEntity
  8
XR$1$TB_700_1
  6
AUSGEZOGEN
 62
     7
440
 33554687
370
    -3
100
AcDbMText
 10
-4.149577
 20
-0.715482
 30
0.0
 40
0.0125
 41
0.751283
 46
0.0
 71
     1
 72
     5
  3
\A1;{\fArial|i0|b0;\H0.012500;\W1.000000;\C7;Alle Rechte vorbehalten. Außervertragliche Nutzung nur mit unserer schriftlichen Genehmigung.}\P{\fArial|i0|b0;\H0.012500;\W1.000000;\C7;All rights reserved. Noncontract use is subject to our previous writ
  1
ten consent.}\P{\fArial|i0|b0;\H0.012500;\W1.000000;\C7;Tous droits réservés. Utilisation hors contract seulement avec notre autorisation écrite.}\P
  7
ARIAL
 73
     1
 44
0.903614
  0
MTEXT
  5
A1
330
1F
100
AcDbEntity
  8
XR$1$TB_700_1
  6
AUSGEZOGEN
 62
     7
440
 33554687
370
    -3
100
AcDbMText
 10
-3.732963
 20
-0.81587
 30
0.0
 40
0.009
 41
0.348436
 46
0.0
 71
     7
 72
     5
  1
\W0.92;Tel. 09435 / 391 3238   e-mail: as.fassade@deutsche-steinzeug.de
  7
ARIAL
 73
     1
 44
1.0
  0
MTEXT
  5
A2
330
1F
100
AcDbEntity
  8
XR$1$TB_700_1
  6
AUSGEZOGEN
 62
     7
440
 33554687
370
    -3
100
AcDbMText
 10
-3.997199
 20
0.479879
 30
0.0
 40
0.0175
 41
0.026744
 46
0.0
 71
     7
 72
     5
  1
\W0.99;®
  7
ARIAL
 73
     1
 44
1.0
  0
MTEXT
  5
A3
330
1F
100
AcDbEntity
  8
XR$1$TB_700_1
  6
AUSGEZOGEN
 62
     7
440
 33554687
370
    -3
100
AcDbMText
 10
-4.147266
 20
0.399506
 30
0.0
 40
0.0175
 41
0.657725
 46
0.0
 71
     7
 72
     5
  1
\W1.00;NICHT SICHTBARE BEFESTIGUNG MIT KLAMMERN K20
  7
ARIAL
 73
     1
 44
1.0
  0
MTEXT
  5
A4
330
1F
100
AcDbEntity
  8
XR$1$TB_700_1
  6
AUSGEZOGEN
 62
     7
440
 33554687
370
    -3
100
AcDbMText
 10
-4.147266
 20
0.373256
 30
0.0
 40
0.0175
 41
0.483301
 46
0.0
 71
     7
 72
     5
  1
\W1.00;INVISIBLE FASTENING WITH CLAMP K20
  7
ARIAL
 73
     1
 44
1.0
  0
MTEXT
  5
A5
330
1F
100
AcDbEntity
  8
XR$1$TB_700_1
  6
AUSGEZOGEN
 62
     7
440
 33554687
370
    -3
100
AcDbMText
 10
-4.147266
 20
0.347006
 30
0.0
 40
0.0175
 41
0.529032
 46
0.0
 71
     7
 72
     5
  1
\W0.96;FIXATION NON APPARANTE PAR AGRAFE K20
  7
ARIAL
 73
     1
 44
1.0
  0
MTEXT
  5
A6
330
1F
100
AcDbEntity
  8
XR$1$TB_700_1
  6
AUSGEZOGEN
 62
     7
440
 33554687
370
    -3
100
AcDbMText
 10
-4.144061
 20
0.467195
 30
0.0
 40
0.025
 41
0.413794
 46
0.0
 71
     7
 72
     5
  1
\W1.00;KeraTwin  K20 - Klammer
  7
ARIAL
 73
     1
 44
1.0
  0
MTEXT
  5
A7
330
1F
100
AcDbEntity
  8
XR$1$TB_700_1
  6
AUSGEZOGEN
 62
     7
440
 33554687
370
    -3
100
AcDbMText
 10
-3.733415
 20
-0.799628
 30
0.0
 40
0.009
 41
0.418059
 46
0.0
 71
     7
 72
     5
  1
\W1.00;AGROB BUCHTAL GmbH   Architektenservice   D - 92521 Schwarzenfeld
  7
ARIAL
 73
     1
 44
1.0
  0
LINE
  5
A8
330
1F
100
AcDbEntity
  8
XR$1$TB_700_1
  6
AUSGEZOGEN
 62
     7
440
 33554687
370
    -3
100
AcDbLine
 10
-3.726119
 20
-0.487673
 30
0.0
 11
-4.091453
 21
-0.487673
 31
0.0
  0
LINE
  5
A9
330
1F
100
AcDbEntity
  8
XR$1$TB_700_1
  6
AUSGEZOGEN
 62
     7
440
 33554687
370
    -3
100
AcDbLine
 10
-3.726119
 20
-0.485007
 30
0.0
 11
-4.091453
 21
-0.485007
 31
0.0
  0
LINE
  5
AA
330
1F
100
AcDbEntity
  8
XR$1$TB_700_1
  6
AUSGEZOGEN
 62
     7
440
 33554687
370
    -3
100
AcDbLine
 10
-3.726119
 20
-0.387673
 30
0.0
 11
-4.091453
 21
-0.387673
 31
0.0
  0
LINE
  5
AB
330
1F
100
AcDbEntity
  8
XR$1$TB_700_1
  6
AUSGEZOGEN
 62
     7
440
 33554687
370
    -3
100
AcDbLine
 10
-3.726119
 20
-0.385007
 30
0.0
 11
-4.091453
 21
-0.385007
 31
0.0
  0
LINE
  5
AC
330
1F
100
AcDbEntity
  8
XR$1$TB_700_1
  6
AUSGEZOGEN
 62
     7
440
 33554687
370
    -3
100
AcDbLine
 10
-3.726119
 20
-0.287673
 30
0.0
 11
-4.091453
 21
-0.287673
 31
0.0
  0
LINE
  5
AD
330
1F
100
AcDbEntity
  8
XR$1$TB_700_1
  6
AUSGEZOGEN
 62
     7
440
 33554687
370
    -3
100
AcDbLine
 10
-3.726119
 20
-0.285007
 30
0.0
 11
-4.091453
 21
-0.285007
 31
0.0
  0
LINE
  5
AE
330
1F
100
AcDbEntity
  8
XR$1$TB_700_1
  6
AUSGEZOGEN
 62
     7
440
 33554687
370
    -3
100
AcDbLine
 10
-3.726119
 20
-0.187673
 30
0.0
 11
-4.091453
 21
-0.187673
 31
0.0
  0
LINE
  5
AF
330
1F
100
AcDbEntity
  8
XR$1$TB_700_1
  6
AUSGEZOGEN
 62
     7
440
 33554687
370
    -3
100
AcDbLine
 10
-3.726119
 20
-0.185007
 30
0.0
 11
-4.091453
 21
-0.185007
 31
0.0
  0
LINE
  5
B0
330
1F
100
AcDbEntity
  8
XR$1$TB_700_1
  6
AUSGEZOGEN
 62
     7
440
 33554687
370
    -3
100
AcDbLine
 10
-3.726119
 20
-0.087673
 30
0.0
 11
-4.091453
 21
-0.087673
 31
0.0
  0
LINE
  5
B1
330
1F
100
AcDbEntity
  8
XR$1$TB_700_1
  6
AUSGEZOGEN
 62
     7
440
 33554687
370
    -3
100
AcDbLine
 10
-3.726119
 20
-0.085007
 30
0.0
 11
-4.091453
 21
-0.085007
 31
0.0
  0
LINE
  5
B2
330
1F
100
AcDbEntity
  8
XR$1$TB_700_1
  6
AUSGEZOGEN
 62
     7
440
 33554687
370
    -3
100
AcDbLine
 10
-3.726119
 20
0.012327
 30
0.0
 11
-4.091453
 21
0.012327
 31
0.0
  0
LINE
  5
B3
330
1F
100
AcDbEntity
  8
XR$1$TB_700_1
  6
AUSGEZOGEN
 62
     7
440
 33554687
370
    -3
100
AcDbLine
 10
-3.726119
 20
0.014993
 30
0.0
 11
-4.091453
 21
0.014993
 31
0.0
  0
LINE
  5
B4
330
1F
100
AcDbEntity
  8
XR$1$TB_700_1
  6
AUSGEZOGEN
 62
     7
440
 33554687
370
    -3
100
AcDbLine
 10
-3.726119
 20
0.112327
 30
0.0
 11
-4.091453
 21
0.112327
 31
0.0
  0
LINE
  5
B5
330
1F
100
AcDbEntity
  8
XR$1$TB_700_1
  6
AUSGEZOGEN
 62
     7
440
 33554687
370
    -3
100
AcDbLine
 10
-3.726119
 20
0.114993
 30
0.0
 11
-4.091453
 21
0.114993
 31
0.0
  0
LINE
  5
B6
330
1F
100
AcDbEntity
  8
XR$1$TB_700_1
  6
AUSGEZOGEN
 62
     7
440
 33554687
370
    -3
100
AcDbLine
 10
-3.358119
 20
-0.487673
 30
0.0
 11
-3.723453
 21
-0.487673
 31
0.0
  0
LINE
  5
B7
330
1F
100
AcDbEntity
  8
XR$1$TB_700_1
  6
AUSGEZOGEN
 62
     7
440
 33554687
370
    -3
100
AcDbLine
 10
-3.358119
 20
-0.485007
 30
0.0
 11
-3.723453
 21
-0.485007
 31
0.0
  0
LINE
  5
B8
330
1F
100
AcDbEntity
  8
XR$1$TB_700_1
  6
AUSGEZOGEN
 62
     7
440
 33554687
370
    -3
100
AcDbLine
 10
-3.358119
 20
-0.387673
 30
0.0
 11
-3.723453
 21
-0.387673
 31
0.0
  0
LINE
  5
B9
330
1F
100
AcDbEntity
  8
XR$1$TB_700_1
  6
AUSGEZOGEN
 62
     7
440
 33554687
370
    -3
100
AcDbLine
 10
-3.358119
 20
-0.385007
 30
0.0
 11
-3.723453
 21
-0.385007
 31
0.0
  0
LINE
  5
BA
330
1F
100
AcDbEntity
  8
XR$1$TB_700_1
  6
AUSGEZOGEN
 62
     7
440
 33554687
370
    -3
100
AcDbLine
 10
-3.358119
 20
-0.287673
 30
0.0
 11
-3.723453
 21
-0.287673
 31
0.0
  0
LINE
  5
BB
330
1F
100
AcDbEntity
  8
XR$1$TB_700_1
  6
AUSGEZOGEN
 62
     7
440
 33554687
370
    -3
100
AcDbLine
 10
-3.358119
 20
-0.285007
 30
0.0
 11
-3.723453
 21
-0.285007
 31
0.0
  0
LINE
  5
BC
330
1F
100
AcDbEntity
  8
XR$1$TB_700_1
  6
AUSGEZOGEN
 62
     7
440
 33554687
370
    -3
100
AcDbLine
 10
-3.358119
 20
-0.187673
 30
0.0
 11
-3.723453
 21
-0.187673
 31
0.0
  0
LINE
  5
BD
330
1F
100
AcDbEntity
  8
XR$1$TB_700_1
  6
AUSGEZOGEN
 62
     7
440
 33554687
370
    -3
100
AcDbLine
 10
-3.358119
 20
-0.185007
 30
0.0
 11
-3.723453
 21
-0.185007
 31
0.0
  0
LINE
  5
BE
330
1F
100
AcDbEntity
  8
XR$1$TB_700_1
  6
AUSGEZOGEN
 62
     7
440
 33554687
370
    -3
100
AcDbLine
 10
-3.358119
 20
-0.087673
 30
0.0
 11
-3.723453
 21
-0.087673
 31
0.0
  0
LINE
  5
BF
330
1F
100
AcDbEntity
  8
XR$1$TB_700_1
  6
AUSGEZOGEN
 62
     7
440
 33554687
370
    -3
100
AcDbLine
 10
-3.358119
 20
-0.085007
 30
0.0
 11
-3.723453
 21
-0.085007
 31
0.0
  0
LINE
  5
C0
330
1F
100
AcDbEntity
  8
XR$1$TB_700_1
  6
AUSGEZOGEN
 62
     7
440
 33554687
370
    -3
100
AcDbLine
 10
-3.358119
 20
0.012327
 30
0.0
 11
-3.723453
 21
0.012327
 31
0.0
  0
LINE
  5
C1
330
1F
100
AcDbEntity
  8
XR$1$TB_700_1
  6
AUSGEZOGEN
 62
     7
440
 33554687
370
    -3
100
AcDbLine
 10
-3.358119
 20
0.014993
 30
0.0
 11
-3.723453
 21
0.014993
 31
0.0
  0
LINE
  5
C2
330
1F
100
AcDbEntity
  8
XR$1$TB_700_1
  6
AUSGEZOGEN
 62
     7
440
 33554687
370
    -3
100
AcDbLine
 10
-3.358119
 20
0.112327
 30
0.0
 11
-3.723453
 21
0.112327
 31
0.0
  0
LINE
  5
C3
330
1F
100
AcDbEntity
  8
XR$1$TB_700_1
  6
AUSGEZOGEN
 62
     7
440
 33554687
370
    -3
100
AcDbLine
 10
-3.358119
 20
0.114993
 30
0.0
 11
-3.723453
 21
0.114993
 31
0.0
  0
MTEXT
  5
C4
330
1F
100
AcDbEntity
  8
XR$1$TB_700_1
  6
AUSGEZOGEN
 62
     7
440
 33554687
370
    -3
100
AcDbMText
 10
-3.368456
 20
-0.835515
 30
0.0
 40
0.009
 41
0.096773
 46
0.0
 71
     7
 72
     5
  1
\W0.91;STAND: Mai 2020
  7
ARIAL
 73
     1
 44
1.0
  0
VIEWPORT
  5
72
330
6E
100
AcDbEntity
 67
     1
  8
0
100
AcDbViewport
 10
0.105
 20
0.1485
 30
0.0
 40
0.2102
 41
0.2972
 68
     1
 69
     1
 12
0.105
 22
0.1485
 13
0.0
 23
0.0
 14
0.5
 24
0.5
 15
0.5
 25
0.5
 16
0.0
 26
0.0
 36
1.0
 17
0.0
 27
0.0
 37
0.0
 42
50.0
 43
0.0
 44
0.0
 45
0.2972
 50
0.0
 51
0.0
 72
   100
 90
   557152
  1

281
     0
 71
     1
 74
     0
110
0.0
120
0.0
130
0.0
111
1.0
121
0.0
131
0.0
112
0.0
122
1.0
132
0.0
 79
     0
146
0.0
170
     0
 61
     5
348
2F
292
     1
282
     1
141
0.0
142
0.0
 63
   256
361
73
  0
VIEWPORT
  5
C7
330
6E
100
AcDbEntity
 67
     1
  8
PLAN_700
  6
AUSGEZOGEN
 62
     7
370
    35
100
AcDbViewport
 10
0.105
 20
0.1485
 30
0.0
 40
0.2102
 41
0.2972
 68
     2
 69
     2
 12
0.0
 22
0.0
 13
0.0
 23
0.0
 14
1.0
 24
1.0
 15
0.0
 25
0.0
 16
0.0
 26
0.0
 36
1.0
 17
-3.740432
 27
-0.196677
 37
0.0
 42
50.0
 43
0.0
 44
0.0
 45
1.486
 50
0.0
 51
0.0
 72
   100
331
10
331
76
331
78
 90
   557280
  1

281
     0
 71
     1
 74
     0
110
0.0
120
0.0
130
0.0
111
1.0
121
0.0
131
0.0
112
0.0
122
1.0
132
0.0
 79
     0
146
0.0
170
     0
 61
     5
348
2F
292
     1
282
     1
141
0.0
142
0.0
 63
   256
361
C8
  0
ENDSEC
  0
SECTION
  2
OBJECTS
  0
DICTIONARY
  5
C
330
0
100
AcDbDictionary
281
     1
  3
ACAD_DETAILVIEWSTYLE
350
100
  3
ACAD_GROUP
350
D
  3
ACAD_LAYOUT
350
1A
  3
ACAD_MATERIAL
350
43
  3
ACAD_MLEADERSTYLE
350
6B
  3
ACAD_MLINESTYLE
350
17
  3
ACAD_PLOTSETTINGS
350
19
  3
ACAD_PLOTSTYLENAME
350
E
  3
ACAD_SCALELIST
350
47
  3
ACAD_SECTIONVIEWSTYLE
350
101
  3
ACAD_TABLESTYLE
350
69
  3
ACAD_VISUALSTYLE
350
2A
  3
ACDB_RECOMPOSE_DATA
350
FD
  3
AcDbVariableDictionary
350
C9
  0
SUN
  5
6D
330
29
100
AcDbSun
 90
        1
290
     0
 63
     7
421
 16777215
 40
1.0
291
     1
 91
  2455826
 92
 54000000
292
     0
 70
     2
 71
   256
280
     1
  0
DICTIONARY
  5
C5
330
1F
100
AcDbDictionary
280
     1
281
     1
  3
ACAD_SORTENTS
360
C6
  0
SUN
  5
73
330
72
100
AcDbSun
 90
        1
290
     0
 63
     7
421
 16777215
 40
1.0
291
     1
 91
  2455826
 92
 54000000
292
     0
 70
     2
 71
   256
280
     1
  0
SUN
  5
C8
330
C7
100
AcDbSun
 90
        1
290
     0
 63
     7
421
 16777215
 40
1.0
291
     1
 91
  2455826
 92
 54000000
292
     0
 70
     2
 71
   256
280
     1
  0
DICTIONARY
  5
100
102
{ACAD_REACTORS
330
C
102
}
330
C
100
AcDbDictionary
281
     1
  0
DICTIONARY
  5
D
102
{ACAD_REACTORS
330
C
102
}
330
C
100
AcDbDictionary
281
     1
  3
VERBUNDBLOCK_0
350
7D
  0
DICTIONARY
  5
1A
102
{ACAD_REACTORS
330
C
102
}
330
C
100
AcDbDictionary
281
     1
  3
K20 Klammersystem 1
350
6F
  3
Model
350
22
  0
DICTIONARY
  5
43
102
{ACAD_REACTORS
330
C
102
}
330
C
100
AcDbDictionary
281
     1
  3
ByBlock
350
45
  3
ByLayer
350
44
  3
Global
350
46
  0
DICTIONARY
  5
6B
102
{ACAD_REACTORS
330
C
102
}
330
C
100
AcDbDictionary
281
     1
  3
Standard
350
6C
  0
DICTIONARY
  5
17
102
{ACAD_REACTORS
330
C
102
}
330
C
100
AcDbDictionary
281
     1
  3
Standard
350
18
  0
DICTIONARY
  5
19
102
{ACAD_REACTORS
330
C
102
}
330
C
100
AcDbDictionary
281
     1
  0
ACDBDICTIONARYWDFLT
  5
E
102
{ACAD_REACTORS
330
C
102
}
330
C
100
AcDbDictionary
281
     1
  3
Normal
350
F
100
AcDbDictionaryWithDefault
340
F
  0
DICTIONARY
  5
47
102
{ACAD_REACTORS
330
C
102
}
330
C
100
AcDbDictionary
281
     1
  3
A0
350
48
  3
A1
350
49
  3
A2
350
4A
  3
A3
350
4B
  3
A4
350
4C
  3
A5
350
4D
  3
A6
350
4E
  3
A7
350
4F
  3
A8
350
50
  3
A9
350
51
  3
B0
350
52
  3
B1
350
53
  3
B2
350
54
  3
B3
350
55
  3
B4
350
56
  3
B5
350
57
  3
B6
350
58
  3
B7
350
59
  3
B8
350
5A
  3
B9
350
5B
  3
C0
350
5C
  3
C1
350
5D
  3
C2
350
5E
  3
C3
350
5F
  3
C4
350
60
  3
C5
350
61
  3
C6
350
62
  3
C7
350
63
  3
C8
350
64
  3
C9
350
65
  3
D0
350
66
  3
D1
350
67
  3
D2
350
68
  0
DICTIONARY
  5
101
102
{ACAD_REACTORS
330
C
102
}
330
C
100
AcDbDictionary
281
     1
  0
DICTIONARY
  5
69
102
{ACAD_REACTORS
330
C
102
}
330
C
100
AcDbDictionary
281
     1
  3
Standard
350
6A
  0
DICTIONARY
  5
2A
102
{ACAD_REACTORS
330
C
102
}
330
C
100
AcDbDictionary
281
     1
  3
2dWireframe
350
2F
  3
Basic
350
32
  3
Brighten
350
36
  3
ColorChange
350
3A
  3
Conceptual
350
34
  3
Dim
350
35
  3
EdgeColorOff
350
3D
  3
Facepattern
350
39
  3
Flat
350
2B
  3
FlatWithEdges
350
2C
  3
Gouraud
350
2D
  3
GouraudWithEdges
350
2E
  3
Hidden
350
31
  3
JitterOff
350
3B
  3
Linepattern
350
38
  3
OverhangOff
350
3C
  3
Realistic
350
33
  3
Shaded
350
42
  3
Shaded with edges
350
41
  3
Shades of Gray
350
3E
  3
Sketchy
350
3F
  3
Thicken
350
37
  3
Wireframe
350
30
  3
X-Ray
350
40
  0
XRECORD
  5
FD
102
{ACAD_REACTORS
330
C
102
}
330
C
100
AcDbXrecord
280
     1
 90
        1
330
6A
  0
DICTIONARY
  5
C9
102
{ACAD_REACTORS
330
C
102
}
330
C
100
AcDbDictionary
281
     1
  3
CANNOSCALE
350
CA
  3
CMLEADERSTYLE
350
FF
  3
CTABLESTYLE
350
FE
  0
SORTENTSTABLE
  5
C6
102
{ACAD_REACTORS
330
C5
102
}
330
C5
100
AcDbSortentsTable
330
1F
  0
GROUP
  5
7D
102
{ACAD_REACTORS
330
D
102
}
330
D
100
AcDbGroup
300

 70
     0
 71
     1
340
7E
340
7F
  0
LAYOUT
  5
6F
102
{ACAD_REACTORS
330
1A
102
}
330
1A
100
AcDbPlotSettings
  1

  2
none_device
  4
none_user_media
  6

 40
0.0
 41
0.0
 42
0.0
 43
0.0
 44
297.0
 45
209.9
 46
0.0
 47
0.0
 48
0.0
 49
0.0
140
0.0
141
0.0
142
1000.0
143
1.0
 70
   688
 72
     1
 73
     1
 74
     5
  7

 75
    33
 76
     0
 77
     2
 78
   300
147
1000.0
148
0.0
149
0.0
100
AcDbLayout
  1
K20 Klammersystem 1
 70
     0
 71
     1
 10
-0.0001
 20
-0.0001
 11
0.2101
 21
0.2971
 12
0.0
 22
0.0
 32
0.0
 14
-0.0001
 24
-0.0001
 34
0.0
 15
0.2101
 25
0.2971
 35
0.0
146
0.0
 13
0.0
 23
0.0
 33
0.0
 16
1.0
 26
0.0
 36
0.0
 17
0.0
 27
1.0
 37
0.0
 76
     0
330
6E
331
72
  0
LAYOUT
  5
22
102
{ACAD_REACTORS
330
1A
102
}
330
1A
100
AcDbPlotSettings
  1

  2
none_device
  4
Letter_(8.50_x_11.00_Inches)
  6

 40
6.35
 41
6.35
 42
6.350005
 43
6.350005
 44
215.9
 45
279.4
 46
0.0
 47
0.0
 48
0.0
 49
0.0
140
0.0
141
0.0
142
1.0
143
1.0
 70
  1712
 72
     0
 73
     0
 74
     0
  7

 75
     0
 76
     0
 77
     2
 78
   300
147
1.0
148
0.0
149
0.0
100
AcDbLayout
  1
Model
 70
     1
 71
     0
 10
-4.265432
 20
-0.939177
 11
-3.215432
 21
0.545823
 12
0.0
 22
0.0
 32
0.0
 14
-4.265432
 24
-0.939177
 34
-4.265432
 15
-3.215432
 25
0.545823
 35
-3.215432
146
0.0
 13
0.0
 23
0.0
 33
0.0
 16
1.0
 26
0.0
 36
0.0
 17
0.0
 27
1.0
 37
0.0
 76
     0
330
1F
331
29
  0
MATERIAL
  5
45
102
{ACAD_REACTORS
330
43
102
}
330
43
100
AcDbMaterial
  1
ByBlock
 72
     1
 94
      127
  0
MATERIAL
  5
44
102
{ACAD_REACTORS
330
43
102
}
330
43
100
AcDbMaterial
  1
ByLayer
 72
     1
 94
      127
  0
MATERIAL
  5
46
102
{ACAD_REACTORS
330
43
102
}
330
43
100
AcDbMaterial
  1
Global
 72
     1
 94
      127
  0
MLEADERSTYLE
  5
6C
102
{ACAD_REACTORS
330
6B
102
}
330
6B
100
AcDbMLeaderStyle
179
     2
170
     2
171
     1
172
     0
 90
        2
 40
0.0
 41
0.0
173
     1
 91
-1056964608
340
14
 92
       -2
290
     1
 42
0.09
291
     1
 43
0.36
  3
Standard
341
0
 44
0.18
300

342
11
174
     1
178
     6
175
     1
176
     0
 93
-1056964608
 45
0.18
292
     0
297
     0
 46
0.18
343
0
 94
-1056964608
 47
1.0
 49
1.0
140
1.0
293
     1
141
0.0
294
     1
177
     0
142
1.0
295
     0
296
     0
143
0.125
271
     0
272
     9
273
     9
  0
MLINESTYLE
  5
18
102
{ACAD_REACTORS
330
17
102
}
330
17
100
AcDbMlineStyle
  2
Standard
 70
     0
  3

 62
   256
 51
90.0
 52
90.0
 71
     2
 49
0.5
 62
   256
  6
BYLAYER
 49
-0.5
 62
   256
  6
BYLAYER
  0
ACDBPLACEHOLDER
  5
F
102
{ACAD_REACTORS
330
E
102
}
330
E
  0
SCALE
  5
48
102
{ACAD_REACTORS
330
47
102
}
330
47
100
AcDbScale
 70
     0
300
1:1
140
1.0
141
1.0
290
     1
  0
SCALE
  5
49
102
{ACAD_REACTORS
330
47
102
}
330
47
100
AcDbScale
 70
     0
300
1:2
140
1.0
141
2.0
290
     0
  0
SCALE
  5
4A
102
{ACAD_REACTORS
330
47
102
}
330
47
100
AcDbScale
 70
     0
300
1:4
140
1.0
141
4.0
290
     0
  0
SCALE
  5
4B
102
{ACAD_REACTORS
330
47
102
}
330
47
100
AcDbScale
 70
     0
300
1:5
140
1.0
141
5.0
290
     0
  0
SCALE
  5
4C
102
{ACAD_REACTORS
330
47
102
}
330
47
100
AcDbScale
 70
     0
300
1:8
140
1.0
141
8.0
290
     0
  0
SCALE
  5
4D
102
{ACAD_REACTORS
330
47
102
}
330
47
100
AcDbScale
 70
     0
300
1:10
140
1.0
141
10.0
290
     0
  0
SCALE
  5
4E
102
{ACAD_REACTORS
330
47
102
}
330
47
100
AcDbScale
 70
     0
300
1:16
140
1.0
141
16.0
290
     0
  0
SCALE
  5
4F
102
{ACAD_REACTORS
330
47
102
}
330
47
100
AcDbScale
 70
     0
300
1:20
140
1.0
141
20.0
290
     0
  0
SCALE
  5
50
102
{ACAD_REACTORS
330
47
102
}
330
47
100
AcDbScale
 70
     0
300
1:30
140
1.0
141
30.0
290
     0
  0
SCALE
  5
51
102
{ACAD_REACTORS
330
47
102
}
330
47
100
AcDbScale
 70
     0
300
1:40
140
1.0
141
40.0
290
     0
  0
SCALE
  5
52
102
{ACAD_REACTORS
330
47
102
}
330
47
100
AcDbScale
 70
     0
300
1:50
140
1.0
141
50.0
290
     0
  0
SCALE
  5
53
102
{ACAD_REACTORS
330
47
102
}
330
47
100
AcDbScale
 70
     0
300
1:100
140
1.0
141
100.0
290
     0
  0
SCALE
  5
54
102
{ACAD_REACTORS
330
47
102
}
330
47
100
AcDbScale
 70
     0
300
2:1
140
2.0
141
1.0
290
     0
  0
SCALE
  5
55
102
{ACAD_REACTORS
330
47
102
}
330
47
100
AcDbScale
 70
     0
300
4:1
140
4.0
141
1.0
290
     0
  0
SCALE
  5
56
102
{ACAD_REACTORS
330
47
102
}
330
47
100
AcDbScale
 70
     0
300
8:1
140
8.0
141
1.0
290
     0
  0
SCALE
  5
57
102
{ACAD_REACTORS
330
47
102
}
330
47
100
AcDbScale
 70
     0
300
10:1
140
10.0
141
1.0
290
     0
  0
SCALE
  5
58
102
{ACAD_REACTORS
330
47
102
}
330
47
100
AcDbScale
 70
     0
300
100:1
140
100.0
141
1.0
290
     0
  0
SCALE
  5
59
102
{ACAD_REACTORS
330
47
102
}
330
47
100
AcDbScale
 70
     0
300
1/128" = 1'-0"
140
0.007812
141
12.0
290
     0
  0
SCALE
  5
5A
102
{ACAD_REACTORS
330
47
102
}
330
47
100
AcDbScale
 70
     0
300
1/64" = 1'-0"
140
0.015625
141
12.0
290
     0
  0
SCALE
  5
5B
102
{ACAD_REACTORS
330
47
102
}
330
47
100
AcDbScale
 70
     0
300
1/32" = 1'-0"
140
0.03125
141
12.0
290
     0
  0
SCALE
  5
5C
102
{ACAD_REACTORS
330
47
102
}
330
47
100
AcDbScale
 70
     0
300
1/16" = 1'-0"
140
0.0625
141
12.0
290
     0
  0
SCALE
  5
5D
102
{ACAD_REACTORS
330
47
102
}
330
47
100
AcDbScale
 70
     0
300
3/32" = 1'-0"
140
0.09375
141
12.0
290
     0
  0
SCALE
  5
5E
102
{ACAD_REACTORS
330
47
102
}
330
47
100
AcDbScale
 70
     0
300
1/8" = 1'-0"
140
0.125
141
12.0
290
     0
  0
SCALE
  5
5F
102
{ACAD_REACTORS
330
47
102
}
330
47
100
AcDbScale
 70
     0
300
3/16" = 1'-0"
140
0.1875
141
12.0
290
     0
  0
SCALE
  5
60
102
{ACAD_REACTORS
330
47
102
}
330
47
100
AcDbScale
 70
     0
300
1/4" = 1'-0"
140
0.25
141
12.0
290
     0
  0
SCALE
  5
61
102
{ACAD_REACTORS
330
47
102
}
330
47
100
AcDbScale
 70
     0
300
3/8" = 1'-0"
140
0.375
141
12.0
290
     0
  0
SCALE
  5
62
102
{ACAD_REACTORS
330
47
102
}
330
47
100
AcDbScale
 70
     0
300
1/2" = 1'-0"
140
0.5
141
12.0
290
     0
  0
SCALE
  5
63
102
{ACAD_REACTORS
330
47
102
}
330
47
100
AcDbScale
 70
     0
300
3/4" = 1'-0"
140
0.75
141
12.0
290
     0
  0
SCALE
  5
64
102
{ACAD_REACTORS
330
47
102
}
330
47
100
AcDbScale
 70
     0
300
1" = 1'-0"
140
1.0
141
12.0
290
     0
  0
SCALE
  5
65
102
{ACAD_REACTORS
330
47
102
}
330
47
100
AcDbScale
 70
     0
300
1-1/2" = 1'-0"
140
1.5
141
12.0
290
     0
  0
SCALE
  5
66
102
{ACAD_REACTORS
330
47
102
}
330
47
100
AcDbScale
 70
     0
300
3" = 1'-0"
140
3.0
141
12.0
290
     0
  0
SCALE
  5
67
102
{ACAD_REACTORS
330
47
102
}
330
47
100
AcDbScale
 70
     0
300
6" = 1'-0"
140
6.0
141
12.0
290
     0
  0
SCALE
  5
68
102
{ACAD_REACTORS
330
47
102
}
330
47
100
AcDbScale
 70
     0
300
1'-0" = 1'-0"
140
12.0
141
12.0
290
     0
  0
TABLESTYLE
  5
6A
102
{ACAD_REACTORS
330
69
102
}
102
{ACAD_XDICTIONARY
360
FB
102
}
330
69
100
AcDbTableStyle
  3
Standard
 70
     0
 71
     0
 40
0.06
 41
0.06
280
     0
281
     0
  7
Standard
140
0.18
170
     2
 62
     0
 63
   257
283
     0
 90
        4
 91
        0
  1

274
    -2
284
     1
 64
     0
275
    -2
285
     1
 65
     0
276
    -2
286
     1
 66
     0
277
    -2
287
     1
 67
     0
278
    -2
288
     1
 68
     0
279
    -2
289
     1
 69
     0
  7
Standard
140
0.25
170
     5
 62
     0
 63
   257
283
     0
 90
        4
 91
        0
  1

274
    -2
284
     1
 64
     0
275
    -2
285
     1
 65
     0
276
    -2
286
     1
 66
     0
277
    -2
287
     1
 67
     0
278
    -2
288
     1
 68
     0
279
    -2
289
     1
 69
     0
  7
Standard
140
0.18
170
     5
 62
     0
 63
   257
283
     0
 90
        4
 91
        0
  1

274
    -2
284
     1
 64
     0
275
    -2
285
     1
 65
     0
276
    -2
286
     1
 66
     0
277
    -2
287
     1
 67
     0
278
    -2
288
     1
 68
     0
279
    -2
289
     1
 69
     0
  0
VISUALSTYLE
  5
2F
102
{ACAD_REACTORS
330
2A
102
}
102
{ACAD_XDICTIONARY
360
D3
102
}
330
2A
100
AcDbVisualStyle
  2
2dWireframe
 70
     4
177
     2
291
     0
 71
     0
176
     1
 72
     2
176
     1
 73
     0
176
     1
 90
        0
176
     1
 40
0.6
176
     1
 41
30.0
176
     1
 62
     5
 63
     7
421
 16777215
176
     1
 74
     1
176
     1
 91
        4
176
     1
 64
     7
176
     1
 65
   257
176
     1
 75
     1
176
     1
175
     1
176
     1
 42
1.0
176
     1
 92
        0
176
     1
 66
   257
176
     1
 43
1.0
176
     1
 76
     1
176
     1
 77
     6
176
     1
 78
     2
176
     1
 67
     7
176
     1
 79
     5
176
     1
170
     0
176
     1
171
     0
176
     1
290
     0
176
     1
 93
        1
176
     1
 44
0.0
176
     1
173
     0
176
     1
  0
VISUALSTYLE
  5
32
102
{ACAD_REACTORS
330
2A
102
}
102
{ACAD_XDICTIONARY
360
D9
102
}
330
2A
100
AcDbVisualStyle
  2
Basic
 70
     7
177
     2
291
     1
 71
     1
176
     1
 72
     0
176
     1
 73
     1
176
     1
 90
        0
176
     1
 40
0.6
176
     1
 41
30.0
176
     1
 62
     5
 63
     7
421
 16777215
176
     1
 74
     0
176
     1
 91
        4
176
     1
 64
     7
176
     1
 65
   257
176
     1
 75
     1
176
     1
175
     1
176
     1
 42
1.0
176
     1
 92
        8
176
     1
 66
     7
176
     1
 43
1.0
176
     1
 76
     1
176
     1
 77
     6
176
     1
 78
     2
176
     1
 67
     7
176
     1
 79
     5
176
     1
170
     0
176
     1
171
     0
176
     1
290
     0
176
     1
 93
        1
176
     1
 44
0.0
176
     1
173
     0
176
     1
  0
VISUALSTYLE
  5
36
102
{ACAD_REACTORS
330
2A
102
}
102
{ACAD_XDICTIONARY
360
E1
102
}
330
2A
100
AcDbVisualStyle
  2
Brighten
 70
    12
177
     2
291
     1
 71
     2
176
     1
 72
     2
176
     1
 73
     0
176
     1
 90
        0
176
     1
 40
0.6
176
     1
 41
30.0
176
     1
 62
     5
 63
     7
421
 16777215
176
     1
 74
     1
176
     1
 91
        4
176
     1
 64
     7
176
     1
 65
   257
176
     1
 75
     1
176
     1
175
     1
176
     1
 42
1.0
176
     1
 92
        8
176
     1
 66
     7
176
     1
 43
1.0
176
     1
 76
     1
176
     1
 77
     6
176
     1
 78
     2
176
     1
 67
     7
176
     1
 79
     5
176
     1
170
     0
176
     1
171
     0
176
     1
290
     0
176
     1
 93
        1
176
     1
 44
50.0
176
     1
173
     0
176
     1
  0
VISUALSTYLE
  5
3A
102
{ACAD_REACTORS
330
2A
102
}
102
{ACAD_XDICTIONARY
360
E9
102
}
330
2A
100
AcDbVisualStyle
  2
ColorChange
 70
    16
177
     2
291
     1
 71
     2
176
     1
 72
     2
176
     1
 73
     3
176
     1
 90
        0
176
     1
 40
0.6
176
     1
 41
30.0
176
     1
 62
     5
 63
     8
421
  8421504
176
     1
 74
     1
176
     1
 91
        4
176
     1
 64
     7
176
     1
 65
   257
176
     1
 75
     1
176
     1
175
     1
176
     1
 42
1.0
176
     1
 92
        8
176
     1
 66
     8
424
  8421504
176
     1
 43
1.0
176
     1
 76
     1
176
     1
 77
     6
176
     1
 78
     2
176
     1
 67
     7
176
     1
 79
     5
176
     1
170
     0
176
     1
171
     0
176
     1
290
     0
176
     1
 93
        1
176
     1
 44
0.0
176
     1
173
     0
176
     1
  0
VISUALSTYLE
  5
34
102
{ACAD_REACTORS
330
2A
102
}
102
{ACAD_XDICTIONARY
360
DD
102
}
330
2A
100
AcDbVisualStyle
  2
Conceptual
 70
     9
177
     2
291
     0
 71
     3
176
     1
 72
     2
176
     1
 73
     0
176
     1
 90
        0
176
     1
 40
0.6
176
     1
 41
30.0
176
     1
 62
     5
 63
     7
421
 16777215
176
     1
 74
     2
176
     1
 91
        2
176
     1
 64
     7
176
     1
 65
   257
176
     1
 75
     1
176
     1
175
     1
176
     1
 42
179.0
176
     1
 92
        8
176
     1
 66
     7
176
     1
 43
1.0
176
     1
 76
     1
176
     1
 77
     6
176
     1
 78
     2
176
     1
 67
     7
176
     1
 79
     3
176
     1
170
     0
176
     1
171
     0
176
     1
290
     0
176
     1
 93
        1
176
     1
 44
0.0
176
     1
173
     0
176
     1
  0
VISUALSTYLE
  5
35
102
{ACAD_REACTORS
330
2A
102
}
102
{ACAD_XDICTIONARY
360
DF
102
}
330
2A
100
AcDbVisualStyle
  2
Dim
 70
    11
177
     2
291
     1
 71
     2
176
     1
 72
     2
176
     1
 73
     0
176
     1
 90
        0
176
     1
 40
0.6
176
     1
 41
30.0
176
     1
 62
     5
 63
     7
421
 16777215
176
     1
 74
     1
176
     1
 91
        4
176
     1
 64
     7
176
     1
 65
   257
176
     1
 75
     1
176
     1
175
     1
176
     1
 42
1.0
176
     1
 92
        8
176
     1
 66
     7
176
     1
 43
1.0
176
     1
 76
     1
176
     1
 77
     6
176
     1
 78
     2
176
     1
 67
     7
176
     1
 79
     5
176
     1
170
     0
176
     1
171
     0
176
     1
290
     0
176
     1
 93
        1
176
     1
 44
-50.0
176
     1
173
     0
176
     1
  0
VISUALSTYLE
  5
3D
102
{ACAD_REACTORS
330
2A
102
}
102
{ACAD_XDICTIONARY
360
EF
102
}
330
2A
100
AcDbVisualStyle
  2
EdgeColorOff
 70
    22
177
     2
291
     1
 71
     2
176
     0
 72
     2
176
     0
 73
     0
176
     0
 90
        0
176
     0
 40
0.6
176
     0
 41
30.0
176
     0
 62
     5
 63
     7
421
 16777215
176
     0
 74
     1
176
     0
 91
        4
176
     0
 64
     7
176
     0
 65
   257
176
     0
 75
     1
176
     0
175
     1
176
     0
 42
1.0
176
     0
 92
        8
176
     2
 66
     7
176
     0
 43
1.0
176
     0
 76
     1
176
     0
 77
     6
176
     0
 78
     2
176
     0
 67
     7
176
     0
 79
     5
176
     0
170
     0
176
     0
171
     0
176
     0
290
     0
176
     0
 93
        1
176
     0
 44
0.0
176
     0
173
     0
176
     0
  0
VISUALSTYLE
  5
39
102
{ACAD_REACTORS
330
2A
102
}
102
{ACAD_XDICTIONARY
360
E7
102
}
330
2A
100
AcDbVisualStyle
  2
Facepattern
 70
    15
177
     2
291
     1
 71
     2
176
     1
 72
     2
176
     1
 73
     0
176
     1
 90
        0
176
     1
 40
0.6
176
     1
 41
30.0
176
     1
 62
     5
 63
     7
421
 16777215
176
     1
 74
     1
176
     1
 91
        4
176
     1
 64
     7
176
     1
 65
   257
176
     1
 75
     1
176
     1
175
     1
176
     1
 42
1.0
176
     1
 92
        8
176
     1
 66
     7
176
     1
 43
1.0
176
     1
 76
     1
176
     1
 77
     6
176
     1
 78
     2
176
     1
 67
     7
176
     1
 79
     5
176
     1
170
     0
176
     1
171
     0
176
     1
290
     0
176
     1
 93
        1
176
     1
 44
0.0
176
     1
173
     0
176
     1
  0
VISUALSTYLE
  5
2B
102
{ACAD_REACTORS
330
2A
102
}
102
{ACAD_XDICTIONARY
360
CB
102
}
330
2A
100
AcDbVisualStyle
  2
Flat
 70
     0
177
     2
291
     1
 71
     2
176
     1
 72
     1
176
     1
 73
     1
176
     1
 90
        2
176
     1
 40
0.6
176
     1
 41
30.0
176
     1
 62
     5
 63
     7
421
 16777215
176
     1
 74
     0
176
     1
 91
        0
176
     1
 64
     7
176
     1
 65
   257
176
     1
 75
     1
176
     1
175
     1
176
     1
 42
1.0
176
     1
 92
        8
176
     1
 66
     7
176
     1
 43
1.0
176
     1
 76
     1
176
     1
 77
     6
176
     1
 78
     2
176
     1
 67
     7
176
     1
 79
     5
176
     1
170
     0
176
     1
171
     0
176
     1
290
     0
176
     1
 93
       13
176
     1
 44
0.0
176
     1
173
     0
176
     1
  0
VISUALSTYLE
  5
2C
102
{ACAD_REACTORS
330
2A
102
}
102
{ACAD_XDICTIONARY
360
CD
102
}
330
2A
100
AcDbVisualStyle
  2
FlatWithEdges
 70
     1
177
     2
291
     1
 71
     2
176
     1
 72
     1
176
     1
 73
     1
176
     1
 90
        2
176
     1
 40
0.6
176
     1
 41
30.0
176
     1
 62
     5
 63
     7
421
 16777215
176
     1
 74
     1
176
     1
 91
        0
176
     1
 64
     7
176
     1
 65
   257
176
     1
 75
     1
176
     1
175
     1
176
     1
 42
1.0
176
     1
 92
        0
176
     1
 66
   257
176
     1
 43
1.0
176
     1
 76
     1
176
     1
 77
     6
176
     1
 78
     2
176
     1
 67
     7
176
     1
 79
     5
176
     1
170
     0
176
     1
171
     0
176
     1
290
     0
176
     1
 93
       13
176
     1
 44
0.0
176
     1
173
     0
176
     1
  0
VISUALSTYLE
  5
2D
102
{ACAD_REACTORS
330
2A
102
}
102
{ACAD_XDICTIONARY
360
CF
102
}
330
2A
100
AcDbVisualStyle
  2
Gouraud
 70
     2
177
     2
291
     1
 71
     2
176
     1
 72
     2
176
     1
 73
     1
176
     1
 90
        2
176
     1
 40
0.6
176
     1
 41
30.0
176
     1
 62
     5
 63
     7
421
 16777215
176
     1
 74
     0
176
     1
 91
        0
176
     1
 64
     7
176
     1
 65
   257
176
     1
 75
     1
176
     1
175
     1
176
     1
 42
1.0
176
     1
 92
        0
176
     1
 66
     7
176
     1
 43
1.0
176
     1
 76
     1
176
     1
 77
     6
176
     1
 78
     2
176
     1
 67
     7
176
     1
 79
     5
176
     1
170
     0
176
     1
171
     0
176
     1
290
     0
176
     1
 93
       13
176
     1
 44
0.0
176
     1
173
     0
176
     1
  0
VISUALSTYLE
  5
2E
102
{ACAD_REACTORS
330
2A
102
}
102
{ACAD_XDICTIONARY
360
D1
102
}
330
2A
100
AcDbVisualStyle
  2
GouraudWithEdges
 70
     3
177
     2
291
     1
 71
     2
176
     1
 72
     2
176
     1
 73
     1
176
     1
 90
        2
176
     1
 40
0.6
176
     1
 41
30.0
176
     1
 62
     5
 63
     7
421
 16777215
176
     1
 74
     1
176
     1
 91
        0
176
     1
 64
     7
176
     1
 65
   257
176
     1
 75
     1
176
     1
175
     1
176
     1
 42
1.0
176
     1
 92
        0
176
     1
 66
   257
176
     1
 43
1.0
176
     1
 76
     1
176
     1
 77
     6
176
     1
 78
     2
176
     1
 67
     7
176
     1
 79
     5
176
     1
170
     0
176
     1
171
     0
176
     1
290
     0
176
     1
 93
       13
176
     1
 44
0.0
176
     1
173
     0
176
     1
  0
VISUALSTYLE
  5
31
102
{ACAD_REACTORS
330
2A
102
}
102
{ACAD_XDICTIONARY
360
D7
102
}
330
2A
100
AcDbVisualStyle
  2
Hidden
 70
     6
177
     2
291
     0
 71
     1
176
     1
 72
     2
176
     1
 73
     2
176
     1
 90
        0
176
     1
 40
0.6
176
     1
 41
30.0
176
     1
 62
     5
 63
     7
421
 16777215
176
     1
 74
     2
176
     1
 91
        2
176
     1
 64
     7
176
     1
 65
   257
176
     1
 75
     2
176
     1
175
     1
176
     1
 42
40.0
176
     1
 92
        0
176
     1
 66
   257
176
     1
 43
1.0
176
     1
 76
     1
176
     1
 77
     6
176
     1
 78
     2
176
     1
 67
     7
176
     1
 79
     3
176
     1
170
     0
176
     1
171
     0
176
     1
290
     0
176
     1
 93
        1
176
     1
 44
0.0
176
     1
173
     0
176
     1
  0
VISUALSTYLE
  5
3B
102
{ACAD_REACTORS
330
2A
102
}
102
{ACAD_XDICTIONARY
360
EB
102
}
330
2A
100
AcDbVisualStyle
  2
JitterOff
 70
    20
177
     2
291
     1
 71
     2
176
     0
 72
     2
176
     0
 73
     0
176
     0
 90
        0
176
     0
 40
0.6
176
     0
 41
30.0
176
     0
 62
     5
 63
     7
421
 16777215
176
     0
 74
     1
176
     0
 91
        4
176
     0
 64
     7
176
     0
 65
   257
176
     0
 75
     1
176
     0
175
     1
176
     0
 42
1.0
176
     0
 92
       10
176
     2
 66
     7
176
     0
 43
1.0
176
     0
 76
     1
176
     0
 77
     6
176
     0
 78
     2
176
     0
 67
     7
176
     0
 79
     5
176
     0
170
     0
176
     0
171
     0
176
     0
290
     0
176
     0
 93
        1
176
     0
 44
0.0
176
     0
173
     0
176
     0
  0
VISUALSTYLE
  5
38
102
{ACAD_REACTORS
330
2A
102
}
102
{ACAD_XDICTIONARY
360
E5
102
}
330
2A
100
AcDbVisualStyle
  2
Linepattern
 70
    14
177
     2
291
     1
 71
     2
176
     1
 72
     2
176
     1
 73
     0
176
     1
 90
        0
176
     1
 40
0.6
176
     1
 41
30.0
176
     1
 62
     5
 63
     7
421
 16777215
176
     1
 74
     1
176
     1
 91
        4
176
     1
 64
     7
176
     1
 65
   257
176
     1
 75
     7
176
     1
175
     7
176
     1
 42
1.0
176
     1
 92
        8
176
     1
 66
     7
176
     1
 43
1.0
176
     1
 76
     1
176
     1
 77
     6
176
     1
 78
     2
176
     1
 67
     7
176
     1
 79
     5
176
     1
170
     0
176
     1
171
     0
176
     1
290
     0
176
     1
 93
        1
176
     1
 44
0.0
176
     1
173
     0
176
     1
  0
VISUALSTYLE
  5
3C
102
{ACAD_REACTORS
330
2A
102
}
102
{ACAD_XDICTIONARY
360
ED
102
}
330
2A
100
AcDbVisualStyle
  2
OverhangOff
 70
    21
177
     2
291
     1
 71
     2
176
     0
 72
     2
176
     0
 73
     0
176
     0
 90
        0
176
     0
 40
0.6
176
     0
 41
30.0
176
     0
 62
     5
 63
     7
421
 16777215
176
     0
 74
     1
176
     0
 91
        4
176
     0
 64
     7
176
     0
 65
   257
176
     0
 75
     1
176
     0
175
     1
176
     0
 42
1.0
176
     0
 92
        9
176
     2
 66
     7
176
     0
 43
1.0
176
     0
 76
     1
176
     0
 77
     6
176
     0
 78
     2
176
     0
 67
     7
176
     0
 79
     5
176
     0
170
     0
176
     0
171
     0
176
     0
290
     0
176
     0
 93
        1
176
     0
 44
0.0
176
     0
173
     0
176
     0
  0
VISUALSTYLE
  5
33
102
{ACAD_REACTORS
330
2A
102
}
102
{ACAD_XDICTIONARY
360
DB
102
}
330
2A
100
AcDbVisualStyle
  2
Realistic
 70
     8
177
     2
291
     0
 71
     2
176
     1
 72
     3
176
     1
 73
     0
176
     1
 90
        2
176
     1
 40
0.6
176
     1
 41
30.0
176
     1
 62
     5
 63
     7
421
 16777215
176
     1
 74
     0
176
     1
 91
        0
176
     1
 64
     7
176
     1
 65
   257
176
     1
 75
     1
176
     1
175
     1
176
     1
 42
1.0
176
     1
 92
        8
176
     1
 66
   257
176
     1
 43
1.0
176
     1
 76
     1
176
     1
 77
     6
176
     1
 78
     2
176
     1
 67
     7
176
     1
 79
     3
176
     1
170
     0
176
     1
171
     0
176
     1
290
     0
176
     1
 93
       13
176
     1
 44
0.0
176
     1
173
     0
176
     1
  0
VISUALSTYLE
  5
42
102
{ACAD_REACTORS
330
2A
102
}
102
{ACAD_XDICTIONARY
360
F9
102
}
330
2A
100
AcDbVisualStyle
  2
Shaded
 70
    27
177
     2
291
     0
 71
     2
176
     1
 72
     2
176
     1
 73
     1
176
     1
 90
        2
176
     1
 40
0.6
176
     1
 41
30.0
176
     1
 62
     5
 63
     7
421
 16777215
176
     1
 74
     0
176
     1
 91
        4
176
     1
 64
     7
176
     1
 65
   257
176
     1
 75
     1
176
     1
175
     1
176
     1
 42
1.0
176
     1
 92
        8
176
     1
 66
   257
176
     1
 43
1.0
176
     1
 76
     1
176
     1
 77
     6
176
     1
 78
     2
176
     1
 67
     8
425
  7895160
176
     1
 79
     3
176
     1
170
     0
176
     1
171
     0
176
     1
290
     0
176
     1
 93
        5
176
     1
 44
0.0
176
     1
173
     0
176
     1
  0
VISUALSTYLE
  5
41
102
{ACAD_REACTORS
330
2A
102
}
102
{ACAD_XDICTIONARY
360
F7
102
}
330
2A
100
AcDbVisualStyle
  2
Shaded with edges
 70
    26
177
     2
291
     0
 71
     2
176
     1
 72
     2
176
     1
 73
     1
176
     1
 90
        2
176
     1
 40
0.6
176
     1
 41
30.0
176
     1
 62
     5
 63
     7
421
 16777215
176
     1
 74
     1
176
     1
 91
       10
176
     1
 64
     7
176
     1
 65
   257
176
     1
 75
     2
176
     1
175
     1
176
     1
 42
1.0
176
     1
 92
        8
176
     1
 66
   257
176
     1
 43
1.0
176
     1
 76
     1
176
     1
 77
     6
176
     1
 78
     2
176
     1
 67
     7
176
     1
 79
     3
176
     1
170
     0
176
     1
171
     0
176
     1
290
     0
176
     1
 93
        5
176
     1
 44
0.0
176
     1
173
     0
176
     1
  0
VISUALSTYLE
  5
3E
102
{ACAD_REACTORS
330
2A
102
}
102
{ACAD_XDICTIONARY
360
F1
102
}
330
2A
100
AcDbVisualStyle
  2
Shades of Gray
 70
    23
177
     2
291
     0
 71
     2
176
     1
 72
     2
176
     1
 73
     3
176
     1
 90
        0
176
     1
 40
0.6
176
     1
 41
30.0
176
     1
 62
     5
 63
     7
421
 16777215
176
     1
 74
     2
176
     1
 91
        2
176
     1
 64
     7
176
     1
 65
     7
176
     1
 75
     1
176
     1
175
     1
176
     1
 42
40.0
176
     1
 92
        8
176
     1
 66
     7
176
     1
 43
1.0
176
     1
 76
     1
176
     1
 77
     6
176
     1
 78
     2
176
     1
 67
     7
176
     1
 79
     3
176
     1
170
     0
176
     1
171
     0
176
     1
290
     0
176
     1
 93
        1
176
     1
 44
0.0
176
     1
173
     0
176
     1
  0
VISUALSTYLE
  5
3F
102
{ACAD_REACTORS
330
2A
102
}
102
{ACAD_XDICTIONARY
360
F3
102
}
330
2A
100
AcDbVisualStyle
  2
Sketchy
 70
    24
177
     2
291
     0
 71
     1
176
     1
 72
     2
176
     1
 73
     2
176
     1
 90
        0
176
     1
 40
0.6
176
     1
 41
30.0
176
     1
 62
     5
 63
     7
421
 16777215
176
     1
 74
     2
176
     1
 91
        2
176
     1
 64
     7
176
     1
 65
     7
176
     1
 75
     1
176
     1
175
     1
176
     1
 42
40.0
176
     1
 92
       11
176
     1
 66
     7
176
     1
 43
1.0
176
     1
 76
     1
176
     1
 77
     6
176
     1
 78
     2
176
     1
 67
     7
176
     1
 79
     6
176
     1
170
     0
176
     1
171
     0
176
     1
290
     0
176
     1
 93
        1
176
     1
 44
0.0
176
     1
173
     0
176
     1
  0
VISUALSTYLE
  5
37
102
{ACAD_REACTORS
330
2A
102
}
102
{ACAD_XDICTIONARY
360
E3
102
}
330
2A
100
AcDbVisualStyle
  2
Thicken
 70
    13
177
     2
291
     1
 71
     2
176
     1
 72
     2
176
     1
 73
     0
176
     1
 90
        0
176
     1
 40
0.6
176
     1
 41
30.0
176
     1
 62
     5
 63
     7
421
 16777215
176
     1
 74
     1
176
     1
 91
        4
176
     1
 64
     7
176
     1
 65
   257
176
     1
 75
     1
176
     1
175
     1
176
     1
 42
1.0
176
     1
 92
       12
176
     1
 66
     7
176
     1
 43
1.0
176
     1
 76
     1
176
     1
 77
     6
176
     1
 78
     2
176
     1
 67
     7
176
     1
 79
     5
176
     1
170
     0
176
     1
171
     0
176
     1
290
     0
176
     1
 93
        1
176
     1
 44
0.0
176
     1
173
     0
176
     1
  0
VISUALSTYLE
  5
30
102
{ACAD_REACTORS
330
2A
102
}
102
{ACAD_XDICTIONARY
360
D5
102
}
330
2A
100
AcDbVisualStyle
  2
Wireframe
 70
     5
177
     2
291
     0
 71
     0
176
     1
 72
     2
176
     1
 73
     0
176
     1
 90
        0
176
     1
 40
0.6
176
     1
 41
30.0
176
     1
 62
     5
 63
     7
421
 16777215
176
     1
 74
     1
176
     1
 91
        4
176
     1
 64
     7
176
     1
 65
   257
176
     1
 75
     1
176
     1
175
     1
176
     1
 42
1.0
176
     1
 92
        0
176
     1
 66
   257
176
     1
 43
1.0
176
     1
 76
     1
176
     1
 77
     6
176
     1
 78
     2
176
     1
 67
     7
176
     1
 79
     3
176
     1
170
     0
176
     1
171
     0
176
     1
290
     0
176
     1
 93
        1
176
     1
 44
0.0
176
     1
173
     0
176
     1
  0
VISUALSTYLE
  5
40
102
{ACAD_REACTORS
330
2A
102
}
102
{ACAD_XDICTIONARY
360
F5
102
}
330
2A
100
AcDbVisualStyle
  2
X-Ray
 70
    25
177
     2
291
     0
 71
     2
176
     1
 72
     2
176
     1
 73
     1
176
     1
 90
        1
176
     1
 40
0.5
176
     1
 41
30.0
176
     1
 62
     5
 63
     7
421
 16777215
176
     1
 74
     1
176
     1
 91
        0
176
     1
 64
     7
176
     1
 65
   257
176
     1
 75
     1
176
     1
175
     1
176
     1
 42
1.0
176
     1
 92
        8
176
     1
 66
     7
176
     1
 43
1.0
176
     1
 76
     1
176
     1
 77
     6
176
     1
 78
     2
176
     1
 67
     7
176
     1
 79
     3
176
     1
170
     0
176
     1
171
     0
176
     1
290
     0
176
     1
 93
       13
176
     1
 44
0.0
176
     1
173
     0
176
     1
  0
DICTIONARYVAR
  5
CA
102
{ACAD_REACTORS
330
C9
102
}
330
C9
100
DictionaryVariables
280
     0
  1
1:1
  0
DICTIONARYVAR
  5
FF
102
{ACAD_REACTORS
330
C9
102
}
330
C9
100
DictionaryVariables
280
     0
  1
Standard
  0
DICTIONARYVAR
  5
FE
102
{ACAD_REACTORS
330
C9
102
}
330
C9
100
DictionaryVariables
280
     0
  1
Standard
  0
DICTIONARY
  5
FB
330
6A
100
AcDbDictionary
280
     1
281
     1
  3
ACAD_ROUNDTRIP_2008_TABLESTYLE_CELLSTYLEMAP
360
FC
  0
DICTIONARY
  5
D3
330
2F
100
AcDbDictionary
280
     1
281
     1
  3
ACAD_XREC_ROUNDTRIP
360
D4
  0
DICTIONARY
  5
D9
330
32
100
AcDbDictionary
280
     1
281
     1
  3
ACAD_XREC_ROUNDTRIP
360
DA
  0
DICTIONARY
  5
E1
330
36
100
AcDbDictionary
280
     1
281
     1
  3
ACAD_XREC_ROUNDTRIP
360
E2
  0
DICTIONARY
  5
E9
330
3A
100
AcDbDictionary
280
     1
281
     1
  3
ACAD_XREC_ROUNDTRIP
360
EA
  0
DICTIONARY
  5
DD
330
34
100
AcDbDictionary
280
     1
281
     1
  3
ACAD_XREC_ROUNDTRIP
360
DE
  0
DICTIONARY
  5
DF
330
35
100
AcDbDictionary
280
     1
281
     1
  3
ACAD_XREC_ROUNDTRIP
360
E0
  0
DICTIONARY
  5
EF
330
3D
100
AcDbDictionary
280
     1
281
     1
  3
ACAD_XREC_ROUNDTRIP
360
F0
  0
DICTIONARY
  5
E7
330
39
100
AcDbDictionary
280
     1
281
     1
  3
ACAD_XREC_ROUNDTRIP
360
E8
  0
DICTIONARY
  5
CB
330
2B
100
AcDbDictionary
280
     1
281
     1
  3
ACAD_XREC_ROUNDTRIP
360
CC
  0
DICTIONARY
  5
CD
330
2C
100
AcDbDictionary
280
     1
281
     1
  3
ACAD_XREC_ROUNDTRIP
360
CE
  0
DICTIONARY
  5
CF
330
2D
100
AcDbDictionary
280
     1
281
     1
  3
ACAD_XREC_ROUNDTRIP
360
D0
  0
DICTIONARY
  5
D1
330
2E
100
AcDbDictionary
280
     1
281
     1
  3
ACAD_XREC_ROUNDTRIP
360
D2
  0
DICTIONARY
  5
D7
330
31
100
AcDbDictionary
280
     1
281
     1
  3
ACAD_XREC_ROUNDTRIP
360
D8
  0
DICTIONARY
  5
EB
330
3B
100
AcDbDictionary
280
     1
281
     1
  3
ACAD_XREC_ROUNDTRIP
360
EC
  0
DICTIONARY
  5
E5
330
38
100
AcDbDictionary
280
     1
281
     1
  3
ACAD_XREC_ROUNDTRIP
360
E6
  0
DICTIONARY
  5
ED
330
3C
100
AcDbDictionary
280
     1
281
     1
  3
ACAD_XREC_ROUNDTRIP
360
EE
  0
DICTIONARY
  5
DB
330
33
100
AcDbDictionary
280
     1
281
     1
  3
ACAD_XREC_ROUNDTRIP
360
DC
  0
DICTIONARY
  5
F9
330
42
100
AcDbDictionary
280
     1
281
     1
  3
ACAD_XREC_ROUNDTRIP
360
FA
  0
DICTIONARY
  5
F7
330
41
100
AcDbDictionary
280
     1
281
     1
  3
ACAD_XREC_ROUNDTRIP
360
F8
  0
DICTIONARY
  5
F1
330
3E
100
AcDbDictionary
280
     1
281
     1
  3
ACAD_XREC_ROUNDTRIP
360
F2
  0
DICTIONARY
  5
F3
330
3F
100
AcDbDictionary
280
     1
281
     1
  3
ACAD_XREC_ROUNDTRIP
360
F4
  0
DICTIONARY
  5
E3
330
37
100
AcDbDictionary
280
     1
281
     1
  3
ACAD_XREC_ROUNDTRIP
360
E4
  0
DICTIONARY
  5
D5
330
30
100
AcDbDictionary
280
     1
281
     1
  3
ACAD_XREC_ROUNDTRIP
360
D6
  0
DICTIONARY
  5
F5
330
40
100
AcDbDictionary
280
     1
281
     1
  3
ACAD_XREC_ROUNDTRIP
360
F6
  0
CELLSTYLEMAP
  5
FC
102
{ACAD_REACTORS
330
FB
102
}
330
FB
100
AcDbCellStyleMap
 90
        3
300
CELLSTYLE
  1
TABLEFORMAT_BEGIN
 90
        5
170
     1
 91
        0
 92
    32768
 62
   257
 93
        1
300
CONTENTFORMAT
  1
CONTENTFORMAT_BEGIN
 90
        0
 91
        0
 92
        4
 93
        0
300

 40
0.0
140
1.0
 94
        5
 62
     0
340
11
144
0.25
309
CONTENTFORMAT_END
171
     1
301
MARGIN
  1
CELLMARGIN_BEGIN
 40
0.06
 40
0.06
 40
0.06
 40
0.06
 40
0.06
 40
0.06
309
CELLMARGIN_END
 94
        6
 95
        1
302
GRIDFORMAT
  1
GRIDFORMAT_BEGIN
 90
        0
 91
        1
 62
     0
 92
       -2
340
14
 93
        0
 40
0.045
309
GRIDFORMAT_END
 95
        2
302
GRIDFORMAT
  1
GRIDFORMAT_BEGIN
 90
        0
 91
        1
 62
     0
 92
       -2
340
14
 93
        0
 40
0.045
309
GRIDFORMAT_END
 95
        4
302
GRIDFORMAT
  1
GRIDFORMAT_BEGIN
 90
        0
 91
        1
 62
     0
 92
       -2
340
14
 93
        0
 40
0.045
309
GRIDFORMAT_END
 95
        8
302
GRIDFORMAT
  1
GRIDFORMAT_BEGIN
 90
        0
 91
        1
 62
     0
 92
       -2
340
14
 93
        0
 40
0.045
309
GRIDFORMAT_END
 95
       16
302
GRIDFORMAT
  1
GRIDFORMAT_BEGIN
 90
        0
 91
        1
 62
     0
 92
       -2
340
14
 93
        0
 40
0.045
309
GRIDFORMAT_END
 95
       32
302
GRIDFORMAT
  1
GRIDFORMAT_BEGIN
 90
        0
 91
        1
 62
     0
 92
       -2
340
14
 93
        0
 40
0.045
309
GRIDFORMAT_END
309
TABLEFORMAT_END
  1
CELLSTYLE_BEGIN
 90
        1
 91
        1
300
_TITLE
309
CELLSTYLE_END
300
CELLSTYLE
  1
TABLEFORMAT_BEGIN
 90
        5
170
     1
 91
        0
 92
        0
 62
   257
 93
        1
300
CONTENTFORMAT
  1
CONTENTFORMAT_BEGIN
 90
        0
 91
        0
 92
        4
 93
        0
300

 40
0.0
140
1.0
 94
        5
 62
     0
340
11
144
0.18
309
CONTENTFORMAT_END
171
     1
301
MARGIN
  1
CELLMARGIN_BEGIN
 40
0.06
 40
0.06
 40
0.06
 40
0.06
 40
0.06
 40
0.06
309
CELLMARGIN_END
 94
        6
 95
        1
302
GRIDFORMAT
  1
GRIDFORMAT_BEGIN
 90
        0
 91
        1
 62
     0
 92
       -2
340
14
 93
        0
 40
0.045
309
GRIDFORMAT_END
 95
        2
302
GRIDFORMAT
  1
GRIDFORMAT_BEGIN
 90
        0
 91
        1
 62
     0
 92
       -2
340
14
 93
        0
 40
0.045
309
GRIDFORMAT_END
 95
        4
302
GRIDFORMAT
  1
GRIDFORMAT_BEGIN
 90
        0
 91
        1
 62
     0
 92
       -2
340
14
 93
        0
 40
0.045
309
GRIDFORMAT_END
 95
        8
302
GRIDFORMAT
  1
GRIDFORMAT_BEGIN
 90
        0
 91
        1
 62
     0
 92
       -2
340
14
 93
        0
 40
0.045
309
GRIDFORMAT_END
 95
       16
302
GRIDFORMAT
  1
GRIDFORMAT_BEGIN
 90
        0
 91
        1
 62
     0
 92
       -2
340
14
 93
        0
 40
0.045
309
GRIDFORMAT_END
 95
       32
302
GRIDFORMAT
  1
GRIDFORMAT_BEGIN
 90
        0
 91
        1
 62
     0
 92
       -2
340
14
 93
        0
 40
0.045
309
GRIDFORMAT_END
309
TABLEFORMAT_END
  1
CELLSTYLE_BEGIN
 90
        2
 91
        1
300
_HEADER
309
CELLSTYLE_END
300
CELLSTYLE
  1
TABLEFORMAT_BEGIN
 90
        5
170
     1
 91
        0
 92
        0
 62
   257
 93
        1
300
CONTENTFORMAT
  1
CONTENTFORMAT_BEGIN
 90
        0
 91
        0
 92
        4
 93
        0
300

 40
0.0
140
1.0
 94
        2
 62
     0
340
11
144
0.18
309
CONTENTFORMAT_END
171
     1
301
MARGIN
  1
CELLMARGIN_BEGIN
 40
0.06
 40
0.06
 40
0.06
 40
0.06
 40
0.06
 40
0.06
309
CELLMARGIN_END
 94
        6
 95
        1
302
GRIDFORMAT
  1
GRIDFORMAT_BEGIN
 90
        0
 91
        1
 62
     0
 92
       -2
340
14
 93
        0
 40
0.045
309
GRIDFORMAT_END
 95
        2
302
GRIDFORMAT
  1
GRIDFORMAT_BEGIN
 90
        0
 91
        1
 62
     0
 92
       -2
340
14
 93
        0
 40
0.045
309
GRIDFORMAT_END
 95
        4
302
GRIDFORMAT
  1
GRIDFORMAT_BEGIN
 90
        0
 91
        1
 62
     0
 92
       -2
340
14
 93
        0
 40
0.045
309
GRIDFORMAT_END
 95
        8
302
GRIDFORMAT
  1
GRIDFORMAT_BEGIN
 90
        0
 91
        1
 62
     0
 92
       -2
340
14
 93
        0
 40
0.045
309
GRIDFORMAT_END
 95
       16
302
GRIDFORMAT
  1
GRIDFORMAT_BEGIN
 90
        0
 91
        1
 62
     0
 92
       -2
340
14
 93
        0
 40
0.045
309
GRIDFORMAT_END
 95
       32
302
GRIDFORMAT
  1
GRIDFORMAT_BEGIN
 90
        0
 91
        1
 62
     0
 92
       -2
340
14
 93
        0
 40
0.045
309
GRIDFORMAT_END
309
TABLEFORMAT_END
  1
CELLSTYLE_BEGIN
 90
        3
 91
        2
300
_DATA
309
CELLSTYLE_END
  0
XRECORD
  5
D4
102
{ACAD_REACTORS
330
D3
102
}
330
D3
100
AcDbXrecord
280
     1
102
RTVSPost2010Prop28
280
     1
102
RTVSPost2010PropOp28
 70
     1
102
RTVSPost2010Prop29
280
     1
102
RTVSPost2010PropOp29
 70
     1
102
RTVSPost2010Prop30
280
     0
102
RTVSPost2010PropOp30
 70
     1
102
RTVSPost2010Prop31
280
     0
102
RTVSPost2010PropOp31
 70
     1
102
RTVSPost2010Prop32
280
     0
102
RTVSPost2010PropOp32
 70
     1
102
RTVSPost2010Prop33
280
     0
102
RTVSPost2010PropOp33
 70
     1
102
RTVSPost2010Prop34
280
     0
102
RTVSPost2010PropOp34
 70
     1
102
RTVSPost2010Prop35
280
     0
102
RTVSPost2010PropOp35
 70
     1
102
RTVSPost2010Prop36
280
     0
102
RTVSPost2010PropOp36
 70
     1
102
RTVSPost2010Prop37
 90
       50
102
RTVSPost2010PropOp37
 70
     1
102
RTVSPost2010Prop38
140
0.0
102
RTVSPost2010PropOp38
 70
     1
102
RTVSPost2010Prop39
140
1.0
102
RTVSPost2010PropOp39
 70
     1
102
RTVSPost2010Prop40
 90
        0
102
RTVSPost2010PropOp40
 70
     1
102
RTVSPost2010Prop41ColorIndex
 90
       18
102
RTVSPost2010Prop41ColorRGB
 90
        0
102
RTVSPost2010PropOp41
 70
     1
102
RTVSPost2010Prop42
 90
       50
102
RTVSPost2010PropOp42
 70
     1
102
RTVSPost2010Prop43
 90
        3
102
RTVSPost2010PropOp43
 70
     1
102
RTVSPost2010Prop44ColorIndex
 90
        5
102
RTVSPost2010Prop44ColorRGB
 90
      255
102
RTVSPost2010PropOp44
 70
     1
102
RTVSPost2010Prop45
280
     0
102
RTVSPost2010PropOp45
 70
     1
102
RTVSPost2010Prop46
 90
       50
102
RTVSPost2010PropOp46
 70
     1
102
RTVSPost2010Prop47
 90
       50
102
RTVSPost2010PropOp47
 70
     1
102
RTVSPost2010Prop48
 90
       50
102
RTVSPost2010PropOp48
 70
     1
102
RTVSPost2010Prop49
280
     0
102
RTVSPost2010PropOp49
 70
     1
102
RTVSPost2010Prop50
 90
       50
102
RTVSPost2010PropOp50
 70
     1
102
RTVSPost2010Prop51ColorIndex
 90
      256
102
RTVSPost2010Prop51ColorRGB
 90
-16777216
102
RTVSPost2010PropOp51
 70
     0
102
RTVSPost2010Prop52
140
1.0
102
RTVSPost2010PropOp52
 70
     0
102
RTVSPost2010Prop53
 90
        2
102
RTVSPost2010PropOp53
 70
     1
102
RTVSPost2010Prop54
  1
strokes_ogs.tif
102
RTVSPost2010PropOp54
 70
     1
102
RTVSPost2010Prop55
280
     0
102
RTVSPost2010PropOp55
 70
     1
102
RTVSPost2010Prop56
140
1.0
102
RTVSPost2010PropOp56
 70
     1
102
RTVSPost2010Prop57
140
1.0
102
RTVSPost2010PropOp57
 70
     1
  0
XRECORD
  5
DA
102
{ACAD_REACTORS
330
D9
102
}
330
D9
100
AcDbXrecord
280
     1
102
RTVSPost2010Prop28
280
     0
102
RTVSPost2010PropOp28
 70
     1
102
RTVSPost2010Prop29
280
     1
102
RTVSPost2010PropOp29
 70
     1
102
RTVSPost2010Prop30
280
     1
102
RTVSPost2010PropOp30
 70
     1
102
RTVSPost2010Prop31
280
     0
102
RTVSPost2010PropOp31
 70
     1
102
RTVSPost2010Prop32
280
     0
102
RTVSPost2010PropOp32
 70
     1
102
RTVSPost2010Prop33
280
     0
102
RTVSPost2010PropOp33
 70
     1
102
RTVSPost2010Prop34
280
     0
102
RTVSPost2010PropOp34
 70
     1
102
RTVSPost2010Prop35
280
     0
102
RTVSPost2010PropOp35
 70
     1
102
RTVSPost2010Prop36
280
     0
102
RTVSPost2010PropOp36
 70
     1
102
RTVSPost2010Prop37
 90
       50
102
RTVSPost2010PropOp37
 70
     1
102
RTVSPost2010Prop38
140
0.0
102
RTVSPost2010PropOp38
 70
     1
102
RTVSPost2010Prop39
140
1.0
102
RTVSPost2010PropOp39
 70
     1
102
RTVSPost2010Prop40
 90
        0
102
RTVSPost2010PropOp40
 70
     1
102
RTVSPost2010Prop41ColorIndex
 90
       18
102
RTVSPost2010Prop41ColorRGB
 90
        0
102
RTVSPost2010PropOp41
 70
     1
102
RTVSPost2010Prop42
 90
       50
102
RTVSPost2010PropOp42
 70
     1
102
RTVSPost2010Prop43
 90
        3
102
RTVSPost2010PropOp43
 70
     1
102
RTVSPost2010Prop44ColorIndex
 90
        5
102
RTVSPost2010Prop44ColorRGB
 90
      255
102
RTVSPost2010PropOp44
 70
     1
102
RTVSPost2010Prop45
280
     0
102
RTVSPost2010PropOp45
 70
     1
102
RTVSPost2010Prop46
 90
       50
102
RTVSPost2010PropOp46
 70
     1
102
RTVSPost2010Prop47
 90
       50
102
RTVSPost2010PropOp47
 70
     1
102
RTVSPost2010Prop48
 90
       50
102
RTVSPost2010PropOp48
 70
     1
102
RTVSPost2010Prop49
280
     0
102
RTVSPost2010PropOp49
 70
     1
102
RTVSPost2010Prop50
 90
       50
102
RTVSPost2010PropOp50
 70
     1
102
RTVSPost2010Prop51ColorIndex
 90
      256
102
RTVSPost2010Prop51ColorRGB
 90
-16777216
102
RTVSPost2010PropOp51
 70
     0
102
RTVSPost2010Prop52
140
1.0
102
RTVSPost2010PropOp52
 70
     0
102
RTVSPost2010Prop53
 90
        2
102
RTVSPost2010PropOp53
 70
     1
102
RTVSPost2010Prop54
  1
strokes_ogs.tif
102
RTVSPost2010PropOp54
 70
     1
102
RTVSPost2010Prop55
280
     0
102
RTVSPost2010PropOp55
 70
     1
102
RTVSPost2010Prop56
140
1.0
102
RTVSPost2010PropOp56
 70
     1
102
RTVSPost2010Prop57
140
1.0
102
RTVSPost2010PropOp57
 70
     1
  0
XRECORD
  5
E2
102
{ACAD_REACTORS
330
E1
102
}
330
E1
100
AcDbXrecord
280
     1
102
RTVSPost2010Prop28
280
     0
102
RTVSPost2010PropOp28
 70
     1
102
RTVSPost2010Prop29
280
     1
102
RTVSPost2010PropOp29
 70
     1
102
RTVSPost2010Prop30
280
     1
102
RTVSPost2010PropOp30
 70
     1
102
RTVSPost2010Prop31
280
     0
102
RTVSPost2010PropOp31
 70
     1
102
RTVSPost2010Prop32
280
     0
102
RTVSPost2010PropOp32
 70
     1
102
RTVSPost2010Prop33
280
     0
102
RTVSPost2010PropOp33
 70
     1
102
RTVSPost2010Prop34
280
     0
102
RTVSPost2010PropOp34
 70
     1
102
RTVSPost2010Prop35
280
     0
102
RTVSPost2010PropOp35
 70
     1
102
RTVSPost2010Prop36
280
     0
102
RTVSPost2010PropOp36
 70
     1
102
RTVSPost2010Prop37
 90
       50
102
RTVSPost2010PropOp37
 70
     1
102
RTVSPost2010Prop38
140
0.0
102
RTVSPost2010PropOp38
 70
     1
102
RTVSPost2010Prop39
140
1.0
102
RTVSPost2010PropOp39
 70
     1
102
RTVSPost2010Prop40
 90
        0
102
RTVSPost2010PropOp40
 70
     1
102
RTVSPost2010Prop41ColorIndex
 90
       18
102
RTVSPost2010Prop41ColorRGB
 90
        0
102
RTVSPost2010PropOp41
 70
     1
102
RTVSPost2010Prop42
 90
       50
102
RTVSPost2010PropOp42
 70
     1
102
RTVSPost2010Prop43
 90
        3
102
RTVSPost2010PropOp43
 70
     1
102
RTVSPost2010Prop44ColorIndex
 90
        5
102
RTVSPost2010Prop44ColorRGB
 90
      255
102
RTVSPost2010PropOp44
 70
     1
102
RTVSPost2010Prop45
280
     0
102
RTVSPost2010PropOp45
 70
     1
102
RTVSPost2010Prop46
 90
       50
102
RTVSPost2010PropOp46
 70
     1
102
RTVSPost2010Prop47
 90
       50
102
RTVSPost2010PropOp47
 70
     1
102
RTVSPost2010Prop48
 90
       50
102
RTVSPost2010PropOp48
 70
     1
102
RTVSPost2010Prop49
280
     0
102
RTVSPost2010PropOp49
 70
     1
102
RTVSPost2010Prop50
 90
       50
102
RTVSPost2010PropOp50
 70
     1
102
RTVSPost2010Prop51ColorIndex
 90
      256
102
RTVSPost2010Prop51ColorRGB
 90
-16777216
102
RTVSPost2010PropOp51
 70
     0
102
RTVSPost2010Prop52
140
1.0
102
RTVSPost2010PropOp52
 70
     0
102
RTVSPost2010Prop53
 90
        2
102
RTVSPost2010PropOp53
 70
     1
102
RTVSPost2010Prop54
  1
strokes_ogs.tif
102
RTVSPost2010PropOp54
 70
     1
102
RTVSPost2010Prop55
280
     0
102
RTVSPost2010PropOp55
 70
     1
102
RTVSPost2010Prop56
140
1.0
102
RTVSPost2010PropOp56
 70
     1
102
RTVSPost2010Prop57
140
1.0
102
RTVSPost2010PropOp57
 70
     1
  0
XRECORD
  5
EA
102
{ACAD_REACTORS
330
E9
102
}
330
E9
100
AcDbXrecord
280
     1
102
RTVSPost2010Prop28
280
     0
102
RTVSPost2010PropOp28
 70
     1
102
RTVSPost2010Prop29
280
     1
102
RTVSPost2010PropOp29
 70
     1
102
RTVSPost2010Prop30
280
     1
102
RTVSPost2010PropOp30
 70
     1
102
RTVSPost2010Prop31
280
     0
102
RTVSPost2010PropOp31
 70
     1
102
RTVSPost2010Prop32
280
     0
102
RTVSPost2010PropOp32
 70
     1
102
RTVSPost2010Prop33
280
     0
102
RTVSPost2010PropOp33
 70
     1
102
RTVSPost2010Prop34
280
     0
102
RTVSPost2010PropOp34
 70
     1
102
RTVSPost2010Prop35
280
     0
102
RTVSPost2010PropOp35
 70
     1
102
RTVSPost2010Prop36
280
     0
102
RTVSPost2010PropOp36
 70
     1
102
RTVSPost2010Prop37
 90
       50
102
RTVSPost2010PropOp37
 70
     1
102
RTVSPost2010Prop38
140
0.0
102
RTVSPost2010PropOp38
 70
     1
102
RTVSPost2010Prop39
140
1.0
102
RTVSPost2010PropOp39
 70
     1
102
RTVSPost2010Prop40
 90
        0
102
RTVSPost2010PropOp40
 70
     1
102
RTVSPost2010Prop41ColorIndex
 90
       18
102
RTVSPost2010Prop41ColorRGB
 90
        0
102
RTVSPost2010PropOp41
 70
     1
102
RTVSPost2010Prop42
 90
       50
102
RTVSPost2010PropOp42
 70
     1
102
RTVSPost2010Prop43
 90
        3
102
RTVSPost2010PropOp43
 70
     1
102
RTVSPost2010Prop44ColorIndex
 90
        5
102
RTVSPost2010Prop44ColorRGB
 90
      255
102
RTVSPost2010PropOp44
 70
     1
102
RTVSPost2010Prop45
280
     0
102
RTVSPost2010PropOp45
 70
     1
102
RTVSPost2010Prop46
 90
       50
102
RTVSPost2010PropOp46
 70
     1
102
RTVSPost2010Prop47
 90
       50
102
RTVSPost2010PropOp47
 70
     1
102
RTVSPost2010Prop48
 90
       50
102
RTVSPost2010PropOp48
 70
     1
102
RTVSPost2010Prop49
280
     0
102
RTVSPost2010PropOp49
 70
     1
102
RTVSPost2010Prop50
 90
       50
102
RTVSPost2010PropOp50
 70
     1
102
RTVSPost2010Prop51ColorIndex
 90
      256
102
RTVSPost2010Prop51ColorRGB
 90
-16777216
102
RTVSPost2010PropOp51
 70
     0
102
RTVSPost2010Prop52
140
1.0
102
RTVSPost2010PropOp52
 70
     0
102
RTVSPost2010Prop53
 90
        2
102
RTVSPost2010PropOp53
 70
     1
102
RTVSPost2010Prop54
  1
strokes_ogs.tif
102
RTVSPost2010PropOp54
 70
     1
102
RTVSPost2010Prop55
280
     0
102
RTVSPost2010PropOp55
 70
     1
102
RTVSPost2010Prop56
140
1.0
102
RTVSPost2010PropOp56
 70
     1
102
RTVSPost2010Prop57
140
1.0
102
RTVSPost2010PropOp57
 70
     1
  0
XRECORD
  5
DE
102
{ACAD_REACTORS
330
DD
102
}
330
DD
100
AcDbXrecord
280
     1
102
RTVSPost2010Prop28
280
     0
102
RTVSPost2010PropOp28
 70
     1
102
RTVSPost2010Prop29
280
     1
102
RTVSPost2010PropOp29
 70
     1
102
RTVSPost2010Prop30
280
     1
102
RTVSPost2010PropOp30
 70
     1
102
RTVSPost2010Prop31
280
     0
102
RTVSPost2010PropOp31
 70
     1
102
RTVSPost2010Prop32
280
     0
102
RTVSPost2010PropOp32
 70
     1
102
RTVSPost2010Prop33
280
     0
102
RTVSPost2010PropOp33
 70
     1
102
RTVSPost2010Prop34
280
     0
102
RTVSPost2010PropOp34
 70
     1
102
RTVSPost2010Prop35
280
     0
102
RTVSPost2010PropOp35
 70
     1
102
RTVSPost2010Prop36
280
     0
102
RTVSPost2010PropOp36
 70
     1
102
RTVSPost2010Prop37
 90
       50
102
RTVSPost2010PropOp37
 70
     1
102
RTVSPost2010Prop38
140
0.0
102
RTVSPost2010PropOp38
 70
     1
102
RTVSPost2010Prop39
140
1.0
102
RTVSPost2010PropOp39
 70
     1
102
RTVSPost2010Prop40
 90
        0
102
RTVSPost2010PropOp40
 70
     1
102
RTVSPost2010Prop41ColorIndex
 90
       18
102
RTVSPost2010Prop41ColorRGB
 90
        0
102
RTVSPost2010PropOp41
 70
     1
102
RTVSPost2010Prop42
 90
       50
102
RTVSPost2010PropOp42
 70
     1
102
RTVSPost2010Prop43
 90
        3
102
RTVSPost2010PropOp43
 70
     1
102
RTVSPost2010Prop44ColorIndex
 90
        5
102
RTVSPost2010Prop44ColorRGB
 90
      255
102
RTVSPost2010PropOp44
 70
     1
102
RTVSPost2010Prop45
280
     0
102
RTVSPost2010PropOp45
 70
     1
102
RTVSPost2010Prop46
 90
       50
102
RTVSPost2010PropOp46
 70
     1
102
RTVSPost2010Prop47
 90
       50
102
RTVSPost2010PropOp47
 70
     1
102
RTVSPost2010Prop48
 90
       50
102
RTVSPost2010PropOp48
 70
     1
102
RTVSPost2010Prop49
280
     0
102
RTVSPost2010PropOp49
 70
     1
102
RTVSPost2010Prop50
 90
       50
102
RTVSPost2010PropOp50
 70
     1
102
RTVSPost2010Prop51ColorIndex
 90
      256
102
RTVSPost2010Prop51ColorRGB
 90
-16777216
102
RTVSPost2010PropOp51
 70
     0
102
RTVSPost2010Prop52
140
1.0
102
RTVSPost2010PropOp52
 70
     0
102
RTVSPost2010Prop53
 90
        2
102
RTVSPost2010PropOp53
 70
     1
102
RTVSPost2010Prop54
  1
strokes_ogs.tif
102
RTVSPost2010PropOp54
 70
     1
102
RTVSPost2010Prop55
280
     0
102
RTVSPost2010PropOp55
 70
     1
102
RTVSPost2010Prop56
140
1.0
102
RTVSPost2010PropOp56
 70
     1
102
RTVSPost2010Prop57
140
1.0
102
RTVSPost2010PropOp57
 70
     1
  0
XRECORD
  5
E0
102
{ACAD_REACTORS
330
DF
102
}
330
DF
100
AcDbXrecord
280
     1
102
RTVSPost2010Prop28
280
     0
102
RTVSPost2010PropOp28
 70
     1
102
RTVSPost2010Prop29
280
     1
102
RTVSPost2010PropOp29
 70
     1
102
RTVSPost2010Prop30
280
     1
102
RTVSPost2010PropOp30
 70
     1
102
RTVSPost2010Prop31
280
     0
102
RTVSPost2010PropOp31
 70
     1
102
RTVSPost2010Prop32
280
     0
102
RTVSPost2010PropOp32
 70
     1
102
RTVSPost2010Prop33
280
     0
102
RTVSPost2010PropOp33
 70
     1
102
RTVSPost2010Prop34
280
     0
102
RTVSPost2010PropOp34
 70
     1
102
RTVSPost2010Prop35
280
     0
102
RTVSPost2010PropOp35
 70
     1
102
RTVSPost2010Prop36
280
     0
102
RTVSPost2010PropOp36
 70
     1
102
RTVSPost2010Prop37
 90
       50
102
RTVSPost2010PropOp37
 70
     1
102
RTVSPost2010Prop38
140
0.0
102
RTVSPost2010PropOp38
 70
     1
102
RTVSPost2010Prop39
140
1.0
102
RTVSPost2010PropOp39
 70
     1
102
RTVSPost2010Prop40
 90
        0
102
RTVSPost2010PropOp40
 70
     1
102
RTVSPost2010Prop41ColorIndex
 90
       18
102
RTVSPost2010Prop41ColorRGB
 90
        0
102
RTVSPost2010PropOp41
 70
     1
102
RTVSPost2010Prop42
 90
       50
102
RTVSPost2010PropOp42
 70
     1
102
RTVSPost2010Prop43
 90
        3
102
RTVSPost2010PropOp43
 70
     1
102
RTVSPost2010Prop44ColorIndex
 90
        5
102
RTVSPost2010Prop44ColorRGB
 90
      255
102
RTVSPost2010PropOp44
 70
     1
102
RTVSPost2010Prop45
280
     0
102
RTVSPost2010PropOp45
 70
     1
102
RTVSPost2010Prop46
 90
       50
102
RTVSPost2010PropOp46
 70
     1
102
RTVSPost2010Prop47
 90
       50
102
RTVSPost2010PropOp47
 70
     1
102
RTVSPost2010Prop48
 90
       50
102
RTVSPost2010PropOp48
 70
     1
102
RTVSPost2010Prop49
280
     0
102
RTVSPost2010PropOp49
 70
     1
102
RTVSPost2010Prop50
 90
       50
102
RTVSPost2010PropOp50
 70
     1
102
RTVSPost2010Prop51ColorIndex
 90
      256
102
RTVSPost2010Prop51ColorRGB
 90
-16777216
102
RTVSPost2010PropOp51
 70
     0
102
RTVSPost2010Prop52
140
1.0
102
RTVSPost2010PropOp52
 70
     0
102
RTVSPost2010Prop53
 90
        2
102
RTVSPost2010PropOp53
 70
     1
102
RTVSPost2010Prop54
  1
strokes_ogs.tif
102
RTVSPost2010PropOp54
 70
     1
102
RTVSPost2010Prop55
280
     0
102
RTVSPost2010PropOp55
 70
     1
102
RTVSPost2010Prop56
140
1.0
102
RTVSPost2010PropOp56
 70
     1
102
RTVSPost2010Prop57
140
1.0
102
RTVSPost2010PropOp57
 70
     1
  0
XRECORD
  5
F0
102
{ACAD_REACTORS
330
EF
102
}
330
EF
100
AcDbXrecord
280
     1
102
RTVSPost2010Prop28
280
     0
102
RTVSPost2010PropOp28
 70
     0
102
RTVSPost2010Prop29
280
     1
102
RTVSPost2010PropOp29
 70
     0
102
RTVSPost2010Prop30
280
     1
102
RTVSPost2010PropOp30
 70
     0
102
RTVSPost2010Prop31
280
     0
102
RTVSPost2010PropOp31
 70
     0
102
RTVSPost2010Prop32
280
     0
102
RTVSPost2010PropOp32
 70
     0
102
RTVSPost2010Prop33
280
     0
102
RTVSPost2010PropOp33
 70
     0
102
RTVSPost2010Prop34
280
     0
102
RTVSPost2010PropOp34
 70
     0
102
RTVSPost2010Prop35
280
     0
102
RTVSPost2010PropOp35
 70
     0
102
RTVSPost2010Prop36
280
     0
102
RTVSPost2010PropOp36
 70
     0
102
RTVSPost2010Prop37
 90
       50
102
RTVSPost2010PropOp37
 70
     0
102
RTVSPost2010Prop38
140
0.0
102
RTVSPost2010PropOp38
 70
     0
102
RTVSPost2010Prop39
140
1.0
102
RTVSPost2010PropOp39
 70
     0
102
RTVSPost2010Prop40
 90
        0
102
RTVSPost2010PropOp40
 70
     0
102
RTVSPost2010Prop41ColorIndex
 90
       18
102
RTVSPost2010Prop41ColorRGB
 90
        0
102
RTVSPost2010PropOp41
 70
     0
102
RTVSPost2010Prop42
 90
       50
102
RTVSPost2010PropOp42
 70
     0
102
RTVSPost2010Prop43
 90
        3
102
RTVSPost2010PropOp43
 70
     0
102
RTVSPost2010Prop44ColorIndex
 90
        5
102
RTVSPost2010Prop44ColorRGB
 90
      255
102
RTVSPost2010PropOp44
 70
     0
102
RTVSPost2010Prop45
280
     0
102
RTVSPost2010PropOp45
 70
     0
102
RTVSPost2010Prop46
 90
       50
102
RTVSPost2010PropOp46
 70
     0
102
RTVSPost2010Prop47
 90
       50
102
RTVSPost2010PropOp47
 70
     0
102
RTVSPost2010Prop48
 90
       50
102
RTVSPost2010PropOp48
 70
     0
102
RTVSPost2010Prop49
280
     0
102
RTVSPost2010PropOp49
 70
     0
102
RTVSPost2010Prop50
 90
       50
102
RTVSPost2010PropOp50
 70
     0
102
RTVSPost2010Prop51ColorIndex
 90
      256
102
RTVSPost2010Prop51ColorRGB
 90
-16777216
102
RTVSPost2010PropOp51
 70
     0
102
RTVSPost2010Prop52
140
1.0
102
RTVSPost2010PropOp52
 70
     0
102
RTVSPost2010Prop53
 90
        2
102
RTVSPost2010PropOp53
 70
     0
102
RTVSPost2010Prop54
  1
strokes_ogs.tif
102
RTVSPost2010PropOp54
 70
     0
102
RTVSPost2010Prop55
280
     0
102
RTVSPost2010PropOp55
 70
     0
102
RTVSPost2010Prop56
140
1.0
102
RTVSPost2010PropOp56
 70
     0
102
RTVSPost2010Prop57
140
1.0
102
RTVSPost2010PropOp57
 70
     0
  0
XRECORD
  5
E8
102
{ACAD_REACTORS
330
E7
102
}
330
E7
100
AcDbXrecord
280
     1
102
RTVSPost2010Prop28
280
     0
102
RTVSPost2010PropOp28
 70
     1
102
RTVSPost2010Prop29
280
     1
102
RTVSPost2010PropOp29
 70
     1
102
RTVSPost2010Prop30
280
     1
102
RTVSPost2010PropOp30
 70
     1
102
RTVSPost2010Prop31
280
     0
102
RTVSPost2010PropOp31
 70
     1
102
RTVSPost2010Prop32
280
     0
102
RTVSPost2010PropOp32
 70
     1
102
RTVSPost2010Prop33
280
     0
102
RTVSPost2010PropOp33
 70
     1
102
RTVSPost2010Prop34
280
     0
102
RTVSPost2010PropOp34
 70
     1
102
RTVSPost2010Prop35
280
     0
102
RTVSPost2010PropOp35
 70
     1
102
RTVSPost2010Prop36
280
     0
102
RTVSPost2010PropOp36
 70
     1
102
RTVSPost2010Prop37
 90
       50
102
RTVSPost2010PropOp37
 70
     1
102
RTVSPost2010Prop38
140
0.0
102
RTVSPost2010PropOp38
 70
     1
102
RTVSPost2010Prop39
140
1.0
102
RTVSPost2010PropOp39
 70
     1
102
RTVSPost2010Prop40
 90
        0
102
RTVSPost2010PropOp40
 70
     1
102
RTVSPost2010Prop41ColorIndex
 90
       18
102
RTVSPost2010Prop41ColorRGB
 90
        0
102
RTVSPost2010PropOp41
 70
     1
102
RTVSPost2010Prop42
 90
       50
102
RTVSPost2010PropOp42
 70
     1
102
RTVSPost2010Prop43
 90
        3
102
RTVSPost2010PropOp43
 70
     1
102
RTVSPost2010Prop44ColorIndex
 90
        5
102
RTVSPost2010Prop44ColorRGB
 90
      255
102
RTVSPost2010PropOp44
 70
     1
102
RTVSPost2010Prop45
280
     0
102
RTVSPost2010PropOp45
 70
     1
102
RTVSPost2010Prop46
 90
       50
102
RTVSPost2010PropOp46
 70
     1
102
RTVSPost2010Prop47
 90
       50
102
RTVSPost2010PropOp47
 70
     1
102
RTVSPost2010Prop48
 90
       50
102
RTVSPost2010PropOp48
 70
     1
102
RTVSPost2010Prop49
280
     0
102
RTVSPost2010PropOp49
 70
     1
102
RTVSPost2010Prop50
 90
       50
102
RTVSPost2010PropOp50
 70
     1
102
RTVSPost2010Prop51ColorIndex
 90
      256
102
RTVSPost2010Prop51ColorRGB
 90
-16777216
102
RTVSPost2010PropOp51
 70
     0
102
RTVSPost2010Prop52
140
1.0
102
RTVSPost2010PropOp52
 70
     0
102
RTVSPost2010Prop53
 90
        2
102
RTVSPost2010PropOp53
 70
     1
102
RTVSPost2010Prop54
  1
strokes_ogs.tif
102
RTVSPost2010PropOp54
 70
     1
102
RTVSPost2010Prop55
280
     0
102
RTVSPost2010PropOp55
 70
     1
102
RTVSPost2010Prop56
140
1.0
102
RTVSPost2010PropOp56
 70
     1
102
RTVSPost2010Prop57
140
1.0
102
RTVSPost2010PropOp57
 70
     1
  0
XRECORD
  5
CC
102
{ACAD_REACTORS
330
CB
102
}
330
CB
100
AcDbXrecord
280
     1
102
RTVSPost2010Prop28
280
     0
102
RTVSPost2010PropOp28
 70
     1
102
RTVSPost2010Prop29
280
     1
102
RTVSPost2010PropOp29
 70
     1
102
RTVSPost2010Prop30
280
     1
102
RTVSPost2010PropOp30
 70
     1
102
RTVSPost2010Prop31
280
     0
102
RTVSPost2010PropOp31
 70
     1
102
RTVSPost2010Prop32
280
     0
102
RTVSPost2010PropOp32
 70
     1
102
RTVSPost2010Prop33
280
     0
102
RTVSPost2010PropOp33
 70
     1
102
RTVSPost2010Prop34
280
     0
102
RTVSPost2010PropOp34
 70
     1
102
RTVSPost2010Prop35
280
     0
102
RTVSPost2010PropOp35
 70
     1
102
RTVSPost2010Prop36
280
     0
102
RTVSPost2010PropOp36
 70
     1
102
RTVSPost2010Prop37
 90
       50
102
RTVSPost2010PropOp37
 70
     1
102
RTVSPost2010Prop38
140
0.0
102
RTVSPost2010PropOp38
 70
     1
102
RTVSPost2010Prop39
140
1.0
102
RTVSPost2010PropOp39
 70
     1
102
RTVSPost2010Prop40
 90
        0
102
RTVSPost2010PropOp40
 70
     1
102
RTVSPost2010Prop41ColorIndex
 90
       18
102
RTVSPost2010Prop41ColorRGB
 90
        0
102
RTVSPost2010PropOp41
 70
     1
102
RTVSPost2010Prop42
 90
       50
102
RTVSPost2010PropOp42
 70
     1
102
RTVSPost2010Prop43
 90
        3
102
RTVSPost2010PropOp43
 70
     1
102
RTVSPost2010Prop44ColorIndex
 90
        5
102
RTVSPost2010Prop44ColorRGB
 90
      255
102
RTVSPost2010PropOp44
 70
     1
102
RTVSPost2010Prop45
280
     0
102
RTVSPost2010PropOp45
 70
     1
102
RTVSPost2010Prop46
 90
       50
102
RTVSPost2010PropOp46
 70
     1
102
RTVSPost2010Prop47
 90
       50
102
RTVSPost2010PropOp47
 70
     1
102
RTVSPost2010Prop48
 90
       50
102
RTVSPost2010PropOp48
 70
     1
102
RTVSPost2010Prop49
280
     0
102
RTVSPost2010PropOp49
 70
     1
102
RTVSPost2010Prop50
 90
       50
102
RTVSPost2010PropOp50
 70
     1
102
RTVSPost2010Prop51ColorIndex
 90
      256
102
RTVSPost2010Prop51ColorRGB
 90
-16777216
102
RTVSPost2010PropOp51
 70
     0
102
RTVSPost2010Prop52
140
1.0
102
RTVSPost2010PropOp52
 70
     0
102
RTVSPost2010Prop53
 90
        2
102
RTVSPost2010PropOp53
 70
     1
102
RTVSPost2010Prop54
  1
strokes_ogs.tif
102
RTVSPost2010PropOp54
 70
     1
102
RTVSPost2010Prop55
280
     0
102
RTVSPost2010PropOp55
 70
     1
102
RTVSPost2010Prop56
140
1.0
102
RTVSPost2010PropOp56
 70
     1
102
RTVSPost2010Prop57
140
1.0
102
RTVSPost2010PropOp57
 70
     1
  0
XRECORD
  5
CE
102
{ACAD_REACTORS
330
CD
102
}
330
CD
100
AcDbXrecord
280
     1
102
RTVSPost2010Prop28
280
     0
102
RTVSPost2010PropOp28
 70
     1
102
RTVSPost2010Prop29
280
     1
102
RTVSPost2010PropOp29
 70
     1
102
RTVSPost2010Prop30
280
     1
102
RTVSPost2010PropOp30
 70
     1
102
RTVSPost2010Prop31
280
     0
102
RTVSPost2010PropOp31
 70
     1
102
RTVSPost2010Prop32
280
     0
102
RTVSPost2010PropOp32
 70
     1
102
RTVSPost2010Prop33
280
     0
102
RTVSPost2010PropOp33
 70
     1
102
RTVSPost2010Prop34
280
     0
102
RTVSPost2010PropOp34
 70
     1
102
RTVSPost2010Prop35
280
     0
102
RTVSPost2010PropOp35
 70
     1
102
RTVSPost2010Prop36
280
     0
102
RTVSPost2010PropOp36
 70
     1
102
RTVSPost2010Prop37
 90
       50
102
RTVSPost2010PropOp37
 70
     1
102
RTVSPost2010Prop38
140
0.0
102
RTVSPost2010PropOp38
 70
     1
102
RTVSPost2010Prop39
140
1.0
102
RTVSPost2010PropOp39
 70
     1
102
RTVSPost2010Prop40
 90
        0
102
RTVSPost2010PropOp40
 70
     1
102
RTVSPost2010Prop41ColorIndex
 90
       18
102
RTVSPost2010Prop41ColorRGB
 90
        0
102
RTVSPost2010PropOp41
 70
     1
102
RTVSPost2010Prop42
 90
       50
102
RTVSPost2010PropOp42
 70
     1
102
RTVSPost2010Prop43
 90
        3
102
RTVSPost2010PropOp43
 70
     1
102
RTVSPost2010Prop44ColorIndex
 90
        5
102
RTVSPost2010Prop44ColorRGB
 90
      255
102
RTVSPost2010PropOp44
 70
     1
102
RTVSPost2010Prop45
280
     0
102
RTVSPost2010PropOp45
 70
     1
102
RTVSPost2010Prop46
 90
       50
102
RTVSPost2010PropOp46
 70
     1
102
RTVSPost2010Prop47
 90
       50
102
RTVSPost2010PropOp47
 70
     1
102
RTVSPost2010Prop48
 90
       50
102
RTVSPost2010PropOp48
 70
     1
102
RTVSPost2010Prop49
280
     0
102
RTVSPost2010PropOp49
 70
     1
102
RTVSPost2010Prop50
 90
       50
102
RTVSPost2010PropOp50
 70
     1
102
RTVSPost2010Prop51ColorIndex
 90
      256
102
RTVSPost2010Prop51ColorRGB
 90
-16777216
102
RTVSPost2010PropOp51
 70
     0
102
RTVSPost2010Prop52
140
1.0
102
RTVSPost2010PropOp52
 70
     0
102
RTVSPost2010Prop53
 90
        2
102
RTVSPost2010PropOp53
 70
     1
102
RTVSPost2010Prop54
  1
strokes_ogs.tif
102
RTVSPost2010PropOp54
 70
     1
102
RTVSPost2010Prop55
280
     0
102
RTVSPost2010PropOp55
 70
     1
102
RTVSPost2010Prop56
140
1.0
102
RTVSPost2010PropOp56
 70
     1
102
RTVSPost2010Prop57
140
1.0
102
RTVSPost2010PropOp57
 70
     1
  0
XRECORD
  5
D0
102
{ACAD_REACTORS
330
CF
102
}
330
CF
100
AcDbXrecord
280
     1
102
RTVSPost2010Prop28
280
     0
102
RTVSPost2010PropOp28
 70
     1
102
RTVSPost2010Prop29
280
     1
102
RTVSPost2010PropOp29
 70
     1
102
RTVSPost2010Prop30
280
     1
102
RTVSPost2010PropOp30
 70
     1
102
RTVSPost2010Prop31
280
     0
102
RTVSPost2010PropOp31
 70
     1
102
RTVSPost2010Prop32
280
     0
102
RTVSPost2010PropOp32
 70
     1
102
RTVSPost2010Prop33
280
     0
102
RTVSPost2010PropOp33
 70
     1
102
RTVSPost2010Prop34
280
     0
102
RTVSPost2010PropOp34
 70
     1
102
RTVSPost2010Prop35
280
     0
102
RTVSPost2010PropOp35
 70
     1
102
RTVSPost2010Prop36
280
     0
102
RTVSPost2010PropOp36
 70
     1
102
RTVSPost2010Prop37
 90
       50
102
RTVSPost2010PropOp37
 70
     1
102
RTVSPost2010Prop38
140
0.0
102
RTVSPost2010PropOp38
 70
     1
102
RTVSPost2010Prop39
140
1.0
102
RTVSPost2010PropOp39
 70
     1
102
RTVSPost2010Prop40
 90
        0
102
RTVSPost2010PropOp40
 70
     1
102
RTVSPost2010Prop41ColorIndex
 90
       18
102
RTVSPost2010Prop41ColorRGB
 90
        0
102
RTVSPost2010PropOp41
 70
     1
102
RTVSPost2010Prop42
 90
       50
102
RTVSPost2010PropOp42
 70
     1
102
RTVSPost2010Prop43
 90
        3
102
RTVSPost2010PropOp43
 70
     1
102
RTVSPost2010Prop44ColorIndex
 90
        5
102
RTVSPost2010Prop44ColorRGB
 90
      255
102
RTVSPost2010PropOp44
 70
     1
102
RTVSPost2010Prop45
280
     0
102
RTVSPost2010PropOp45
 70
     1
102
RTVSPost2010Prop46
 90
       50
102
RTVSPost2010PropOp46
 70
     1
102
RTVSPost2010Prop47
 90
       50
102
RTVSPost2010PropOp47
 70
     1
102
RTVSPost2010Prop48
 90
       50
102
RTVSPost2010PropOp48
 70
     1
102
RTVSPost2010Prop49
280
     0
102
RTVSPost2010PropOp49
 70
     1
102
RTVSPost2010Prop50
 90
       50
102
RTVSPost2010PropOp50
 70
     1
102
RTVSPost2010Prop51ColorIndex
 90
      256
102
RTVSPost2010Prop51ColorRGB
 90
-16777216
102
RTVSPost2010PropOp51
 70
     0
102
RTVSPost2010Prop52
140
1.0
102
RTVSPost2010PropOp52
 70
     0
102
RTVSPost2010Prop53
 90
        2
102
RTVSPost2010PropOp53
 70
     1
102
RTVSPost2010Prop54
  1
strokes_ogs.tif
102
RTVSPost2010PropOp54
 70
     1
102
RTVSPost2010Prop55
280
     0
102
RTVSPost2010PropOp55
 70
     1
102
RTVSPost2010Prop56
140
1.0
102
RTVSPost2010PropOp56
 70
     1
102
RTVSPost2010Prop57
140
1.0
102
RTVSPost2010PropOp57
 70
     1
  0
XRECORD
  5
D2
102
{ACAD_REACTORS
330
D1
102
}
330
D1
100
AcDbXrecord
280
     1
102
RTVSPost2010Prop28
280
     0
102
RTVSPost2010PropOp28
 70
     1
102
RTVSPost2010Prop29
280
     1
102
RTVSPost2010PropOp29
 70
     1
102
RTVSPost2010Prop30
280
     1
102
RTVSPost2010PropOp30
 70
     1
102
RTVSPost2010Prop31
280
     0
102
RTVSPost2010PropOp31
 70
     1
102
RTVSPost2010Prop32
280
     0
102
RTVSPost2010PropOp32
 70
     1
102
RTVSPost2010Prop33
280
     0
102
RTVSPost2010PropOp33
 70
     1
102
RTVSPost2010Prop34
280
     0
102
RTVSPost2010PropOp34
 70
     1
102
RTVSPost2010Prop35
280
     0
102
RTVSPost2010PropOp35
 70
     1
102
RTVSPost2010Prop36
280
     0
102
RTVSPost2010PropOp36
 70
     1
102
RTVSPost2010Prop37
 90
       50
102
RTVSPost2010PropOp37
 70
     1
102
RTVSPost2010Prop38
140
0.0
102
RTVSPost2010PropOp38
 70
     1
102
RTVSPost2010Prop39
140
1.0
102
RTVSPost2010PropOp39
 70
     1
102
RTVSPost2010Prop40
 90
        0
102
RTVSPost2010PropOp40
 70
     1
102
RTVSPost2010Prop41ColorIndex
 90
       18
102
RTVSPost2010Prop41ColorRGB
 90
        0
102
RTVSPost2010PropOp41
 70
     1
102
RTVSPost2010Prop42
 90
       50
102
RTVSPost2010PropOp42
 70
     1
102
RTVSPost2010Prop43
 90
        3
102
RTVSPost2010PropOp43
 70
     1
102
RTVSPost2010Prop44ColorIndex
 90
        5
102
RTVSPost2010Prop44ColorRGB
 90
      255
102
RTVSPost2010PropOp44
 70
     1
102
RTVSPost2010Prop45
280
     0
102
RTVSPost2010PropOp45
 70
     1
102
RTVSPost2010Prop46
 90
       50
102
RTVSPost2010PropOp46
 70
     1
102
RTVSPost2010Prop47
 90
       50
102
RTVSPost2010PropOp47
 70
     1
102
RTVSPost2010Prop48
 90
       50
102
RTVSPost2010PropOp48
 70
     1
102
RTVSPost2010Prop49
280
     0
102
RTVSPost2010PropOp49
 70
     1
102
RTVSPost2010Prop50
 90
       50
102
RTVSPost2010PropOp50
 70
     1
102
RTVSPost2010Prop51ColorIndex
 90
      256
102
RTVSPost2010Prop51ColorRGB
 90
-16777216
102
RTVSPost2010PropOp51
 70
     0
102
RTVSPost2010Prop52
140
1.0
102
RTVSPost2010PropOp52
 70
     0
102
RTVSPost2010Prop53
 90
        2
102
RTVSPost2010PropOp53
 70
     1
102
RTVSPost2010Prop54
  1
strokes_ogs.tif
102
RTVSPost2010PropOp54
 70
     1
102
RTVSPost2010Prop55
280
     0
102
RTVSPost2010PropOp55
 70
     1
102
RTVSPost2010Prop56
140
1.0
102
RTVSPost2010PropOp56
 70
     1
102
RTVSPost2010Prop57
140
1.0
102
RTVSPost2010PropOp57
 70
     1
  0
XRECORD
  5
D8
102
{ACAD_REACTORS
330
D7
102
}
330
D7
100
AcDbXrecord
280
     1
102
RTVSPost2010Prop28
280
     0
102
RTVSPost2010PropOp28
 70
     1
102
RTVSPost2010Prop29
280
     1
102
RTVSPost2010PropOp29
 70
     1
102
RTVSPost2010Prop30
280
     1
102
RTVSPost2010PropOp30
 70
     1
102
RTVSPost2010Prop31
280
     0
102
RTVSPost2010PropOp31
 70
     1
102
RTVSPost2010Prop32
280
     0
102
RTVSPost2010PropOp32
 70
     1
102
RTVSPost2010Prop33
280
     0
102
RTVSPost2010PropOp33
 70
     1
102
RTVSPost2010Prop34
280
     0
102
RTVSPost2010PropOp34
 70
     1
102
RTVSPost2010Prop35
280
     0
102
RTVSPost2010PropOp35
 70
     1
102
RTVSPost2010Prop36
280
     0
102
RTVSPost2010PropOp36
 70
     1
102
RTVSPost2010Prop37
 90
       50
102
RTVSPost2010PropOp37
 70
     1
102
RTVSPost2010Prop38
140
0.0
102
RTVSPost2010PropOp38
 70
     1
102
RTVSPost2010Prop39
140
1.0
102
RTVSPost2010PropOp39
 70
     1
102
RTVSPost2010Prop40
 90
        0
102
RTVSPost2010PropOp40
 70
     1
102
RTVSPost2010Prop41ColorIndex
 90
       18
102
RTVSPost2010Prop41ColorRGB
 90
        0
102
RTVSPost2010PropOp41
 70
     1
102
RTVSPost2010Prop42
 90
       50
102
RTVSPost2010PropOp42
 70
     1
102
RTVSPost2010Prop43
 90
        3
102
RTVSPost2010PropOp43
 70
     1
102
RTVSPost2010Prop44ColorIndex
 90
        5
102
RTVSPost2010Prop44ColorRGB
 90
      255
102
RTVSPost2010PropOp44
 70
     1
102
RTVSPost2010Prop45
280
     0
102
RTVSPost2010PropOp45
 70
     1
102
RTVSPost2010Prop46
 90
       50
102
RTVSPost2010PropOp46
 70
     1
102
RTVSPost2010Prop47
 90
       50
102
RTVSPost2010PropOp47
 70
     1
102
RTVSPost2010Prop48
 90
       50
102
RTVSPost2010PropOp48
 70
     1
102
RTVSPost2010Prop49
280
     0
102
RTVSPost2010PropOp49
 70
     1
102
RTVSPost2010Prop50
 90
       50
102
RTVSPost2010PropOp50
 70
     1
102
RTVSPost2010Prop51ColorIndex
 90
      256
102
RTVSPost2010Prop51ColorRGB
 90
-16777216
102
RTVSPost2010PropOp51
 70
     0
102
RTVSPost2010Prop52
140
1.0
102
RTVSPost2010PropOp52
 70
     0
102
RTVSPost2010Prop53
 90
        2
102
RTVSPost2010PropOp53
 70
     1
102
RTVSPost2010Prop54
  1
strokes_ogs.tif
102
RTVSPost2010PropOp54
 70
     1
102
RTVSPost2010Prop55
280
     0
102
RTVSPost2010PropOp55
 70
     1
102
RTVSPost2010Prop56
140
1.0
102
RTVSPost2010PropOp56
 70
     1
102
RTVSPost2010Prop57
140
1.0
102
RTVSPost2010PropOp57
 70
     1
  0
XRECORD
  5
EC
102
{ACAD_REACTORS
330
EB
102
}
330
EB
100
AcDbXrecord
280
     1
102
RTVSPost2010Prop28
280
     0
102
RTVSPost2010PropOp28
 70
     0
102
RTVSPost2010Prop29
280
     1
102
RTVSPost2010PropOp29
 70
     0
102
RTVSPost2010Prop30
280
     1
102
RTVSPost2010PropOp30
 70
     0
102
RTVSPost2010Prop31
280
     0
102
RTVSPost2010PropOp31
 70
     0
102
RTVSPost2010Prop32
280
     0
102
RTVSPost2010PropOp32
 70
     0
102
RTVSPost2010Prop33
280
     0
102
RTVSPost2010PropOp33
 70
     0
102
RTVSPost2010Prop34
280
     0
102
RTVSPost2010PropOp34
 70
     0
102
RTVSPost2010Prop35
280
     0
102
RTVSPost2010PropOp35
 70
     0
102
RTVSPost2010Prop36
280
     0
102
RTVSPost2010PropOp36
 70
     0
102
RTVSPost2010Prop37
 90
       50
102
RTVSPost2010PropOp37
 70
     0
102
RTVSPost2010Prop38
140
0.0
102
RTVSPost2010PropOp38
 70
     0
102
RTVSPost2010Prop39
140
1.0
102
RTVSPost2010PropOp39
 70
     0
102
RTVSPost2010Prop40
 90
        0
102
RTVSPost2010PropOp40
 70
     0
102
RTVSPost2010Prop41ColorIndex
 90
       18
102
RTVSPost2010Prop41ColorRGB
 90
        0
102
RTVSPost2010PropOp41
 70
     0
102
RTVSPost2010Prop42
 90
       50
102
RTVSPost2010PropOp42
 70
     0
102
RTVSPost2010Prop43
 90
        3
102
RTVSPost2010PropOp43
 70
     0
102
RTVSPost2010Prop44ColorIndex
 90
        5
102
RTVSPost2010Prop44ColorRGB
 90
      255
102
RTVSPost2010PropOp44
 70
     0
102
RTVSPost2010Prop45
280
     0
102
RTVSPost2010PropOp45
 70
     0
102
RTVSPost2010Prop46
 90
       50
102
RTVSPost2010PropOp46
 70
     0
102
RTVSPost2010Prop47
 90
       50
102
RTVSPost2010PropOp47
 70
     0
102
RTVSPost2010Prop48
 90
       50
102
RTVSPost2010PropOp48
 70
     0
102
RTVSPost2010Prop49
280
     0
102
RTVSPost2010PropOp49
 70
     0
102
RTVSPost2010Prop50
 90
       50
102
RTVSPost2010PropOp50
 70
     0
102
RTVSPost2010Prop51ColorIndex
 90
      256
102
RTVSPost2010Prop51ColorRGB
 90
-16777216
102
RTVSPost2010PropOp51
 70
     0
102
RTVSPost2010Prop52
140
1.0
102
RTVSPost2010PropOp52
 70
     0
102
RTVSPost2010Prop53
 90
        2
102
RTVSPost2010PropOp53
 70
     0
102
RTVSPost2010Prop54
  1
strokes_ogs.tif
102
RTVSPost2010PropOp54
 70
     0
102
RTVSPost2010Prop55
280
     0
102
RTVSPost2010PropOp55
 70
     0
102
RTVSPost2010Prop56
140
1.0
102
RTVSPost2010PropOp56
 70
     0
102
RTVSPost2010Prop57
140
1.0
102
RTVSPost2010PropOp57
 70
     0
  0
XRECORD
  5
E6
102
{ACAD_REACTORS
330
E5
102
}
330
E5
100
AcDbXrecord
280
     1
102
RTVSPost2010Prop28
280
     0
102
RTVSPost2010PropOp28
 70
     1
102
RTVSPost2010Prop29
280
     1
102
RTVSPost2010PropOp29
 70
     1
102
RTVSPost2010Prop30
280
     1
102
RTVSPost2010PropOp30
 70
     1
102
RTVSPost2010Prop31
280
     0
102
RTVSPost2010PropOp31
 70
     1
102
RTVSPost2010Prop32
280
     0
102
RTVSPost2010PropOp32
 70
     1
102
RTVSPost2010Prop33
280
     0
102
RTVSPost2010PropOp33
 70
     1
102
RTVSPost2010Prop34
280
     0
102
RTVSPost2010PropOp34
 70
     1
102
RTVSPost2010Prop35
280
     0
102
RTVSPost2010PropOp35
 70
     1
102
RTVSPost2010Prop36
280
     0
102
RTVSPost2010PropOp36
 70
     1
102
RTVSPost2010Prop37
 90
       50
102
RTVSPost2010PropOp37
 70
     1
102
RTVSPost2010Prop38
140
0.0
102
RTVSPost2010PropOp38
 70
     1
102
RTVSPost2010Prop39
140
1.0
102
RTVSPost2010PropOp39
 70
     1
102
RTVSPost2010Prop40
 90
        0
102
RTVSPost2010PropOp40
 70
     1
102
RTVSPost2010Prop41ColorIndex
 90
       18
102
RTVSPost2010Prop41ColorRGB
 90
        0
102
RTVSPost2010PropOp41
 70
     1
102
RTVSPost2010Prop42
 90
       50
102
RTVSPost2010PropOp42
 70
     1
102
RTVSPost2010Prop43
 90
        3
102
RTVSPost2010PropOp43
 70
     1
102
RTVSPost2010Prop44ColorIndex
 90
        5
102
RTVSPost2010Prop44ColorRGB
 90
      255
102
RTVSPost2010PropOp44
 70
     1
102
RTVSPost2010Prop45
280
     0
102
RTVSPost2010PropOp45
 70
     1
102
RTVSPost2010Prop46
 90
       50
102
RTVSPost2010PropOp46
 70
     1
102
RTVSPost2010Prop47
 90
       50
102
RTVSPost2010PropOp47
 70
     1
102
RTVSPost2010Prop48
 90
       50
102
RTVSPost2010PropOp48
 70
     1
102
RTVSPost2010Prop49
280
     0
102
RTVSPost2010PropOp49
 70
     1
102
RTVSPost2010Prop50
 90
       50
102
RTVSPost2010PropOp50
 70
     1
102
RTVSPost2010Prop51ColorIndex
 90
      256
102
RTVSPost2010Prop51ColorRGB
 90
-16777216
102
RTVSPost2010PropOp51
 70
     0
102
RTVSPost2010Prop52
140
1.0
102
RTVSPost2010PropOp52
 70
     0
102
RTVSPost2010Prop53
 90
        2
102
RTVSPost2010PropOp53
 70
     1
102
RTVSPost2010Prop54
  1
strokes_ogs.tif
102
RTVSPost2010PropOp54
 70
     1
102
RTVSPost2010Prop55
280
     0
102
RTVSPost2010PropOp55
 70
     1
102
RTVSPost2010Prop56
140
1.0
102
RTVSPost2010PropOp56
 70
     1
102
RTVSPost2010Prop57
140
1.0
102
RTVSPost2010PropOp57
 70
     1
  0
XRECORD
  5
EE
102
{ACAD_REACTORS
330
ED
102
}
330
ED
100
AcDbXrecord
280
     1
102
RTVSPost2010Prop28
280
     0
102
RTVSPost2010PropOp28
 70
     0
102
RTVSPost2010Prop29
280
     1
102
RTVSPost2010PropOp29
 70
     0
102
RTVSPost2010Prop30
280
     1
102
RTVSPost2010PropOp30
 70
     0
102
RTVSPost2010Prop31
280
     0
102
RTVSPost2010PropOp31
 70
     0
102
RTVSPost2010Prop32
280
     0
102
RTVSPost2010PropOp32
 70
     0
102
RTVSPost2010Prop33
280
     0
102
RTVSPost2010PropOp33
 70
     0
102
RTVSPost2010Prop34
280
     0
102
RTVSPost2010PropOp34
 70
     0
102
RTVSPost2010Prop35
280
     0
102
RTVSPost2010PropOp35
 70
     0
102
RTVSPost2010Prop36
280
     0
102
RTVSPost2010PropOp36
 70
     0
102
RTVSPost2010Prop37
 90
       50
102
RTVSPost2010PropOp37
 70
     0
102
RTVSPost2010Prop38
140
0.0
102
RTVSPost2010PropOp38
 70
     0
102
RTVSPost2010Prop39
140
1.0
102
RTVSPost2010PropOp39
 70
     0
102
RTVSPost2010Prop40
 90
        0
102
RTVSPost2010PropOp40
 70
     0
102
RTVSPost2010Prop41ColorIndex
 90
       18
102
RTVSPost2010Prop41ColorRGB
 90
        0
102
RTVSPost2010PropOp41
 70
     0
102
RTVSPost2010Prop42
 90
       50
102
RTVSPost2010PropOp42
 70
     0
102
RTVSPost2010Prop43
 90
        3
102
RTVSPost2010PropOp43
 70
     0
102
RTVSPost2010Prop44ColorIndex
 90
        5
102
RTVSPost2010Prop44ColorRGB
 90
      255
102
RTVSPost2010PropOp44
 70
     0
102
RTVSPost2010Prop45
280
     0
102
RTVSPost2010PropOp45
 70
     0
102
RTVSPost2010Prop46
 90
       50
102
RTVSPost2010PropOp46
 70
     0
102
RTVSPost2010Prop47
 90
       50
102
RTVSPost2010PropOp47
 70
     0
102
RTVSPost2010Prop48
 90
       50
102
RTVSPost2010PropOp48
 70
     0
102
RTVSPost2010Prop49
280
     0
102
RTVSPost2010PropOp49
 70
     0
102
RTVSPost2010Prop50
 90
       50
102
RTVSPost2010PropOp50
 70
     0
102
RTVSPost2010Prop51ColorIndex
 90
      256
102
RTVSPost2010Prop51ColorRGB
 90
-16777216
102
RTVSPost2010PropOp51
 70
     0
102
RTVSPost2010Prop52
140
1.0
102
RTVSPost2010PropOp52
 70
     0
102
RTVSPost2010Prop53
 90
        2
102
RTVSPost2010PropOp53
 70
     0
102
RTVSPost2010Prop54
  1
strokes_ogs.tif
102
RTVSPost2010PropOp54
 70
     0
102
RTVSPost2010Prop55
280
     0
102
RTVSPost2010PropOp55
 70
     0
102
RTVSPost2010Prop56
140
1.0
102
RTVSPost2010PropOp56
 70
     0
102
RTVSPost2010Prop57
140
1.0
102
RTVSPost2010PropOp57
 70
     0
  0
XRECORD
  5
DC
102
{ACAD_REACTORS
330
DB
102
}
330
DB
100
AcDbXrecord
280
     1
102
RTVSPost2010Prop28
280
     0
102
RTVSPost2010PropOp28
 70
     1
102
RTVSPost2010Prop29
280
     1
102
RTVSPost2010PropOp29
 70
     1
102
RTVSPost2010Prop30
280
     1
102
RTVSPost2010PropOp30
 70
     1
102
RTVSPost2010Prop31
280
     0
102
RTVSPost2010PropOp31
 70
     1
102
RTVSPost2010Prop32
280
     0
102
RTVSPost2010PropOp32
 70
     1
102
RTVSPost2010Prop33
280
     0
102
RTVSPost2010PropOp33
 70
     1
102
RTVSPost2010Prop34
280
     0
102
RTVSPost2010PropOp34
 70
     1
102
RTVSPost2010Prop35
280
     0
102
RTVSPost2010PropOp35
 70
     1
102
RTVSPost2010Prop36
280
     0
102
RTVSPost2010PropOp36
 70
     1
102
RTVSPost2010Prop37
 90
       50
102
RTVSPost2010PropOp37
 70
     1
102
RTVSPost2010Prop38
140
0.0
102
RTVSPost2010PropOp38
 70
     1
102
RTVSPost2010Prop39
140
1.0
102
RTVSPost2010PropOp39
 70
     1
102
RTVSPost2010Prop40
 90
        0
102
RTVSPost2010PropOp40
 70
     1
102
RTVSPost2010Prop41ColorIndex
 90
       18
102
RTVSPost2010Prop41ColorRGB
 90
        0
102
RTVSPost2010PropOp41
 70
     1
102
RTVSPost2010Prop42
 90
       50
102
RTVSPost2010PropOp42
 70
     1
102
RTVSPost2010Prop43
 90
        3
102
RTVSPost2010PropOp43
 70
     1
102
RTVSPost2010Prop44ColorIndex
 90
        5
102
RTVSPost2010Prop44ColorRGB
 90
      255
102
RTVSPost2010PropOp44
 70
     1
102
RTVSPost2010Prop45
280
     0
102
RTVSPost2010PropOp45
 70
     1
102
RTVSPost2010Prop46
 90
       50
102
RTVSPost2010PropOp46
 70
     1
102
RTVSPost2010Prop47
 90
       50
102
RTVSPost2010PropOp47
 70
     1
102
RTVSPost2010Prop48
 90
       50
102
RTVSPost2010PropOp48
 70
     1
102
RTVSPost2010Prop49
280
     0
102
RTVSPost2010PropOp49
 70
     1
102
RTVSPost2010Prop50
 90
       50
102
RTVSPost2010PropOp50
 70
     1
102
RTVSPost2010Prop51ColorIndex
 90
      256
102
RTVSPost2010Prop51ColorRGB
 90
-16777216
102
RTVSPost2010PropOp51
 70
     0
102
RTVSPost2010Prop52
140
1.0
102
RTVSPost2010PropOp52
 70
     0
102
RTVSPost2010Prop53
 90
        2
102
RTVSPost2010PropOp53
 70
     1
102
RTVSPost2010Prop54
  1
strokes_ogs.tif
102
RTVSPost2010PropOp54
 70
     1
102
RTVSPost2010Prop55
280
     0
102
RTVSPost2010PropOp55
 70
     1
102
RTVSPost2010Prop56
140
1.0
102
RTVSPost2010PropOp56
 70
     1
102
RTVSPost2010Prop57
140
1.0
102
RTVSPost2010PropOp57
 70
     1
  0
XRECORD
  5
FA
102
{ACAD_REACTORS
330
F9
102
}
330
F9
100
AcDbXrecord
280
     1
102
RTVSPost2010Prop28
280
     0
102
RTVSPost2010PropOp28
 70
     1
102
RTVSPost2010Prop29
280
     1
102
RTVSPost2010PropOp29
 70
     1
102
RTVSPost2010Prop30
280
     1
102
RTVSPost2010PropOp30
 70
     1
102
RTVSPost2010Prop31
280
     0
102
RTVSPost2010PropOp31
 70
     1
102
RTVSPost2010Prop32
280
     0
102
RTVSPost2010PropOp32
 70
     1
102
RTVSPost2010Prop33
280
     0
102
RTVSPost2010PropOp33
 70
     1
102
RTVSPost2010Prop34
280
     0
102
RTVSPost2010PropOp34
 70
     1
102
RTVSPost2010Prop35
280
     0
102
RTVSPost2010PropOp35
 70
     1
102
RTVSPost2010Prop36
280
     0
102
RTVSPost2010PropOp36
 70
     1
102
RTVSPost2010Prop37
 90
       50
102
RTVSPost2010PropOp37
 70
     1
102
RTVSPost2010Prop38
140
0.0
102
RTVSPost2010PropOp38
 70
     1
102
RTVSPost2010Prop39
140
1.0
102
RTVSPost2010PropOp39
 70
     1
102
RTVSPost2010Prop40
 90
        0
102
RTVSPost2010PropOp40
 70
     1
102
RTVSPost2010Prop41ColorIndex
 90
       18
102
RTVSPost2010Prop41ColorRGB
 90
        0
102
RTVSPost2010PropOp41
 70
     1
102
RTVSPost2010Prop42
 90
       50
102
RTVSPost2010PropOp42
 70
     1
102
RTVSPost2010Prop43
 90
        3
102
RTVSPost2010PropOp43
 70
     1
102
RTVSPost2010Prop44ColorIndex
 90
        5
102
RTVSPost2010Prop44ColorRGB
 90
      255
102
RTVSPost2010PropOp44
 70
     1
102
RTVSPost2010Prop45
280
     0
102
RTVSPost2010PropOp45
 70
     1
102
RTVSPost2010Prop46
 90
       50
102
RTVSPost2010PropOp46
 70
     1
102
RTVSPost2010Prop47
 90
       50
102
RTVSPost2010PropOp47
 70
     1
102
RTVSPost2010Prop48
 90
       50
102
RTVSPost2010PropOp48
 70
     1
102
RTVSPost2010Prop49
280
     0
102
RTVSPost2010PropOp49
 70
     1
102
RTVSPost2010Prop50
 90
       50
102
RTVSPost2010PropOp50
 70
     1
102
RTVSPost2010Prop51ColorIndex
 90
      256
102
RTVSPost2010Prop51ColorRGB
 90
-16777216
102
RTVSPost2010PropOp51
 70
     0
102
RTVSPost2010Prop52
140
1.0
102
RTVSPost2010PropOp52
 70
     0
102
RTVSPost2010Prop53
 90
        2
102
RTVSPost2010PropOp53
 70
     1
102
RTVSPost2010Prop54
  1
strokes_ogs.tif
102
RTVSPost2010PropOp54
 70
     1
102
RTVSPost2010Prop55
280
     0
102
RTVSPost2010PropOp55
 70
     1
102
RTVSPost2010Prop56
140
1.0
102
RTVSPost2010PropOp56
 70
     1
102
RTVSPost2010Prop57
140
1.0
102
RTVSPost2010PropOp57
 70
     1
  0
XRECORD
  5
F8
102
{ACAD_REACTORS
330
F7
102
}
330
F7
100
AcDbXrecord
280
     1
102
RTVSPost2010Prop28
280
     0
102
RTVSPost2010PropOp28
 70
     1
102
RTVSPost2010Prop29
280
     1
102
RTVSPost2010PropOp29
 70
     1
102
RTVSPost2010Prop30
280
     1
102
RTVSPost2010PropOp30
 70
     1
102
RTVSPost2010Prop31
280
     0
102
RTVSPost2010PropOp31
 70
     1
102
RTVSPost2010Prop32
280
     0
102
RTVSPost2010PropOp32
 70
     1
102
RTVSPost2010Prop33
280
     0
102
RTVSPost2010PropOp33
 70
     1
102
RTVSPost2010Prop34
280
     0
102
RTVSPost2010PropOp34
 70
     1
102
RTVSPost2010Prop35
280
     0
102
RTVSPost2010PropOp35
 70
     1
102
RTVSPost2010Prop36
280
     0
102
RTVSPost2010PropOp36
 70
     1
102
RTVSPost2010Prop37
 90
       50
102
RTVSPost2010PropOp37
 70
     1
102
RTVSPost2010Prop38
140
0.0
102
RTVSPost2010PropOp38
 70
     1
102
RTVSPost2010Prop39
140
1.0
102
RTVSPost2010PropOp39
 70
     1
102
RTVSPost2010Prop40
 90
        0
102
RTVSPost2010PropOp40
 70
     1
102
RTVSPost2010Prop41ColorIndex
 90
       18
102
RTVSPost2010Prop41ColorRGB
 90
        0
102
RTVSPost2010PropOp41
 70
     1
102
RTVSPost2010Prop42
 90
       50
102
RTVSPost2010PropOp42
 70
     1
102
RTVSPost2010Prop43
 90
        3
102
RTVSPost2010PropOp43
 70
     1
102
RTVSPost2010Prop44ColorIndex
 90
        5
102
RTVSPost2010Prop44ColorRGB
 90
      255
102
RTVSPost2010PropOp44
 70
     1
102
RTVSPost2010Prop45
280
     0
102
RTVSPost2010PropOp45
 70
     1
102
RTVSPost2010Prop46
 90
       50
102
RTVSPost2010PropOp46
 70
     1
102
RTVSPost2010Prop47
 90
       50
102
RTVSPost2010PropOp47
 70
     1
102
RTVSPost2010Prop48
 90
       50
102
RTVSPost2010PropOp48
 70
     1
102
RTVSPost2010Prop49
280
     0
102
RTVSPost2010PropOp49
 70
     1
102
RTVSPost2010Prop50
 90
       50
102
RTVSPost2010PropOp50
 70
     1
102
RTVSPost2010Prop51ColorIndex
 90
      256
102
RTVSPost2010Prop51ColorRGB
 90
-16777216
102
RTVSPost2010PropOp51
 70
     0
102
RTVSPost2010Prop52
140
1.0
102
RTVSPost2010PropOp52
 70
     0
102
RTVSPost2010Prop53
 90
        2
102
RTVSPost2010PropOp53
 70
     1
102
RTVSPost2010Prop54
  1
strokes_ogs.tif
102
RTVSPost2010PropOp54
 70
     1
102
RTVSPost2010Prop55
280
     0
102
RTVSPost2010PropOp55
 70
     1
102
RTVSPost2010Prop56
140
1.0
102
RTVSPost2010PropOp56
 70
     1
102
RTVSPost2010Prop57
140
1.0
102
RTVSPost2010PropOp57
 70
     1
  0
XRECORD
  5
F2
102
{ACAD_REACTORS
330
F1
102
}
330
F1
100
AcDbXrecord
280
     1
102
RTVSPost2010Prop28
280
     0
102
RTVSPost2010PropOp28
 70
     1
102
RTVSPost2010Prop29
280
     1
102
RTVSPost2010PropOp29
 70
     1
102
RTVSPost2010Prop30
280
     1
102
RTVSPost2010PropOp30
 70
     1
102
RTVSPost2010Prop31
280
     0
102
RTVSPost2010PropOp31
 70
     1
102
RTVSPost2010Prop32
280
     0
102
RTVSPost2010PropOp32
 70
     1
102
RTVSPost2010Prop33
280
     0
102
RTVSPost2010PropOp33
 70
     1
102
RTVSPost2010Prop34
280
     0
102
RTVSPost2010PropOp34
 70
     1
102
RTVSPost2010Prop35
280
     0
102
RTVSPost2010PropOp35
 70
     1
102
RTVSPost2010Prop36
280
     0
102
RTVSPost2010PropOp36
 70
     1
102
RTVSPost2010Prop37
 90
       50
102
RTVSPost2010PropOp37
 70
     1
102
RTVSPost2010Prop38
140
0.0
102
RTVSPost2010PropOp38
 70
     1
102
RTVSPost2010Prop39
140
1.0
102
RTVSPost2010PropOp39
 70
     1
102
RTVSPost2010Prop40
 90
        0
102
RTVSPost2010PropOp40
 70
     1
102
RTVSPost2010Prop41ColorIndex
 90
       18
102
RTVSPost2010Prop41ColorRGB
 90
        0
102
RTVSPost2010PropOp41
 70
     1
102
RTVSPost2010Prop42
 90
       50
102
RTVSPost2010PropOp42
 70
     1
102
RTVSPost2010Prop43
 90
        3
102
RTVSPost2010PropOp43
 70
     1
102
RTVSPost2010Prop44ColorIndex
 90
        5
102
RTVSPost2010Prop44ColorRGB
 90
      255
102
RTVSPost2010PropOp44
 70
     1
102
RTVSPost2010Prop45
280
     0
102
RTVSPost2010PropOp45
 70
     1
102
RTVSPost2010Prop46
 90
       50
102
RTVSPost2010PropOp46
 70
     1
102
RTVSPost2010Prop47
 90
       50
102
RTVSPost2010PropOp47
 70
     1
102
RTVSPost2010Prop48
 90
       50
102
RTVSPost2010PropOp48
 70
     1
102
RTVSPost2010Prop49
280
     0
102
RTVSPost2010PropOp49
 70
     1
102
RTVSPost2010Prop50
 90
       50
102
RTVSPost2010PropOp50
 70
     1
102
RTVSPost2010Prop51ColorIndex
 90
      256
102
RTVSPost2010Prop51ColorRGB
 90
-16777216
102
RTVSPost2010PropOp51
 70
     0
102
RTVSPost2010Prop52
140
1.0
102
RTVSPost2010PropOp52
 70
     0
102
RTVSPost2010Prop53
 90
        2
102
RTVSPost2010PropOp53
 70
     1
102
RTVSPost2010Prop54
  1
strokes_ogs.tif
102
RTVSPost2010PropOp54
 70
     1
102
RTVSPost2010Prop55
280
     0
102
RTVSPost2010PropOp55
 70
     1
102
RTVSPost2010Prop56
140
1.0
102
RTVSPost2010PropOp56
 70
     1
102
RTVSPost2010Prop57
140
1.0
102
RTVSPost2010PropOp57
 70
     1
  0
XRECORD
  5
F4
102
{ACAD_REACTORS
330
F3
102
}
330
F3
100
AcDbXrecord
280
     1
102
RTVSPost2010Prop28
280
     0
102
RTVSPost2010PropOp28
 70
     1
102
RTVSPost2010Prop29
280
     1
102
RTVSPost2010PropOp29
 70
     1
102
RTVSPost2010Prop30
280
     1
102
RTVSPost2010PropOp30
 70
     1
102
RTVSPost2010Prop31
280
     0
102
RTVSPost2010PropOp31
 70
     1
102
RTVSPost2010Prop32
280
     0
102
RTVSPost2010PropOp32
 70
     1
102
RTVSPost2010Prop33
280
     0
102
RTVSPost2010PropOp33
 70
     1
102
RTVSPost2010Prop34
280
     0
102
RTVSPost2010PropOp34
 70
     1
102
RTVSPost2010Prop35
280
     0
102
RTVSPost2010PropOp35
 70
     1
102
RTVSPost2010Prop36
280
     0
102
RTVSPost2010PropOp36
 70
     1
102
RTVSPost2010Prop37
 90
       50
102
RTVSPost2010PropOp37
 70
     1
102
RTVSPost2010Prop38
140
0.0
102
RTVSPost2010PropOp38
 70
     1
102
RTVSPost2010Prop39
140
1.0
102
RTVSPost2010PropOp39
 70
     1
102
RTVSPost2010Prop40
 90
        0
102
RTVSPost2010PropOp40
 70
     1
102
RTVSPost2010Prop41ColorIndex
 90
       18
102
RTVSPost2010Prop41ColorRGB
 90
        0
102
RTVSPost2010PropOp41
 70
     1
102
RTVSPost2010Prop42
 90
       50
102
RTVSPost2010PropOp42
 70
     1
102
RTVSPost2010Prop43
 90
        3
102
RTVSPost2010PropOp43
 70
     1
102
RTVSPost2010Prop44ColorIndex
 90
        5
102
RTVSPost2010Prop44ColorRGB
 90
      255
102
RTVSPost2010PropOp44
 70
     1
102
RTVSPost2010Prop45
280
     0
102
RTVSPost2010PropOp45
 70
     1
102
RTVSPost2010Prop46
 90
       50
102
RTVSPost2010PropOp46
 70
     1
102
RTVSPost2010Prop47
 90
       50
102
RTVSPost2010PropOp47
 70
     1
102
RTVSPost2010Prop48
 90
       50
102
RTVSPost2010PropOp48
 70
     1
102
RTVSPost2010Prop49
280
     0
102
RTVSPost2010PropOp49
 70
     1
102
RTVSPost2010Prop50
 90
       50
102
RTVSPost2010PropOp50
 70
     1
102
RTVSPost2010Prop51ColorIndex
 90
      256
102
RTVSPost2010Prop51ColorRGB
 90
-16777216
102
RTVSPost2010PropOp51
 70
     0
102
RTVSPost2010Prop52
140
1.0
102
RTVSPost2010PropOp52
 70
     0
102
RTVSPost2010Prop53
 90
        2
102
RTVSPost2010PropOp53
 70
     1
102
RTVSPost2010Prop54
  1
strokes_ogs.tif
102
RTVSPost2010PropOp54
 70
     1
102
RTVSPost2010Prop55
280
     0
102
RTVSPost2010PropOp55
 70
     1
102
RTVSPost2010Prop56
140
1.0
102
RTVSPost2010PropOp56
 70
     1
102
RTVSPost2010Prop57
140
1.0
102
RTVSPost2010PropOp57
 70
     1
  0
XRECORD
  5
E4
102
{ACAD_REACTORS
330
E3
102
}
330
E3
100
AcDbXrecord
280
     1
102
RTVSPost2010Prop28
280
     0
102
RTVSPost2010PropOp28
 70
     1
102
RTVSPost2010Prop29
280
     1
102
RTVSPost2010PropOp29
 70
     1
102
RTVSPost2010Prop30
280
     1
102
RTVSPost2010PropOp30
 70
     1
102
RTVSPost2010Prop31
280
     0
102
RTVSPost2010PropOp31
 70
     1
102
RTVSPost2010Prop32
280
     0
102
RTVSPost2010PropOp32
 70
     1
102
RTVSPost2010Prop33
280
     0
102
RTVSPost2010PropOp33
 70
     1
102
RTVSPost2010Prop34
280
     0
102
RTVSPost2010PropOp34
 70
     1
102
RTVSPost2010Prop35
280
     0
102
RTVSPost2010PropOp35
 70
     1
102
RTVSPost2010Prop36
280
     0
102
RTVSPost2010PropOp36
 70
     1
102
RTVSPost2010Prop37
 90
       50
102
RTVSPost2010PropOp37
 70
     1
102
RTVSPost2010Prop38
140
0.0
102
RTVSPost2010PropOp38
 70
     1
102
RTVSPost2010Prop39
140
1.0
102
RTVSPost2010PropOp39
 70
     1
102
RTVSPost2010Prop40
 90
        0
102
RTVSPost2010PropOp40
 70
     1
102
RTVSPost2010Prop41ColorIndex
 90
       18
102
RTVSPost2010Prop41ColorRGB
 90
        0
102
RTVSPost2010PropOp41
 70
     1
102
RTVSPost2010Prop42
 90
       50
102
RTVSPost2010PropOp42
 70
     1
102
RTVSPost2010Prop43
 90
        3
102
RTVSPost2010PropOp43
 70
     1
102
RTVSPost2010Prop44ColorIndex
 90
        5
102
RTVSPost2010Prop44ColorRGB
 90
      255
102
RTVSPost2010PropOp44
 70
     1
102
RTVSPost2010Prop45
280
     0
102
RTVSPost2010PropOp45
 70
     1
102
RTVSPost2010Prop46
 90
       50
102
RTVSPost2010PropOp46
 70
     1
102
RTVSPost2010Prop47
 90
       50
102
RTVSPost2010PropOp47
 70
     1
102
RTVSPost2010Prop48
 90
       50
102
RTVSPost2010PropOp48
 70
     1
102
RTVSPost2010Prop49
280
     0
102
RTVSPost2010PropOp49
 70
     1
102
RTVSPost2010Prop50
 90
       50
102
RTVSPost2010PropOp50
 70
     1
102
RTVSPost2010Prop51ColorIndex
 90
      256
102
RTVSPost2010Prop51ColorRGB
 90
-16777216
102
RTVSPost2010PropOp51
 70
     0
102
RTVSPost2010Prop52
140
1.0
102
RTVSPost2010PropOp52
 70
     0
102
RTVSPost2010Prop53
 90
        2
102
RTVSPost2010PropOp53
 70
     1
102
RTVSPost2010Prop54
  1
strokes_ogs.tif
102
RTVSPost2010PropOp54
 70
     1
102
RTVSPost2010Prop55
280
     0
102
RTVSPost2010PropOp55
 70
     1
102
RTVSPost2010Prop56
140
1.0
102
RTVSPost2010PropOp56
 70
     1
102
RTVSPost2010Prop57
140
1.0
102
RTVSPost2010PropOp57
 70
     1
  0
XRECORD
  5
D6
102
{ACAD_REACTORS
330
D5
102
}
330
D5
100
AcDbXrecord
280
     1
102
RTVSPost2010Prop28
280
     0
102
RTVSPost2010PropOp28
 70
     1
102
RTVSPost2010Prop29
280
     1
102
RTVSPost2010PropOp29
 70
     1
102
RTVSPost2010Prop30
280
     1
102
RTVSPost2010PropOp30
 70
     1
102
RTVSPost2010Prop31
280
     0
102
RTVSPost2010PropOp31
 70
     1
102
RTVSPost2010Prop32
280
     0
102
RTVSPost2010PropOp32
 70
     1
102
RTVSPost2010Prop33
280
     0
102
RTVSPost2010PropOp33
 70
     1
102
RTVSPost2010Prop34
280
     0
102
RTVSPost2010PropOp34
 70
     1
102
RTVSPost2010Prop35
280
     0
102
RTVSPost2010PropOp35
 70
     1
102
RTVSPost2010Prop36
280
     0
102
RTVSPost2010PropOp36
 70
     1
102
RTVSPost2010Prop37
 90
       50
102
RTVSPost2010PropOp37
 70
     1
102
RTVSPost2010Prop38
140
0.0
102
RTVSPost2010PropOp38
 70
     1
102
RTVSPost2010Prop39
140
1.0
102
RTVSPost2010PropOp39
 70
     1
102
RTVSPost2010Prop40
 90
        0
102
RTVSPost2010PropOp40
 70
     1
102
RTVSPost2010Prop41ColorIndex
 90
       18
102
RTVSPost2010Prop41ColorRGB
 90
        0
102
RTVSPost2010PropOp41
 70
     1
102
RTVSPost2010Prop42
 90
       50
102
RTVSPost2010PropOp42
 70
     1
102
RTVSPost2010Prop43
 90
        3
102
RTVSPost2010PropOp43
 70
     1
102
RTVSPost2010Prop44ColorIndex
 90
        5
102
RTVSPost2010Prop44ColorRGB
 90
      255
102
RTVSPost2010PropOp44
 70
     1
102
RTVSPost2010Prop45
280
     0
102
RTVSPost2010PropOp45
 70
     1
102
RTVSPost2010Prop46
 90
       50
102
RTVSPost2010PropOp46
 70
     1
102
RTVSPost2010Prop47
 90
       50
102
RTVSPost2010PropOp47
 70
     1
102
RTVSPost2010Prop48
 90
       50
102
RTVSPost2010PropOp48
 70
     1
102
RTVSPost2010Prop49
280
     0
102
RTVSPost2010PropOp49
 70
     1
102
RTVSPost2010Prop50
 90
       50
102
RTVSPost2010PropOp50
 70
     1
102
RTVSPost2010Prop51ColorIndex
 90
      256
102
RTVSPost2010Prop51ColorRGB
 90
-16777216
102
RTVSPost2010PropOp51
 70
     0
102
RTVSPost2010Prop52
140
1.0
102
RTVSPost2010PropOp52
 70
     0
102
RTVSPost2010Prop53
 90
        2
102
RTVSPost2010PropOp53
 70
     1
102
RTVSPost2010Prop54
  1
strokes_ogs.tif
102
RTVSPost2010PropOp54
 70
     1
102
RTVSPost2010Prop55
280
     0
102
RTVSPost2010PropOp55
 70
     1
102
RTVSPost2010Prop56
140
1.0
102
RTVSPost2010PropOp56
 70
     1
102
RTVSPost2010Prop57
140
1.0
102
RTVSPost2010PropOp57
 70
     1
  0
XRECORD
  5
F6
102
{ACAD_REACTORS
330
F5
102
}
330
F5
100
AcDbXrecord
280
     1
102
RTVSPost2010Prop28
280
     0
102
RTVSPost2010PropOp28
 70
     1
102
RTVSPost2010Prop29
280
     1
102
RTVSPost2010PropOp29
 70
     1
102
RTVSPost2010Prop30
280
     1
102
RTVSPost2010PropOp30
 70
     1
102
RTVSPost2010Prop31
280
     0
102
RTVSPost2010PropOp31
 70
     1
102
RTVSPost2010Prop32
280
     0
102
RTVSPost2010PropOp32
 70
     1
102
RTVSPost2010Prop33
280
     0
102
RTVSPost2010PropOp33
 70
     1
102
RTVSPost2010Prop34
280
     0
102
RTVSPost2010PropOp34
 70
     1
102
RTVSPost2010Prop35
280
     0
102
RTVSPost2010PropOp35
 70
     1
102
RTVSPost2010Prop36
280
     0
102
RTVSPost2010PropOp36
 70
     1
102
RTVSPost2010Prop37
 90
       50
102
RTVSPost2010PropOp37
 70
     1
102
RTVSPost2010Prop38
140
0.0
102
RTVSPost2010PropOp38
 70
     1
102
RTVSPost2010Prop39
140
1.0
102
RTVSPost2010PropOp39
 70
     1
102
RTVSPost2010Prop40
 90
        0
102
RTVSPost2010PropOp40
 70
     1
102
RTVSPost2010Prop41ColorIndex
 90
       18
102
RTVSPost2010Prop41ColorRGB
 90
        0
102
RTVSPost2010PropOp41
 70
     1
102
RTVSPost2010Prop42
 90
       50
102
RTVSPost2010PropOp42
 70
     1
102
RTVSPost2010Prop43
 90
        3
102
RTVSPost2010PropOp43
 70
     1
102
RTVSPost2010Prop44ColorIndex
 90
        5
102
RTVSPost2010Prop44ColorRGB
 90
      255
102
RTVSPost2010PropOp44
 70
     1
102
RTVSPost2010Prop45
280
     0
102
RTVSPost2010PropOp45
 70
     1
102
RTVSPost2010Prop46
 90
       50
102
RTVSPost2010PropOp46
 70
     1
102
RTVSPost2010Prop47
 90
       50
102
RTVSPost2010PropOp47
 70
     1
102
RTVSPost2010Prop48
 90
       50
102
RTVSPost2010PropOp48
 70
     1
102
RTVSPost2010Prop49
280
     0
102
RTVSPost2010PropOp49
 70
     1
102
RTVSPost2010Prop50
 90
       50
102
RTVSPost2010PropOp50
 70
     1
102
RTVSPost2010Prop51ColorIndex
 90
      256
102
RTVSPost2010Prop51ColorRGB
 90
-16777216
102
RTVSPost2010PropOp51
 70
     0
102
RTVSPost2010Prop52
140
1.0
102
RTVSPost2010PropOp52
 70
     0
102
RTVSPost2010Prop53
 90
        2
102
RTVSPost2010PropOp53
 70
     1
102
RTVSPost2010Prop54
  1
strokes_ogs.tif
102
RTVSPost2010PropOp54
 70
     1
102
RTVSPost2010Prop55
280
     0
102
RTVSPost2010PropOp55
 70
     1
102
RTVSPost2010Prop56
140
1.0
102
RTVSPost2010PropOp56
 70
     1
102
RTVSPost2010Prop57
140
1.0
102
RTVSPost2010PropOp57
 70
     1
  0
ENDSEC
  0
EOF
