  0
SECTION
  2
HEADER
  9
$ACADVER
  1
AC1024
  9
$ACADMAINTVER
 70
     6
  9
$DWGCODEPAGE
  3
ANSI_1252
  9
$LASTSAVEDBY
  1
BirnerR
  9
$INSBASE
 10
0.0
 20
0.0
 30
0.0
  9
$EXTMIN
 10
10.532575
 20
3.563845
 30
10.532575
  9
$EXTMAX
 10
11.582575
 20
5.04883
 30
11.582575
  9
$LIMMIN
 10
10.532575
 20
3.563845
  9
$LIMMAX
 10
11.582575
 20
5.04883
  9
$ORTHOMODE
 70
     0
  9
$REGENMODE
 70
     1
  9
$FILLMODE
 70
     1
  9
$QTEXTMODE
 70
     0
  9
$MIRRTEXT
 70
     1
  9
$LTSCALE
 40
1.0
  9
$ATTMODE
 70
     1
  9
$TEXTSIZE
 40
0.2
  9
$TRACEWID
 40
0.05
  9
$TEXTSTYLE
  7
Standard
  9
$CLAYER
  8
0
  9
$CELTYPE
  6
ByLayer
  9
$CECOLOR
 62
   256
  9
$CELTSCALE
 40
1.0
  9
$DISPSILH
 70
     0
  9
$DIMSCALE
 40
1.0
  9
$DIMASZ
 40
0.18
  9
$DIMEXO
 40
0.0625
  9
$DIMDLI
 40
0.38
  9
$DIMRND
 40
0.0
  9
$DIMDLE
 40
0.0
  9
$DIMEXE
 40
0.18
  9
$DIMTP
 40
0.0
  9
$DIMTM
 40
0.0
  9
$DIMTXT
 40
0.18
  9
$DIMCEN
 40
0.09
  9
$DIMTSZ
 40
0.0
  9
$DIMTOL
 70
     0
  9
$DIMLIM
 70
     0
  9
$DIMTIH
 70
     1
  9
$DIMTOH
 70
     1
  9
$DIMSE1
 70
     0
  9
$DIMSE2
 70
     0
  9
$DIMTAD
 70
     0
  9
$DIMZIN
 70
     0
  9
$DIMBLK
  1

  9
$DIMASO
 70
     1
  9
$DIMSHO
 70
     1
  9
$DIMPOST
  1

  9
$DIMAPOST
  1

  9
$DIMALT
 70
     0
  9
$DIMALTD
 70
     2
  9
$DIMALTF
 40
25.4
  9
$DIMLFAC
 40
1.0
  9
$DIMTOFL
 70
     0
  9
$DIMTVP
 40
0.0
  9
$DIMTIX
 70
     0
  9
$DIMSOXD
 70
     0
  9
$DIMSAH
 70
     0
  9
$DIMBLK1
  1

  9
$DIMBLK2
  1

  9
$DIMSTYLE
  2
Standard
  9
$DIMCLRD
 70
     0
  9
$DIMCLRE
 70
     0
  9
$DIMCLRT
 70
     0
  9
$DIMTFAC
 40
1.0
  9
$DIMGAP
 40
0.09
  9
$DIMJUST
 70
     0
  9
$DIMSD1
 70
     0
  9
$DIMSD2
 70
     0
  9
$DIMTOLJ
 70
     1
  9
$DIMTZIN
 70
     0
  9
$DIMALTZ
 70
     0
  9
$DIMALTTZ
 70
     0
  9
$DIMUPT
 70
     0
  9
$DIMDEC
 70
     4
  9
$DIMTDEC
 70
     4
  9
$DIMALTU
 70
     2
  9
$DIMALTTD
 70
     2
  9
$DIMTXSTY
  7
Standard
  9
$DIMAUNIT
 70
     0
  9
$DIMADEC
 70
     0
  9
$DIMALTRND
 40
0.0
  9
$DIMAZIN
 70
     0
  9
$DIMDSEP
 70
    46
  9
$DIMATFIT
 70
     3
  9
$DIMFRAC
 70
     0
  9
$DIMLDRBLK
  1

  9
$DIMLUNIT
 70
     2
  9
$DIMLWD
 70
    -2
  9
$DIMLWE
 70
    -2
  9
$DIMTMOVE
 70
     0
  9
$DIMFXL
 40
1.0
  9
$DIMFXLON
 70
     0
  9
$DIMJOGANG
 40
0.785398
  9
$DIMTFILL
 70
     0
  9
$DIMTFILLCLR
 70
     0
  9
$DIMARCSYM
 70
     0
  9
$DIMLTYPE
  6

  9
$DIMLTEX1
  6

  9
$DIMLTEX2
  6

  9
$DIMTXTDIRECTION
 70
     0
  9
$LUNITS
 70
     2
  9
$LUPREC
 70
     4
  9
$SKETCHINC
 40
0.1
  9
$FILLETRAD
 40
0.5
  9
$AUNITS
 70
     0
  9
$AUPREC
 70
     0
  9
$MENU
  1
.
  9
$ELEVATION
 40
0.0
  9
$PELEVATION
 40
0.0
  9
$THICKNESS
 40
0.0
  9
$LIMCHECK
 70
     0
  9
$CHAMFERA
 40
0.0
  9
$CHAMFERB
 40
0.0
  9
$CHAMFERC
 40
0.0
  9
$CHAMFERD
 40
0.0
  9
$SKPOLY
 70
     0
  9
$TDCREATE
 40
2459144.590057002
  9
$TDUCREATE
 40
2459144.506723669
  9
$TDUPDATE
 40
2459144.590066771
  9
$TDUUPDATE
 40
2459144.506733438
  9
$TDINDWG
 40
0.0000000116
  9
$TDUSRTIMER
 40
0.0000000116
  9
$USRTIMER
 70
     1
  9
$ANGBASE
 50
0.0
  9
$ANGDIR
 70
     0
  9
$PDMODE
 70
    65
  9
$PDSIZE
 40
0.0
  9
$PLINEWID
 40
0.0
  9
$SPLFRAME
 70
     0
  9
$SPLINETYPE
 70
     6
  9
$SPLINESEGS
 70
     8
  9
$HANDSEED
  5
112
  9
$SURFTAB1
 70
     6
  9
$SURFTAB2
 70
     6
  9
$SURFTYPE
 70
     6
  9
$SURFU
 70
     6
  9
$SURFV
 70
     6
  9
$UCSBASE
  2

  9
$UCSNAME
  2

  9
$UCSORG
 10
0.0
 20
0.0
 30
0.0
  9
$UCSXDIR
 10
1.0
 20
0.0
 30
0.0
  9
$UCSYDIR
 10
0.0
 20
1.0
 30
0.0
  9
$UCSORTHOREF
  2

  9
$UCSORTHOVIEW
 70
     0
  9
$UCSORGTOP
 10
0.0
 20
0.0
 30
0.0
  9
$UCSORGBOTTOM
 10
0.0
 20
0.0
 30
0.0
  9
$UCSORGLEFT
 10
0.0
 20
0.0
 30
0.0
  9
$UCSORGRIGHT
 10
0.0
 20
0.0
 30
0.0
  9
$UCSORGFRONT
 10
0.0
 20
0.0
 30
0.0
  9
$UCSORGBACK
 10
0.0
 20
0.0
 30
0.0
  9
$PUCSBASE
  2

  9
$PUCSNAME
  2

  9
$PUCSORG
 10
0.0
 20
0.0
 30
0.0
  9
$PUCSXDIR
 10
1.0
 20
0.0
 30
0.0
  9
$PUCSYDIR
 10
0.0
 20
1.0
 30
0.0
  9
$PUCSORTHOREF
  2

  9
$PUCSORTHOVIEW
 70
     0
  9
$PUCSORGTOP
 10
0.0
 20
0.0
 30
0.0
  9
$PUCSORGBOTTOM
 10
0.0
 20
0.0
 30
0.0
  9
$PUCSORGLEFT
 10
0.0
 20
0.0
 30
0.0
  9
$PUCSORGRIGHT
 10
0.0
 20
0.0
 30
0.0
  9
$PUCSORGFRONT
 10
0.0
 20
0.0
 30
0.0
  9
$PUCSORGBACK
 10
0.0
 20
0.0
 30
0.0
  9
$USERI1
 70
     0
  9
$USERI2
 70
     0
  9
$USERI3
 70
     0
  9
$USERI4
 70
     0
  9
$USERI5
 70
     0
  9
$USERR1
 40
0.0
  9
$USERR2
 40
0.0
  9
$USERR3
 40
0.0
  9
$USERR4
 40
0.0
  9
$USERR5
 40
0.0
  9
$WORLDVIEW
 70
     1
  9
$SHADEDGE
 70
     3
  9
$SHADEDIF
 70
    70
  9
$TILEMODE
 70
     0
  9
$MAXACTVP
 70
    64
  9
$PINSBASE
 10
0.0
 20
0.0
 30
0.0
  9
$PLIMCHECK
 70
     0
  9
$PEXTMIN
 10
-0.0001
 20
-0.0001
 30
0.0
  9
$PEXTMAX
 10
0.2101
 20
0.297097
 30
0.0
  9
$PLIMMIN
 10
-0.0001
 20
-0.0001
  9
$PLIMMAX
 10
0.2101
 20
0.297097
  9
$UNITMODE
 70
     0
  9
$VISRETAIN
 70
     1
  9
$PLINEGEN
 70
     0
  9
$PSLTSCALE
 70
     0
  9
$TREEDEPTH
 70
  3020
  9
$CMLSTYLE
  2
Standard
  9
$CMLJUST
 70
     0
  9
$CMLSCALE
 40
1.0
  9
$PROXYGRAPHICS
 70
     1
  9
$MEASUREMENT
 70
     1
  9
$CELWEIGHT
370
    -1
  9
$ENDCAPS
280
     0
  9
$JOINSTYLE
280
     0
  9
$LWDISPLAY
290
     0
  9
$INSUNITS
 70
     6
  9
$HYPERLINKBASE
  1

  9
$STYLESHEET
  1

  9
$XEDIT
290
     1
  9
$CEPSNTYPE
380
     0
  9
$PSTYLEMODE
290
     1
  9
$FINGERPRINTGUID
  2
{17b05e30-099b-4dd1-898b-808fd15dcc34}
  9
$VERSIONGUID
  2
{FAEB1C32-E019-11D5-929B-00C0DF256EC4}
  9
$EXTNAMES
290
     1
  9
$PSVPSCALE
 40
0.0
  9
$OLESTARTUP
290
     0
  9
$SORTENTS
280
   127
  9
$INDEXCTL
280
     0
  9
$HIDETEXT
280
     1
  9
$XCLIPFRAME
280
     2
  9
$HALOGAP
280
     0
  9
$OBSCOLOR
 70
   257
  9
$OBSLTYPE
280
     0
  9
$INTERSECTIONDISPLAY
280
     0
  9
$INTERSECTIONCOLOR
 70
   257
  9
$DIMASSOC
280
     2
  9
$PROJECTNAME
  1

  9
$CAMERADISPLAY
290
     0
  9
$LENSLENGTH
 40
50.0
  9
$CAMERAHEIGHT
 40
0.0
  9
$STEPSPERSEC
 40
2.0
  9
$STEPSIZE
 40
6.0
  9
$3DDWFPREC
 40
2.0
  9
$PSOLWIDTH
 40
0.25
  9
$PSOLHEIGHT
 40
4.0
  9
$LOFTANG1
 40
1.570796
  9
$LOFTANG2
 40
1.570796
  9
$LOFTMAG1
 40
0.0
  9
$LOFTMAG2
 40
0.0
  9
$LOFTPARAM
 70
     7
  9
$LOFTNORMALS
280
     1
  9
$LATITUDE
 40
37.795
  9
$LONGITUDE
 40
-122.394
  9
$NORTHDIRECTION
 40
0.0
  9
$TIMEZONE
 70
 -8000
  9
$LIGHTGLYPHDISPLAY
280
     1
  9
$TILEMODELIGHTSYNCH
280
     1
  9
$CMATERIAL
347
44
  9
$SOLIDHIST
280
     0
  9
$SHOWHIST
280
     1
  9
$DWFFRAME
280
     2
  9
$DGNFRAME
280
     2
  9
$REALWORLDSCALE
290
     1
  9
$INTERFERECOLOR
 62
   256
  9
$CSHADOW
280
     0
  9
$SHADOWPLANELOCATION
 40
0.0
  0
ENDSEC
  0
SECTION
  2
CLASSES
  0
CLASS
  1
ACDBDICTIONARYWDFLT
  2
AcDbDictionaryWithDefault
  3
ObjectDBX Classes
 90
        0
 91
        3
280
     0
281
     0
  0
CLASS
  1
VISUALSTYLE
  2
AcDbVisualStyle
  3
ObjectDBX Classes
 90
     4095
 91
        3
280
     0
281
     0
  0
CLASS
  1
MATERIAL
  2
AcDbMaterial
  3
ObjectDBX Classes
 90
     1153
 91
        3
280
     0
281
     0
  0
CLASS
  1
SCALE
  2
AcDbScale
  3
ObjectDBX Classes
 90
     1153
 91
        3
280
     0
281
     0
  0
CLASS
  1
TABLESTYLE
  2
AcDbTableStyle
  3
ObjectDBX Classes
 90
     4095
 91
        3
280
     0
281
     0
  0
CLASS
  1
MLEADERSTYLE
  2
AcDbMLeaderStyle
  3
ACDB_MLEADERSTYLE_CLASS
 90
     4095
 91
        3
280
     0
281
     0
  0
CLASS
  1
SUN
  2
AcDbSun
  3
SCENEOE
 90
     1153
 91
        3
280
     0
281
     0
  0
CLASS
  1
SORTENTSTABLE
  2
AcDbSortentsTable
  3
ObjectDBX Classes
 90
        0
 91
        3
280
     0
281
     0
  0
CLASS
  1
DICTIONARYVAR
  2
AcDbDictionaryVar
  3
ObjectDBX Classes
 90
        0
 91
        3
280
     0
281
     0
  0
CLASS
  1
CELLSTYLEMAP
  2
AcDbCellStyleMap
  3
ObjectDBX Classes
 90
     1152
 91
        3
280
     0
281
     0
  0
ENDSEC
  0
SECTION
  2
TABLES
  0
TABLE
  2
VPORT
  5
8
330
0
100
AcDbSymbolTable
 70
     1
  0
VPORT
  5
29
330
8
100
AcDbSymbolTableRecord
100
AcDbViewportTableRecord
  2
*Active
 70
     0
 10
0.0
 20
0.0
 11
1.0
 21
1.0
 12
11.057575
 22
4.306338
 13
0.0
 23
0.0
 14
0.5
 24
0.5
 15
0.5
 25
0.5
 16
0.0
 26
0.0
 36
1.0
 17
0.0
 27
0.0
 37
0.0
 40
1.781982
 41
0.848493
 42
50.0
 43
0.0
 44
0.0
 50
0.0
 51
0.0
 71
     0
 72
   100
 73
     1
 74
     3
 75
     0
 76
     0
 77
     0
 78
     0
281
     0
 65
     1
110
0.0
120
0.0
130
0.0
111
1.0
121
0.0
131
0.0
112
0.0
122
1.0
132
0.0
 79
     0
146
0.0
348
2F
 60
     3
 61
     5
292
     1
282
     1
141
0.0
142
0.0
 63
   250
361
6D
  0
ENDTAB
  0
TABLE
  2
LTYPE
  5
5
330
0
100
AcDbSymbolTable
 70
     4
  0
LTYPE
  5
14
330
5
100
AcDbSymbolTableRecord
100
AcDbLinetypeTableRecord
  2
ByBlock
 70
     0
  3

 72
    65
 73
     0
 40
0.0
  0
LTYPE
  5
15
330
5
100
AcDbSymbolTableRecord
100
AcDbLinetypeTableRecord
  2
ByLayer
 70
     0
  3

 72
    65
 73
     0
 40
0.0
  0
LTYPE
  5
16
330
5
100
AcDbSymbolTableRecord
100
AcDbLinetypeTableRecord
  2
Continuous
 70
     0
  3
Solid line
 72
    65
 73
     0
 40
0.0
  0
LTYPE
  5
74
330
5
100
AcDbSymbolTableRecord
100
AcDbLinetypeTableRecord
  2
AUSGEZOGEN
 70
     0
  3
durchgezogene Linie
 72
    65
 73
     0
 40
0.0
  0
LTYPE
  5
7A
330
5
100
AcDbSymbolTableRecord
100
AcDbLinetypeTableRecord
  2
STRICHPUNKT2_S5
 70
     0
  3
Lang eng gestrichelt bzw. punktiert
 72
    65
 73
     4
 40
0.05
 49
0.035
 74
     0
 49
-0.005
 74
     0
 49
0.005
 74
     0
 49
-0.005
 74
     0
  0
LTYPE
  5
7B
330
5
100
AcDbSymbolTableRecord
100
AcDbLinetypeTableRecord
  2
VERDECKT2_S2
 70
     0
  3
Kurzgestrichelt
 72
    65
 73
     2
 40
0.015
 49
0.01
 74
     0
 49
-0.005
 74
     0
  0
ENDTAB
  0
TABLE
  2
LAYER
  5
2
330
0
100
AcDbSymbolTable
 70
     4
  0
LAYER
  5
10
330
2
100
AcDbSymbolTableRecord
100
AcDbLayerTableRecord
  2
0
 70
     0
 62
     7
  6
Continuous
370
    -3
390
F
347
46
  0
LAYER
  5
76
330
2
100
AcDbSymbolTableRecord
100
AcDbLayerTableRecord
  2
PLAN_1415
 70
     0
 62
     7
  6
AUSGEZOGEN
370
    -3
390
F
347
46
1001
AcCmTransparency
1071
 33554687
1001
AcAecLayerStandard
1000

1000
Dokument-Layer
  0
LAYER
  5
78
330
2
100
AcDbSymbolTableRecord
100
AcDbLayerTableRecord
  2
TB_1415
 70
     0
 62
     7
  6
AUSGEZOGEN
370
    -3
390
F
347
46
1001
AcCmTransparency
1071
 33554687
1001
AcAecLayerStandard
1000

1000
Dokument-Layer
  0
LAYER
  5
7C
330
2
100
AcDbSymbolTableRecord
100
AcDbLayerTableRecord
  2
XR$1$TB_1415_1
 70
     0
 62
     7
  6
AUSGEZOGEN
370
    -3
390
F
347
46
1001
AcCmTransparency
1071
 33554687
1001
AcAecLayerStandard
1000

1000
Dokument-Layer
  0
ENDTAB
  0
TABLE
  2
STYLE
  5
3
330
0
100
AcDbSymbolTable
 70
     2
  0
STYLE
  5
11
330
3
100
AcDbSymbolTableRecord
100
AcDbTextStyleTableRecord
  2
Standard
 70
     0
 40
0.0
 41
1.0
 50
0.0
 71
     0
 42
0.2
  3
txt
  4

  0
STYLE
  5
79
330
3
100
AcDbSymbolTableRecord
100
AcDbTextStyleTableRecord
  2
ARIAL
 70
     0
 40
0.0
 41
1.0
 50
0.0
 71
     0
 42
0.2
  3
ARIAL.TTF
  4

1001
ACAD
1000
Arial
1071
       34
  0
ENDTAB
  0
TABLE
  2
VIEW
  5
6
330
0
100
AcDbSymbolTable
 70
     0
  0
ENDTAB
  0
TABLE
  2
UCS
  5
7
330
0
100
AcDbSymbolTable
 70
     0
  0
ENDTAB
  0
TABLE
  2
APPID
  5
9
330
0
100
AcDbSymbolTable
 70
     4
  0
APPID
  5
12
330
9
100
AcDbSymbolTableRecord
100
AcDbRegAppTableRecord
  2
ACAD
 70
     0
  0
APPID
  5
75
330
9
100
AcDbSymbolTableRecord
100
AcDbRegAppTableRecord
  2
AcCmTransparency
 70
     0
  0
APPID
  5
77
330
9
100
AcDbSymbolTableRecord
100
AcDbRegAppTableRecord
  2
AcAecLayerStandard
 70
     0
  0
APPID
  5
94
330
9
100
AcDbSymbolTableRecord
100
AcDbRegAppTableRecord
  2
NEM_ODX
 70
     0
  0
ENDTAB
  0
TABLE
  2
DIMSTYLE
  5
A
330
0
100
AcDbSymbolTable
 70
     1
100
AcDbDimStyleTable
  0
DIMSTYLE
105
27
330
A
100
AcDbSymbolTableRecord
100
AcDbDimStyleTableRecord
  2
Standard
 70
     0
178
     0
340
11
  0
ENDTAB
  0
TABLE
  2
BLOCK_RECORD
  5
1
330
0
100
AcDbSymbolTable
 70
     0
  0
BLOCK_RECORD
  5
1F
102
{ACAD_XDICTIONARY
360
D5
102
}
330
1
100
AcDbSymbolTableRecord
100
AcDbBlockTableRecord
  2
*Model_Space
340
22
 70
     0
280
     1
281
     0
  0
BLOCK_RECORD
  5
6E
330
1
100
AcDbSymbolTableRecord
100
AcDbBlockTableRecord
  2
*Paper_Space
340
6F
 70
     0
280
     1
281
     0
  0
ENDTAB
  0
ENDSEC
  0
SECTION
  2
BLOCKS
  0
BLOCK
  5
20
330
1F
100
AcDbEntity
  8
0
100
AcDbBlockBegin
  2
*Model_Space
 70
     0
 10
0.0
 20
0.0
 30
0.0
  3
*Model_Space
  1

  0
ENDBLK
  5
21
330
1F
100
AcDbEntity
  8
0
100
AcDbBlockEnd
  0
BLOCK
  5
70
330
6E
100
AcDbEntity
 67
     1
  8
0
100
AcDbBlockBegin
  2
*Paper_Space
 70
     0
 10
0.0
 20
0.0
 30
0.0
  3
*Paper_Space
  1

  0
ENDBLK
  5
71
330
6E
100
AcDbEntity
 67
     1
  8
0
100
AcDbBlockEnd
  0
ENDSEC
  0
SECTION
  2
ENTITIES
  0
HATCH
  5
7D
330
1F
100
AcDbEntity
  8
XR$1$TB_1415_1
  6
AUSGEZOGEN
 62
    18
420
        0
440
 33554687
370
    35
100
AcDbHatch
 10
0.0
 20
0.0
 30
0.0
210
0.0
220
0.0
230
1.0
  2
SOLID
 70
     1
 71
     0
 91
       18
 92
        3
 72
     0
 73
     1
 93
       27
 10
10.65183113769732
 20
3.701846930763919
 10
10.65582488115826
 20
3.701846930763919
 10
10.65640200754881
 20
3.701874327144731
 10
10.65693299266642
 20
3.701956876765866
 10
10.65742792991453
 20
3.702085207181253
 10
10.6578767258897
 20
3.702268330358273
 10
10.65828875303798
 20
3.702488222362172
 10
10.65865499939202
 20
3.702762907127693
 10
10.65928727902289
 20
3.703413210693308
 10
10.65953456740761
 20
3.703788829493411
 10
10.65975445941149
 20
3.704200856641694
 10
10.66009330938471
 20
3.70509880907072
 10
10.6602854445291
 20
3.70609697457694
 10
10.66034960973679
 20
3.70716867773691
 10
10.6602854445291
 20
3.70831391855065
 10
10.66009330938471
 20
3.709348852883743
 10
10.65993758258852
 20
3.709816033272348
 10
10.65975445941149
 20
3.710255456801449
 10
10.65953456740761
 20
3.710658832461055
 10
10.65928727902289
 20
3.711025078815083
 10
10.65865499939202
 20
3.711647985999893
 10
10.65828875303798
 20
3.711895274384601
 10
10.6578767258897
 20
3.712105793942423
 10
10.65742792991453
 20
3.712270893184703
 10
10.65693299266642
 20
3.712389851154025
 10
10.65582488115826
 20
3.712490785188602
 10
10.65183113769732
 20
3.712490785188602
 97
        0
 92
        3
 72
     0
 73
     1
 93
       12
 10
10.66353732283591
 20
3.701846930763919
 10
10.67125913695962
 20
3.701846930763919
 10
10.67125913695962
 20
3.703175294754672
 10
10.66514037159218
 20
3.703175294754672
 10
10.66514037159218
 20
3.706637692619306
 10
10.67018743379965
 20
3.706637692619306
 10
10.67018743379965
 20
3.707965696131363
 10
10.66514037159218
 20
3.707965696131363
 10
10.66514037159218
 20
3.711162421197844
 10
10.67099346416147
 20
3.711162421197844
 10
10.67099346416147
 20
3.712490785188602
 10
10.66353732283591
 20
3.712490785188602
 97
        0
 92
        3
 72
     0
 73
     1
 93
       38
 10
10.68083092774564
 20
3.712490785188602
 10
10.68083092774564
 20
3.705575001426701
 10
10.68079415891875
 20
3.704924697861085
 10
10.6806845733955
 20
3.70437496785134
 10
10.68048270532636
 20
3.703907787462733
 10
10.68019900859345
 20
3.703541541108696
 10
10.67983240176073
 20
3.703266856343174
 10
10.67937459381818
 20
3.703065348752721
 10
10.67882486380845
 20
3.702946030304702
 10
10.67817456024283
 20
3.70290962195652
 10
10.6775242566772
 20
3.702946030304702
 10
10.67697452666747
 20
3.703065348752721
 10
10.67651671872492
 20
3.703266856343174
 10
10.67614109992483
 20
3.703541541108696
 10
10.6758664151593
 20
3.703907787462733
 10
10.67566490756884
 20
3.70437496785134
 10
10.6755549615669
 20
3.704924697861085
 10
10.67550918077264
 20
3.705575001426701
 10
10.67550918077264
 20
3.712490785188602
 10
10.6741808167819
 20
3.712490785188602
 10
10.6741808167819
 20
3.705309328628555
 10
10.67425435443566
 20
3.704457517472476
 10
10.67446487399349
 20
3.703715652318348
 10
10.67481309641276
 20
3.703074360720099
 10
10.67528027680137
 20
3.702543015123791
 10
10.67585704271323
 20
3.702130987975512
 10
10.67654411510573
 20
3.701828546350482
 10
10.67731373711938
 20
3.701645423173463
 10
10.67817456024283
 20
3.701581257965767
 10
10.67903574384498
 20
3.701645423173463
 10
10.67980500537991
 20
3.701828546350482
 10
10.68049207777242
 20
3.702130987975512
 10
10.68106920416297
 20
3.702543015123791
 10
10.68153638455158
 20
3.703074360720099
 10
10.6818752345248
 20
3.703715652318348
 10
10.68209512652869
 20
3.704457517472476
 10
10.68216830370376
 20
3.705309328628555
 10
10.68216830370376
 20
3.712490785188602
 97
        0
 92
        3
 72
     0
 73
     1
 93
        8
 10
10.68482467120657
 20
3.712490785188602
 10
10.68482467120657
 20
3.711162421197844
 10
10.68802139627305
 20
3.711162421197844
 10
10.68802139627305
 20
3.701846930763919
 10
10.68934939978511
 20
3.701846930763919
 10
10.68934939978511
 20
3.711162421197844
 10
10.69253711288422
 20
3.711162421197844
 10
10.69253711288422
 20
3.712490785188602
 97
        0
 92
        3
 72
     0
 73
     1
 93
       96
 10
10.69554170280631
 20
3.708927453289394
 10
10.69575222236413
 20
3.708405480139156
 10
10.69608206036998
 20
3.707993092512174
 10
10.69650345996434
 20
3.707654242538958
 10
10.69700704870113
 20
3.707388569740813
 10
10.69757516312432
 20
3.707187062150351
 10
10.69879322063443
 20
3.706866596590573
 10
10.70001163862323
 20
3.706591551346364
 10
10.70057939256771
 20
3.706436185028846
 10
10.70108334178321
 20
3.706234677438391
 10
10.70150438089886
 20
3.705987028574991
 10
10.70183421890471
 20
3.705666563015213
 10
10.70204509894123
 20
3.705272559801668
 10
10.7021182761163
 20
3.704777983032249
 10
10.70206312287597
 20
3.704310802643644
 10
10.70188937214503
 20
3.703926171876174
 10
10.70162369934687
 20
3.703596333870328
 10
10.70128484937366
 20
3.703340033518247
 10
10.70088183419275
 20
3.70314753789516
 10
10.70043267773889
 20
3.703019567958467
 10
10.69995648538291
 20
3.702937018337336
 10
10.69946190861349
 20
3.70290962195652
 10
10.69879322063443
 20
3.702946030304702
 10
10.6982070822765
 20
3.703065348752721
 10
10.69770313306101
 20
3.703266856343174
 10
10.69726370953191
 20
3.703541541108696
 10
10.69690647514525
 20
3.703907787462733
 10
10.6966130454876
 20
3.70437496785134
 10
10.69640252592977
 20
3.704924697861085
 10
10.696265183547
 20
3.705575001426701
 10
10.69493681955625
 20
3.705309328628555
 10
10.69502874162345
 20
3.704384340297405
 10
10.69514769959278
 20
3.70397195267043
 10
10.69530342638898
 20
3.703605706316395
 10
10.69550493397944
 20
3.703266856343174
 10
10.6957338379507
 20
3.702955402750773
 10
10.69630195237389
 20
3.702442441567912
 10
10.69697027987426
 20
3.702057810800445
 10
10.6977399018879
 20
3.701792138002293
 10
10.69857332863053
 20
3.701636411206089
 10
10.69946190861349
 20
3.701581257965767
 10
10.7002405425945
 20
3.701636411206089
 10
10.70098240774863
 20
3.701782765556225
 10
10.70166010769507
 20
3.702048438354372
 10
10.70225561849906
 20
3.702415045187099
 10
10.70275019526848
 20
3.702891237543079
 10
10.70312581406858
 20
3.703486748347073
 10
10.70326315645135
 20
3.703834610287666
 10
10.70336409048591
 20
3.704200856641694
 10
10.70344627962836
 20
3.705043655830403
 10
10.70337310245329
 20
3.705767497049785
 10
10.70316258289546
 20
3.706362647375086
 10
10.70283274488962
 20
3.706839200209766
 10
10.70241134529526
 20
3.707214458531167
 10
10.70190739607978
 20
3.707507527710131
 10
10.70134865410266
 20
3.707736792160087
 10
10.70012158462517
 20
3.70806663016594
 10
10.69890316663637
 20
3.708331942485394
 10
10.69834442465927
 20
3.708487669281594
 10
10.69784047544378
 20
3.708671152937308
 10
10.69741006388205
 20
3.708909068875952
 10
10.69708022587621
 20
3.70921151050098
 10
10.69686970631837
 20
3.709605153235823
 10
10.69679652914331
 20
3.710100090483938
 10
10.696860694351
 20
3.710457324870597
 10
10.69702543311457
 20
3.710750394049561
 10
10.69727272149929
 20
3.710988309988203
 10
10.69759318705906
 20
3.711162421197844
 10
10.69796880585916
 20
3.711281379167171
 10
10.69837182104007
 20
3.711363928788304
 10
10.69919623581534
 20
3.711428093995997
 10
10.69976435023852
 20
3.711400697615185
 10
10.70027695094269
 20
3.71131814799405
 10
10.70073511936392
 20
3.711171433165224
 10
10.70111975013138
 20
3.710960913607387
 10
10.70143120372379
 20
3.710667844428424
 10
10.70166010769507
 20
3.710301598074395
 10
10.70180682252389
 20
3.709843429653159
 10
10.70185260331815
 20
3.709293699643422
 10
10.70344627962836
 20
3.709293699643422
 10
10.70319899124364
 20
3.710136498832127
 10
10.70286014127043
 20
3.710850967605444
 10
10.7024297297087
 20
3.711446478409436
 10
10.70191676852584
 20
3.711922670765418
 10
10.70133063016791
 20
3.712289277598144
 10
10.70068032660229
 20
3.712554589917598
 10
10.69996585782898
 20
3.712701304746422
 10
10.69919623581534
 20
3.712756097508052
 10
10.69850015145547
 20
3.712710316713803
 10
10.69782245150903
 20
3.712554589917598
 10
10.69719954432422
 20
3.712307301532884
 10
10.69663142990103
 20
3.711959439592298
 10
10.69615523754506
 20
3.71151064361713
 10
10.69578899119102
 20
3.710960913607387
 10
10.69555071477369
 20
3.710310610041761
 10
10.69546816515255
 20
3.709559372441569
 97
        0
 92
        3
 72
     0
 73
     1
 93
       78
 10
10.70776986109514
 20
3.708038873306432
 10
10.70795298427215
 20
3.708844903668254
 10
10.70826443786456
 20
3.709568744887642
 10
10.70870422187235
 20
3.71019165207245
 10
10.70926296384946
 20
3.710713625222679
 10
10.70994967576327
 20
3.711098255990148
 10
10.71076507857117
 20
3.711336532407491
 10
10.71169943934838
 20
3.711428093995997
 10
10.71220302808517
 20
3.711391325169114
 10
10.71271598926803
 20
3.711272367199792
 10
10.71321993848352
 20
3.711089244022782
 10
10.71369613083949
 20
3.710823571224622
 10
10.71411753043385
 20
3.710493733218782
 10
10.71446575285314
 20
3.710081706070496
 10
10.71473106517259
 20
3.70959614126845
 10
10.7148867919688
 20
3.709028387323959
 10
10.71622416792691
 20
3.709293699643422
 10
10.71595849512877
 20
3.710136498832127
 10
10.71559224877473
 20
3.710850967605444
 10
10.71511605641875
 20
3.711446478409436
 10
10.71455731444164
 20
3.711922670765418
 10
10.71392503481076
 20
3.712289277598144
 10
10.71322895045089
 20
3.712554589917598
 10
10.71247807332938
 20
3.712701304746422
 10
10.71169943934838
 20
3.712756097508052
 10
10.71106715971751
 20
3.712728701127246
 10
10.7104720093922
 20
3.712646511984804
 10
10.70992227938246
 20
3.712518181569418
 10
10.70940931819959
 20
3.712335058392398
 10
10.70893312584363
 20
3.712105793942423
 10
10.70849334183581
 20
3.711831109176905
 10
10.70809969910098
 20
3.71151064361713
 10
10.70774246471433
 20
3.711162421197844
 10
10.70742163867585
 20
3.710768417984303
 10
10.70714695391033
 20
3.710338006422584
 10
10.70691804993906
 20
3.70988019848004
 10
10.70672555431597
 20
3.709385621710622
 10
10.70645988151783
 20
3.708322930518016
 10
10.70637769237539
 20
3.70716867773691
 10
10.70645988151783
 20
3.7060147854345
 10
10.70672555431597
 20
3.704952094241891
 10
10.70691804993906
 20
3.704457517472476
 10
10.70714695391033
 20
3.703999349051244
 10
10.70742163867585
 20
3.703568937489512
 10
10.70774246471433
 20
3.703175294754672
 10
10.70809969910098
 20
3.702827072335393
 10
10.70849334183581
 20
3.702506606775604
 10
10.70893312584363
 20
3.702231561531393
 10
10.70940931819959
 20
3.70200265756012
 10
10.70992227938246
 20
3.701819534383105
 10
10.7104720093922
 20
3.701691203967719
 10
10.71106715971751
 20
3.701608654346582
 10
10.71169943934838
 20
3.701581257965767
 10
10.71249609726413
 20
3.701654795619526
 10
10.71326571927777
 20
3.701874327144731
 10
10.7140075844319
 20
3.702222549564014
 10
10.7146946568244
 20
3.702708114366058
 10
10.71529917959576
 20
3.703321649104806
 10
10.71581214077863
 20
3.704054502291569
 10
10.71621515595954
 20
3.704887929034201
 10
10.71648984072506
 20
3.705840674224854
 10
10.7148867919688
 20
3.705840674224854
 10
10.71474043761866
 20
3.705180998213162
 10
10.71450216120132
 20
3.704594859855237
 10
10.71418169564155
 20
3.704091271118441
 10
10.71379706487408
 20
3.703678883491468
 10
10.71333889645284
 20
3.703349045485613
 10
10.71283530771604
 20
3.703111129546969
 10
10.71228557770631
 20
3.702964414718152
 10
10.71169943934838
 20
3.70290962195652
 10
10.71076507857117
 20
3.702991811098962
 10
10.70994967576327
 20
3.703239099483673
 10
10.70926296384946
 20
3.703624090729836
 10
10.70870422187235
 20
3.704146063880069
 10
10.70826443786456
 20
3.704768971064883
 10
10.70795298427215
 20
3.705492451805571
 10
10.70776986109514
 20
3.706298482167389
 10
10.70770569588744
 20
3.70716867773691
 97
        0
 92
        3
 72
     0
 73
     1
 93
       12
 10
10.71967755382418
 20
3.701846930763919
 10
10.72100555733624
 20
3.701846930763919
 10
10.72100555733624
 20
3.706637692619306
 10
10.72659297710738
 20
3.706637692619306
 10
10.72659297710738
 20
3.701846930763919
 10
10.72819602586366
 20
3.701846930763919
 10
10.72819602586366
 20
3.712490785188602
 10
10.72659297710738
 20
3.712490785188602
 10
10.72659297710738
 20
3.707965696131363
 10
10.72100555733624
 20
3.707965696131363
 10
10.72100555733624
 20
3.712490785188602
 10
10.71967755382418
 20
3.712490785188602
 97
        0
 92
        3
 72
     0
 73
     1
 93
       12
 10
10.73164941176092
 20
3.701846930763919
 10
10.73910519260779
 20
3.701846930763919
 10
10.73910519260779
 20
3.703175294754672
 10
10.73298678771903
 20
3.703175294754672
 10
10.73298678771903
 20
3.706637692619306
 10
10.73829916224596
 20
3.706637692619306
 10
10.73829916224596
 20
3.707965696131363
 10
10.73298678771903
 20
3.707965696131363
 10
10.73298678771903
 20
3.711162421197844
 10
10.73910519260779
 20
3.711162421197844
 10
10.73910519260779
 20
3.712490785188602
 10
10.73164941176092
 20
3.712490785188602
 97
        0
 92
        3
 72
     0
 73
     1
 93
       90
 10
10.65435917478475
 20
3.694280843436402
 10
10.6540570936384
 20
3.694574273094058
 10
10.65398355598464
 20
3.694739011857633
 10
10.65396553204989
 20
3.694931507480717
 10
10.65401131284415
 20
3.695206192246244
 10
10.65413928278085
 20
3.695435096217512
 10
10.65432276643655
 20
3.695618219394524
 10
10.65456068237519
 20
3.69576493422336
 10
10.65508301600413
 20
3.695939045432993
 10
10.6555592083601
 20
3.695993838194632
 10
10.65634685430849
 20
3.695902276606126
 10
10.65673148507596
 20
3.695783318636792
 10
10.65708871946262
 20
3.695627591840597
 10
10.65773001106086
 20
3.695206192246244
 10
10.65821557586291
 20
3.69466583468257
 10
10.66034960973679
 20
3.695993838194632
 10
10.65983664855394
 20
3.696470030550605
 10
10.65930566343633
 20
3.69689143014496
 10
10.65875593342659
 20
3.697248664531611
 10
10.65818817948211
 20
3.697560118124022
 10
10.65760168064548
 20
3.697798394541358
 10
10.65701554228755
 20
3.697981517718374
 10
10.65642003148356
 20
3.698082451752953
 10
10.65582488115826
 20
3.698118860101137
 10
10.65495468558875
 20
3.698073079306878
 10
10.65414865522692
 20
3.697917352510674
 10
10.65342481400753
 20
3.697661052158594
 10
10.65280190682271
 20
3.69729444532587
 10
10.65227993367249
 20
3.696809241002518
 10
10.65189530290502
 20
3.696213730198519
 10
10.65175796052226
 20
3.695874880225307
 10
10.65164801452031
 20
3.695499261425208
 10
10.65156546489918
 20
3.69466583468257
 10
10.6516206181395
 20
3.694088708292007
 10
10.6517763449357
 20
3.693566374663087
 10
10.65202363332041
 20
3.693099554753173
 10
10.65236248329362
 20
3.692687167126196
 10
10.65278388288798
 20
3.692339305185604
 10
10.65328747162476
 20
3.692064259941388
 10
10.6538736099827
 20
3.691853740383553
 10
10.65451490158094
 20
3.691716398000794
 10
10.65664929593352
 20
3.691276613993005
 10
10.65711647632213
 20
3.691166667991054
 10
10.6574369418819
 20
3.690992556781413
 10
10.65762943750499
 20
3.690754640842766
 10
10.65768423026662
 20
3.690406418423483
 10
10.65763844947236
 20
3.690122361211894
 10
10.65751011905698
 20
3.689866060859811
 10
10.65730861146651
 20
3.689637156888546
 10
10.65705231111443
 20
3.689444661265454
 10
10.65676825390284
 20
3.68928893446925
 10
10.65644778834306
 20
3.689169976499937
 10
10.65582488115826
 20
3.689078414911422
 10
10.65491791676185
 20
3.689169976499937
 10
10.65452427402701
 20
3.68928893446925
 10
10.65415766719429
 20
3.689444661265454
 10
10.65350736362867
 20
3.689866060859811
 10
10.65289382888992
 20
3.690406418423483
 10
10.65076844650472
 20
3.689343727230882
 10
10.65135494534134
 20
3.688794357699837
 10
10.65193207173189
 20
3.688336189278605
 10
10.65249081370901
 20
3.687969942924568
 10
10.65306757962086
 20
3.6876768737456
 10
10.65364470601142
 20
3.68746599370908
 10
10.65424922878279
 20
3.687319639358948
 10
10.65488150841367
 20
3.687237089737815
 10
10.6555592083601
 20
3.687209693356999
 10
10.65630107351424
 20
3.687246462183879
 10
10.65708871946262
 20
3.687347035739762
 10
10.65789474982444
 20
3.68754854333022
 10
10.65865499939202
 20
3.687878381336062
 10
10.6590032218113
 20
3.688098273339961
 10
10.65932368737108
 20
3.688354573692042
 10
10.65960774458267
 20
3.688657015317074
 10
10.65986440541345
 20
3.689014249703727
 10
10.6600659130039
 20
3.689407892438576
 10
10.6602216398001
 20
3.689866060859811
 10
10.66031320138861
 20
3.690369649596603
 10
10.66034960973679
 20
3.690937764019784
 10
10.66031320138861
 20
3.691368175581509
 10
10.66021226735403
 20
3.691752806348986
 10
10.66005654055782
 20
3.69208264435483
 10
10.65985503296737
 20
3.692375713533786
 10
10.65959873261529
 20
3.692632374364568
 10
10.6593146754037
 20
3.692851905889769
 10
10.65863697545727
 20
3.693200128309056
 10
10.6578767258897
 20
3.693438404726394
 10
10.65707069552787
 20
3.69361251593604
 10
10.6555592083601
 20
3.693868816288121
 10
10.65486312400023
 20
3.694051939465133
 97
        0
 92
        3
 72
     0
 73
     1
 93
        8
 10
10.66673404790239
 20
3.695728165396476
 10
10.6693904154052
 20
3.695728165396476
 10
10.6693904154052
 20
3.697853187302988
 10
10.6614123009294
 20
3.697853187302988
 10
10.6614123009294
 20
3.695728165396476
 10
10.6640686684322
 20
3.695728165396476
 10
10.6640686684322
 20
3.687484378122523
 10
10.66673404790239
 20
3.687484378122523
 97
        0
 92
        3
 72
     0
 73
     1
 93
       12
 10
10.67125913695962
 20
3.687484378122523
 10
10.67923725143542
 20
3.687484378122523
 10
10.67923725143542
 20
3.689343727230882
 10
10.67364983166429
 20
3.689343727230882
 10
10.67364983166429
 20
3.691734421935545
 10
10.67844023304098
 20
3.691734421935545
 10
10.67844023304098
 20
3.693868816288121
 10
10.67364983166429
 20
3.693868816288121
 10
10.67364983166429
 20
3.695728165396476
 10
10.67870590583913
 20
3.695728165396476
 10
10.67870590583913
 20
3.697853187302988
 10
10.67125913695962
 20
3.697853187302988
 97
        0
 92
        3
 72
     0
 73
     1
 93
        4
 10
10.68109660054378
 20
3.687484378122523
 10
10.68376198001397
 20
3.687484378122523
 10
10.68376198001397
 20
3.697853187302988
 10
10.68109660054378
 20
3.697853187302988
 97
        0
 92
        3
 72
     0
 73
     1
 93
       10
 10
10.68855274186936
 20
3.687484378122523
 10
10.68855274186936
 20
3.693868816288121
 10
10.69227144008607
 20
3.687484378122523
 10
10.69493681955625
 20
3.687484378122523
 10
10.69493681955625
 20
3.697853187302988
 10
10.69253711288422
 20
3.697853187302988
 10
10.69253711288422
 20
3.69120343681793
 10
10.68881841466751
 20
3.697853187302988
 10
10.68615267471863
 20
3.697853187302988
 10
10.68615267471863
 20
3.687484378122523
 97
        0
 92
        3
 72
     0
 73
     1
 93
       10
 10
10.70584634677909
 20
3.695728165396476
 10
10.70584634677909
 20
3.697853187302988
 10
10.69732751426092
 20
3.697853187302988
 10
10.69732751426092
 20
3.695728165396476
 10
10.7026496217126
 20
3.695728165396476
 10
10.69706220194145
 20
3.689343727230882
 10
10.69706220194145
 20
3.687484378122523
 10
10.70584634677909
 20
3.687484378122523
 10
10.70584634677909
 20
3.689343727230882
 10
10.70025892700793
 20
3.689343727230882
 97
        0
 92
        3
 72
     0
 73
     1
 93
       12
 10
10.70797136868559
 20
3.687484378122523
 10
10.71595849512877
 20
3.687484378122523
 10
10.71595849512877
 20
3.689343727230882
 10
10.71063674815578
 20
3.689343727230882
 10
10.71063674815578
 20
3.691734421935545
 10
10.71515246476694
 20
3.691734421935545
 10
10.71515246476694
 20
3.693868816288121
 10
10.71063674815578
 20
3.693868816288121
 10
10.71063674815578
 20
3.695728165396476
 10
10.71568381036324
 20
3.695728165396476
 10
10.71568381036324
 20
3.697853187302988
 10
10.70797136868559
 20
3.697853187302988
 97
        0
 92
        3
 72
     0
 73
     1
 93
       42
 10
10.72047457221863
 20
3.697853187302988
 10
10.71781820471583
 20
3.697853187302988
 10
10.71781820471583
 20
3.690937764019784
 10
10.71784560109663
 20
3.690461211185113
 10
10.71792815071776
 20
3.690012415209945
 10
10.71805612065446
 20
3.689609400029031
 10
10.71822121989673
 20
3.689234141707626
 10
10.71868840028533
 20
3.688592850109379
 10
10.71928355061064
 20
3.688079888926521
 10
10.71997062300315
 20
3.68769525815905
 10
10.72073087257072
 20
3.687420212914827
 10
10.72153690293253
 20
3.687264486118631
 10
10.72234293329436
 20
3.687209693356999
 10
10.72305740206767
 20
3.687264486118631
 10
10.72379025525444
 20
3.687420212914827
 10
10.72450472402775
 20
3.68769525815905
 10
10.72516403956074
 20
3.688079888926521
 10
10.72574116595131
 20
3.688592850109379
 10
10.72618996192647
 20
3.689234141707626
 10
10.72636407313611
 20
3.689609400029031
 10
10.72649240355149
 20
3.690012415209945
 10
10.72656558072657
 20
3.690461211185113
 10
10.72659297710738
 20
3.690937764019784
 10
10.72659297710738
 20
3.697853187302988
 10
10.72420228240272
 20
3.697853187302988
 10
10.72420228240272
 20
3.69120343681793
 10
10.7241748860219
 20
3.690809433604396
 10
10.72410170884684
 20
3.69042480283692
 10
10.72396436646408
 20
3.69006756845027
 10
10.723771870841
 20
3.689737730444425
 10
10.72351557048891
 20
3.689472057646273
 10
10.72319474445044
 20
3.68926153808844
 10
10.72280110171559
 20
3.689124195705683
 10
10.72234293329436
 20
3.689078414911422
 10
10.72187575290575
 20
3.689124195705683
 10
10.72149112213829
 20
3.68926153808844
 10
10.7211706565785
 20
3.689472057646273
 10
10.72091399574773
 20
3.689737730444425
 10
10.72071248815728
 20
3.69006756845027
 10
10.72058415774188
 20
3.69042480283692
 10
10.72050196859944
 20
3.690809433604396
 10
10.72047457221863
 20
3.69120343681793
 97
        0
 92
        3
 72
     0
 73
     1
 93
       75
 10
10.72880054863502
 20
3.691386559994951
 10
10.72902044063892
 20
3.690360637629232
 10
10.72919455184856
 20
3.68988444527325
 10
10.72939605943901
 20
3.689444661265454
 10
10.72964334782373
 20
3.689041646084546
 10
10.72992740503532
 20
3.688675399730515
 10
10.73059609301439
 20
3.688052492545709
 10
10.73098973574923
 20
3.687805204160999
 10
10.73142014731095
 20
3.687594324124473
 10
10.73188732769955
 20
3.687429585360898
 10
10.73239127691505
 20
3.687310266912879
 10
10.73351777283664
 20
3.687209693356999
 10
10.73446150605992
 20
3.687264486118631
 10
10.73527654838912
 20
3.687447969774341
 10
10.73563378277579
 20
3.687594324124473
 10
10.73594523636818
 20
3.687777447301494
 10
10.73621992113371
 20
3.68800671175145
 10
10.73643981313761
 20
3.688281396516975
 10
10.73643981313761
 20
3.687484378122523
 10
10.73857420749018
 20
3.687484378122523
 10
10.73857420749018
 20
3.693071797893668
 10
10.73404911843295
 20
3.693071797893668
 10
10.73404911843295
 20
3.69120343681793
 10
10.73617414033945
 20
3.69120343681793
 10
10.73611934757783
 20
3.690745268396699
 10
10.73595424833556
 20
3.690351625661859
 10
10.73571633239691
 20
3.690030799623388
 10
10.73541389077189
 20
3.6897744992713
 10
10.73507504079867
 20
3.689582003648224
 10
10.73471780641202
 20
3.689444661265454
 10
10.73404911843295
 20
3.689343727230882
 10
10.73339881486732
 20
3.689398880471205
 10
10.73284908485758
 20
3.689582003648224
 10
10.73238226494768
 20
3.689866060859811
 10
10.73201565811495
 20
3.690241679659906
 10
10.73174097334942
 20
3.690708860048517
 10
10.73153946575896
 20
3.691249217612187
 10
10.73142014731095
 20
3.691862752350933
 10
10.73138373896276
 20
3.692531440329989
 10
10.73143853172439
 20
3.693374239518698
 10
10.73157587410715
 20
3.694088708292007
 10
10.73180513855713
 20
3.694683858617313
 10
10.73211659214952
 20
3.695160411451992
 10
10.73250122291699
 20
3.695526657806018
 10
10.73295903085953
 20
3.69579233060417
 10
10.73347199204239
 20
3.695948057400372
 10
10.73404911843295
 20
3.695993838194632
 10
10.73479098358708
 20
3.695902276606126
 10
10.73513019403899
 20
3.695783318636792
 10
10.7354412871527
 20
3.695627591840597
 10
10.73599101716244
 20
3.695206192246244
 10
10.73643981313761
 20
3.69466583468257
 10
10.73857420749018
 20
3.695462492598324
 10
10.73814343544977
 20
3.696112796163947
 10
10.73766724309378
 20
3.696662526173692
 10
10.73714526994355
 20
3.697120694594923
 10
10.73657715552036
 20
3.697486940948953
 10
10.73595424833556
 20
3.697770998160538
 10
10.73527654838912
 20
3.697972505750999
 10
10.73455306764844
 20
3.698082451752953
 10
10.7337834456348
 20
3.698118860101137
 10
10.73315152648261
 20
3.698091463720321
 10
10.73257440009206
 20
3.698008914099181
 10
10.73203404252839
 20
3.697880944162493
 10
10.7315300933129
 20
3.697697460506788
 10
10.73107228537036
 20
3.69746855653551
 10
10.73065989774338
 20
3.697193871769992
 10
10.73028463942198
 20
3.69688241817758
 10
10.72995480141614
 20
3.696525183790929
 10
10.72966173223717
 20
3.696131180577389
 10
10.72941444385245
 20
3.695709780983039
 10
10.72920356381593
 20
3.695242961073121
 10
10.72902945260629
 20
3.694757396271076
 10
10.72880054863502
 20
3.693694705078475
 10
10.72872737145995
 20
3.692531440329989
 97
        0
 92
       18
 72
     0
 73
     1
 93
       19
 10
10.6555592083601
 20
3.711162421197844
 10
10.65639263510274
 20
3.711089244022782
 10
10.65710710387606
 20
3.710869352018881
 10
10.65770261468006
 20
3.710530502045664
 10
10.65818817948211
 20
3.710063321657055
 10
10.65855442583614
 20
3.709486195266507
 10
10.65881072618821
 20
3.708799122873998
 10
10.65896645298442
 20
3.708029861339061
 10
10.65901223377868
 20
3.70716867773691
 10
10.65896645298442
 20
3.706307854613466
 10
10.65881072618821
 20
3.705538232599816
 10
10.65855442583614
 20
3.704851520686009
 10
10.65818817948211
 20
3.704274394295461
 10
10.65770261468006
 20
3.703807213906854
 10
10.65710710387606
 20
3.703468363933634
 10
10.65639263510274
 20
3.703248471929741
 10
10.6555592083601
 20
3.703175294754672
 10
10.65315914120938
 20
3.703175294754672
 10
10.65315914120938
 20
3.711162421197844
 97
        0
 75
     0
 76
     1
 98
        0
  0
HATCH
  5
7E
330
1F
100
AcDbEntity
  8
XR$1$TB_1415_1
  6
AUSGEZOGEN
 62
    18
420
        0
440
 33554687
370
    35
100
AcDbHatch
 10
0.0
 20
0.0
 30
0.0
210
0.0
220
0.0
230
1.0
  2
SOLID
 70
     1
 71
     0
 91
       20
 92
        3
 72
     0
 73
     1
 93
        8
 10
10.78486760244823
 20
3.712225112390445
 10
10.775020766418
 20
3.687484378122523
 10
10.77741146112265
 20
3.687484378122523
 10
10.78034251339099
 20
3.694931507480717
 10
10.79125204061382
 20
3.694931507480717
 10
10.79390840811662
 20
3.687484378122523
 10
10.79657378758681
 20
3.687484378122523
 10
10.78699262435473
 20
3.712225112390445
 97
        0
 92
        3
 72
     0
 73
     1
 93
      116
 10
10.79949582788777
 20
3.699721908857415
 10
10.79953223623596
 20
3.700674654048065
 10
10.79962379782447
 20
3.701636411206089
 10
10.79977952462067
 20
3.702607180331494
 10
10.80000878907063
 20
3.703559925522146
 10
10.80030185824959
 20
3.70448491385329
 10
10.80065909263625
 20
3.70539187824969
 10
10.80108950419798
 20
3.706252701373143
 10
10.80159345341347
 20
3.707068104181033
 10
10.80217021932532
 20
3.707818981302527
 10
10.80281151092357
 20
3.708506053695033
 10
10.80352597969688
 20
3.709119948912468
 10
10.80432299809135
 20
3.709632910095328
 10
10.80519319366086
 20
3.710053949210987
 10
10.80614557837282
 20
3.710365402803393
 10
10.80717150073854
 20
3.710557898426476
 10
10.8082799727254
 20
3.710631075601545
 10
10.80959896427008
 20
3.710548886459103
 10
10.810780613432
 20
3.710319622009136
 10
10.81132097099568
 20
3.710145871278195
 10
10.81182455973248
 20
3.709925979274294
 10
10.81229174012107
 20
3.709669318443519
 10
10.81273152412887
 20
3.709367237297183
 10
10.81351917007726
 20
3.708625372143053
 10
10.81418785805631
 20
3.707709395779282
 10
10.81474660003343
 20
3.706600923792428
 10
10.8151953960086
 20
3.705309328628555
 10
10.81758609071325
 20
3.706637692619306
 10
10.81684422555913
 20
3.708048245752499
 10
10.81598340243567
 20
3.709275675708674
 10
10.81502164527765
 20
3.710328994455211
 10
10.81449029968134
 20
3.710786802397748
 10
10.81393155770423
 20
3.711189817578665
 10
10.81334541934631
 20
3.711556424411387
 10
10.81272251216149
 20
3.711867878003783
 10
10.8120628361498
 20
3.712142562769315
 10
10.8113757637573
 20
3.712362454773209
 10
10.80990104541642
 20
3.712655523952171
 10
10.8082799727254
 20
3.712756097508052
 10
10.80687843155957
 20
3.712682920332985
 10
10.8055868363957
 20
3.712472400775159
 10
10.80437779085297
 20
3.712124178355872
 10
10.80327869131218
 20
3.711656997967266
 10
10.8022711533599
 20
3.711070859609336
 10
10.80135517699613
 20
3.710383787216835
 10
10.80053076222087
 20
3.709605153235823
 10
10.79979790903411
 20
3.708734957666306
 10
10.79915661743585
 20
3.707782572954346
 10
10.79860724790481
 20
3.706765662555996
 10
10.7981400675162
 20
3.705693959396023
 10
10.79776444871611
 20
3.704558091028359
 10
10.79747137953715
 20
3.703394826279875
 10
10.79726987194669
 20
3.702185780737133
 10
10.79714154153131
 20
3.700958350780957
 10
10.79710513318311
 20
3.699721908857415
 10
10.79714154153131
 20
3.698384532899289
 10
10.79726987194669
 20
3.69709293773542
 10
10.79747137953715
 20
3.695847483844491
 10
10.79775543674873
 20
3.694647450269129
 10
10.79812168310276
 20
3.693511581901459
 10
10.798579851524
 20
3.692439878741483
 10
10.7991108366416
 20
3.691432340789208
 10
10.79973374382642
 20
3.690507352458057
 10
10.80042982818629
 20
3.689664553269349
 10
10.80121783461336
 20
3.688913315669155
 10
10.80209704215026
 20
3.688263012103531
 10
10.80304978734091
 20
3.687704270126424
 10
10.80409373364137
 20
3.687273858564693
 10
10.80522960200905
 20
3.686944020558853
 10
10.80643864755178
 20
3.686751524935767
 10
10.8077486271291
 20
3.6866783477607
 10
10.80884772666989
 20
3.686742512968396
 10
10.80995619865674
 20
3.686935008591476
 10
10.81103691378409
 20
3.687255474151256
 10
10.81207220859587
 20
3.687713282093786
 10
10.81302459330783
 20
3.688308792897786
 10
10.81388577690998
 20
3.689041646084546
 10
10.81461863009674
 20
3.689911841654057
 10
10.81492071124308
 20
3.690406418423483
 10
10.8151953960086
 20
3.690937764019784
 10
10.8151953960086
 20
3.687484378122523
 10
10.81732041791511
 20
3.687484378122523
 10
10.81732041791511
 20
3.700253254453712
 10
10.80614557837282
 20
3.700253254453712
 10
10.80614557837282
 20
3.698118860101137
 10
10.8151953960086
 20
3.698118860101137
 10
10.8151953960086
 20
3.696790856589081
 10
10.81509482245272
 20
3.695453480630951
 10
10.81478336886031
 20
3.694088708292007
 10
10.8145360804756
 20
3.693411008345578
 10
10.81424301129664
 20
3.692751332333888
 10
10.81388577690998
 20
3.692110040735641
 10
10.81346437731563
 20
3.691505517964275
 10
10.81298818495964
 20
3.690937764019784
 10
10.81243845494991
 20
3.69042480283692
 10
10.81183393217854
 20
3.689966634415689
 10
10.8111562322321
 20
3.689572991680847
 10
10.81041400659928
 20
3.689252165642376
 10
10.80958959182401
 20
3.689014249703727
 10
10.80871038428712
 20
3.688858522907531
 10
10.8077486271291
 20
3.688812742113276
 10
10.8066859359365
 20
3.688876907320968
 10
10.8057151668111
 20
3.689069042465359
 10
10.80480820241469
 20
3.689380496057764
 10
10.80398414811813
 20
3.689801895652112
 10
10.80324192248531
 20
3.69032386880235
 10
10.80256422253886
 20
3.69092839157372
 10
10.8019596997675
 20
3.691615463966218
 10
10.8014283541712
 20
3.692366701566414
 10
10.80096117378259
 20
3.693181743895615
 10
10.80056753104775
 20
3.694042927497764
 10
10.80022832059583
 20
3.69494953141547
 10
10.79996300827637
 20
3.695883892192682
 10
10.79976150068593
 20
3.696836637383325
 10
10.7996147858571
 20
3.697798394541358
 10
10.79952322426858
 20
3.698760151699384
 97
        0
 92
        3
 72
     0
 73
     1
 93
       37
 10
10.82078281577974
 20
3.687484378122523
 10
10.8231735104844
 20
3.687484378122523
 10
10.8231735104844
 20
3.698384532899289
 10
10.82876129073424
 20
3.698384532899289
 10
10.83674841717741
 20
3.687484378122523
 10
10.83967045747838
 20
3.687484378122523
 10
10.83169234300257
 20
3.698384532899289
 10
10.83329539175884
 20
3.698586040489743
 10
10.83403725691298
 20
3.698760151699384
 10
10.83472396882678
 20
3.698980043703281
 10
10.83536526042503
 20
3.699254728468806
 10
10.83595139878297
 20
3.699575194028583
 10
10.83649211682533
 20
3.699941800861307
 10
10.83697732114867
 20
3.700353828009591
 10
10.83741710515647
 20
3.700811996430824
 10
10.83779272395657
 20
3.701315585167618
 10
10.83812256196242
 20
3.701865315177362
 10
10.83838787428187
 20
3.702469837948729
 10
10.8385987543184
 20
3.703111129546969
 10
10.8387544811146
 20
3.703797841460786
 10
10.8388460427031
 20
3.704530694647543
 10
10.83887343908391
 20
3.705309328628555
 10
10.83877286552803
 20
3.706600923792428
 10
10.83846141193563
 20
3.707846738162041
 10
10.8382231355183
 20
3.708441888487347
 10
10.8379390783067
 20
3.709019014877895
 10
10.83758184392005
 20
3.709559372441569
 10
10.83717882873914
 20
3.710063321657055
 10
10.83671164835054
 20
3.710530502045664
 10
10.83618967520029
 20
3.71094252919395
 10
10.8355941643963
 20
3.71131814799405
 10
10.83494386083068
 20
3.71162960158645
 10
10.83422939205736
 20
3.711885901938536
 10
10.83345075807635
 20
3.712069385594245
 10
10.83260831936635
 20
3.712188343563563
 10
10.83169234300257
 20
3.712225112390445
 10
10.82078281577974
 20
3.712225112390445
 97
        0
 92
        3
 72
     0
 73
     1
 93
       64
 10
10.8406322146364
 20
3.697248664531611
 10
10.84084273419422
 20
3.696048991434949
 10
10.84112679140582
 20
3.694876354240396
 10
10.84150241020591
 20
3.693749858318799
 10
10.84196021814845
 20
3.692668782712754
 10
10.84250093619082
 20
3.691652232793098
 10
10.843132855343
 20
3.690708860048517
 10
10.84384732411632
 20
3.689838664478999
 10
10.84465335447815
 20
3.689050658051918
 10
10.84555094642847
 20
3.68836394613811
 10
10.84653108799995
 20
3.687786819747557
 10
10.8476118031273
 20
3.687319639358948
 10
10.84877506787577
 20
3.686971416939667
 10
10.85003025469146
 20
3.686751524935767
 10
10.8513669096922
 20
3.6866783477607
 10
10.8526768892695
 20
3.686751524935767
 10
10.85389530725831
 20
3.686971416939667
 10
10.85502180317991
 20
3.687319639358948
 10
10.85606610995907
 20
3.687786819747557
 10
10.85701849467104
 20
3.68836394613811
 10
10.85789806268661
 20
3.689050658051918
 10
10.858685708635
 20
3.689838664478999
 10
10.85938179299488
 20
3.690708860048517
 10
10.86000470017968
 20
3.691652232793098
 10
10.86053604577599
 20
3.692668782712754
 10
10.86099385371853
 20
3.693749858318799
 10
10.86136046055125
 20
3.694876354240396
 10
10.86164415728415
 20
3.696048991434949
 10
10.86185503732067
 20
3.697248664531611
 10
10.86197399528999
 20
3.698476094487787
 10
10.86201076411687
 20
3.699721908857415
 10
10.86197399528999
 20
3.700958350780957
 10
10.86185503732067
 20
3.702185780737133
 10
10.86164415728415
 20
3.703394826279875
 10
10.86136046055125
 20
3.704558091028359
 10
10.86099385371853
 20
3.705693959396023
 10
10.86053604577599
 20
3.706765662555996
 10
10.86000470017968
 20
3.707782572954346
 10
10.85938179299488
 20
3.708734957666306
 10
10.858685708635
 20
3.709605153235823
 10
10.85789806268661
 20
3.710383787216835
 10
10.85701849467104
 20
3.711070859609336
 10
10.85606610995907
 20
3.711656997967266
 10
10.85502180317991
 20
3.712124178355872
 10
10.85389530725831
 20
3.712472400775159
 10
10.8526768892695
 20
3.712682920332985
 10
10.8513669096922
 20
3.712756097508052
 10
10.85003025469146
 20
3.712682920332985
 10
10.84877506787577
 20
3.712472400775159
 10
10.8476118031273
 20
3.712124178355872
 10
10.84653108799995
 20
3.711656997967266
 10
10.84555094642847
 20
3.711070859609336
 10
10.84465335447815
 20
3.710383787216835
 10
10.84384732411632
 20
3.709605153235823
 10
10.843132855343
 20
3.708734957666306
 10
10.84250093619082
 20
3.707782572954346
 10
10.84196021814845
 20
3.706765662555996
 10
10.84150241020591
 20
3.705693959396023
 10
10.84112679140582
 20
3.704558091028359
 10
10.84084273419422
 20
3.703394826279875
 10
10.8406322146364
 20
3.702185780737133
 10
10.84051325666708
 20
3.700958350780957
 10
10.84047648784019
 20
3.699721908857415
 10
10.84051325666708
 20
3.698476094487787
 97
        0
 92
        3
 72
     0
 73
     1
 93
       57
 10
10.87585098312934
 20
3.687484378122523
 10
10.87685852108162
 20
3.687521146949404
 10
10.87779288185883
 20
3.687621720505283
 10
10.87866307742835
 20
3.68779583171493
 10
10.87945108385544
 20
3.688034108132268
 10
10.88017456459612
 20
3.68832717731123
 10
10.88083388012912
 20
3.688675399730515
 10
10.88142037896573
 20
3.689069042465359
 10
10.8819333401486
 20
3.689508826473149
 10
10.88239114809114
 20
3.689994391275197
 10
10.88277577885861
 20
3.690507352458057
 10
10.88310561686445
 20
3.691056721989107
 10
10.88337128966261
 20
3.691633848379657
 10
10.88357279725306
 20
3.692229359183655
 10
10.88371951208189
 20
3.692851905889769
 10
10.88380170122432
 20
3.693484185520644
 10
10.88382909760515
 20
3.694134489086266
 10
10.88375592043007
 20
3.695389315423259
 10
10.8835270164588
 20
3.69655258017174
 10
10.8833438932818
 20
3.697102310181486
 10
10.88313301324526
 20
3.697615271364346
 10
10.88286734044711
 20
3.698100475687692
 10
10.88256525930078
 20
3.698558644108927
 10
10.8822170368815
 20
3.698970671257212
 10
10.88183240611403
 20
3.699355662503376
 10
10.88139262210623
 20
3.69970352444397
 10
10.88091642975025
 20
3.700005966069004
 10
10.88038508415394
 20
3.700271638867149
 10
10.87980795776339
 20
3.700482158424986
 10
10.87918541105728
 20
3.700656269634619
 10
10.87850735063215
 20
3.700784600050016
 10
10.87962483458637
 20
3.701040900402097
 10
10.88011039938842
 20
3.701224023579114
 10
10.88055919536359
 20
3.70143490361564
 10
10.88134684131197
 20
3.701938492352425
 10
10.88196974849678
 20
3.702579783950678
 10
10.88244630133145
 20
3.703340033518247
 10
10.88262942450847
 20
3.703770445079974
 10
10.88277577885861
 20
3.704228613501202
 10
10.8829682744817
 20
3.705236151453486
 10
10.88303243968939
 20
3.706372019821156
 10
10.88298665889513
 20
3.707003938973336
 10
10.88280353571812
 20
3.707846738162041
 10
10.88264780892191
 20
3.70831391855065
 10
10.88242791691801
 20
3.708808495320072
 10
10.8821528716738
 20
3.709303072089486
 10
10.8818050097332
 20
3.70979764885891
 10
10.88137459817148
 20
3.710273841214888
 10
10.88086163698862
 20
3.710722637190056
 10
10.88025711421726
 20
3.711135024817033
 10
10.87955165741131
 20
3.711492259203691
 10
10.87873661508212
 20
3.71179434035003
 10
10.87781126627227
 20
3.712023604799995
 10
10.87676695949311
 20
3.712169959150122
 10
10.87558531033119
 20
3.712225112390445
 10
10.86494181638521
 20
3.712225112390445
 10
10.86494181638521
 20
3.687484378122523
 97
        0
 92
        3
 72
     0
 73
     1
 93
       56
 10
10.89181658452701
 20
3.687484378122523
 10
10.90299142406929
 20
3.687484378122523
 10
10.90525378835857
 20
3.687566927743657
 10
10.90628908317036
 20
3.687685885712983
 10
10.90725985229574
 20
3.687850984955249
 10
10.90815744424608
 20
3.688070516480451
 10
10.90899123146742
 20
3.688336189278605
 10
10.90975148103499
 20
3.688657015317074
 10
10.91043855342749
 20
3.689041646084546
 10
10.91105208816623
 20
3.689481430092337
 10
10.91158343376254
 20
3.689985018829133
 10
10.91204124170507
 20
3.690553133252315
 10
10.91241686050517
 20
3.691185052404498
 10
10.91270992968413
 20
3.691881136764372
 10
10.91292080972067
 20
3.692650398299316
 10
10.91305815210342
 20
3.693484185520644
 10
10.9130945604516
 20
3.694400161884421
 10
10.91306716407079
 20
3.695068849863481
 10
10.91297560248229
 20
3.695700769015666
 10
10.91282924813214
 20
3.696277895406214
 10
10.9126277405417
 20
3.696809241002518
 10
10.91238009167829
 20
3.69729444532587
 10
10.91208702249932
 20
3.697734229333659
 10
10.91174817252611
 20
3.6981282325472
 10
10.91137255372601
 20
3.698485466933862
 10
10.91095115413165
 20
3.698805932493633
 10
10.9105023581565
 20
3.699080617259164
 10
10.91001715383314
 20
3.699318893676496
 10
10.90950419265028
 20
3.699520401266955
 10
10.90841410507686
 20
3.699822842891981
 10
10.90724146788231
 20
3.699987581655563
 10
10.90724146788231
 20
3.700253254453712
 10
10.90837733624998
 20
3.700592104426929
 10
10.90938487420226
 20
3.701013504021277
 10
10.91024605780441
 20
3.70152646520414
 10
10.91096953854509
 20
3.702149372388951
 10
10.91153765296828
 20
3.702881865097015
 10
10.91176655693955
 20
3.703284880277923
 10
10.91195905256263
 20
3.703734036731783
 10
10.91221535291472
 20
3.70471381782456
 10
10.91229790253585
 20
3.705840674224854
 10
10.91226113370898
 20
3.706655716554051
 10
10.91214217573965
 20
3.707406954154247
 10
10.91194968011657
 20
3.708103038514126
 10
10.91168400731841
 20
3.708744330112373
 10
10.91135452979126
 20
3.709321456502927
 10
10.91095115413165
 20
3.709843429653159
 10
10.91049334618912
 20
3.710310610041761
 10
10.90997137303889
 20
3.710722637190056
 10
10.90939424664833
 20
3.711089244022782
 10
10.90876232749615
 20
3.711400697615185
 10
10.90808426707101
 20
3.711656997967266
 10
10.90736078633033
 20
3.71185850555772
 10
10.90578513395487
 20
3.71213355080194
 10
10.90405411526189
 20
3.712225112390445
 10
10.89181658452701
 20
3.712225112390445
 97
        0
 92
        3
 72
     0
 73
     1
 93
       58
 10
10.91735397671069
 20
3.695993838194632
 10
10.91741814191838
 20
3.694793804619259
 10
10.9176012650954
 20
3.693685693111102
 10
10.91790370672043
 20
3.692668782712754
 10
10.91830672190135
 20
3.691734421935545
 10
10.91880129867076
 20
3.690882610779465
 10
10.91937842506132
 20
3.690122361211894
 10
10.92002872862695
 20
3.689444661265454
 10
10.92074319740026
 20
3.688840138494093
 10
10.92152183138127
 20
3.688318165343853
 10
10.92234624615653
 20
3.687878381336062
 10
10.9231980573126
 20
3.68750276253596
 10
10.92408627681687
 20
3.687200681389633
 10
10.92499324121328
 20
3.686971416939667
 10
10.92590921757705
 20
3.686806678176088
 10
10.92682519394082
 20
3.686715116587582
 10
10.92773215833722
 20
3.6866783477607
 10
10.92863876225492
 20
3.686715116587582
 10
10.9295547386187
 20
3.686806678176088
 10
10.93047071498247
 20
3.686971416939667
 10
10.9313683069328
 20
3.687200681389633
 10
10.93225688691576
 20
3.68750276253596
 10
10.93311807051791
 20
3.687878381336062
 10
10.93394248529318
 20
3.688318165343853
 10
10.93471174682811
 20
3.688840138494093
 10
10.93543522756881
 20
3.689444661265454
 10
10.93608589161312
 20
3.690122361211894
 10
10.93666265752498
 20
3.690882610779465
 10
10.93715759477309
 20
3.691734421935545
 10
10.93756060995401
 20
3.692668782712754
 10
10.93786269110035
 20
3.693685693111102
 10
10.93804581427736
 20
3.694793804619259
 10
10.93810997948505
 20
3.695993838194632
 10
10.93810997948505
 20
3.712225112390445
 10
10.93199121411761
 20
3.712225112390445
 10
10.93199121411761
 20
3.696525183790929
 10
10.93193642135598
 20
3.695554054186838
 10
10.93177132211372
 20
3.694656462236499
 10
10.93148762538081
 20
3.693841419907301
 10
10.9310568533404
 20
3.693135963101355
 10
10.93048008742854
 20
3.692549824743435
 10
10.93013186500925
 20
3.692311548326099
 10
10.92974723424179
 20
3.692110040735641
 10
10.92930745023399
 20
3.691954313939439
 10
10.92883125787801
 20
3.691835355970115
 10
10.92773215833722
 20
3.691734421935545
 10
10.92663269831774
 20
3.691835355970115
 10
10.92615650596175
 20
3.691954313939439
 10
10.92571672195397
 20
3.692110040735641
 10
10.92533209118649
 20
3.692311548326099
 10
10.9249842292459
 20
3.692549824743435
 10
10.92440710285535
 20
3.693135963101355
 10
10.92397669129363
 20
3.693841419907301
 10
10.92369263408203
 20
3.694656462236499
 10
10.92352753483977
 20
3.695554054186838
 10
10.92347274207814
 20
3.696525183790929
 10
10.92347274207814
 20
3.712225112390445
 10
10.91735397671069
 20
3.712225112390445
 97
        0
 92
        3
 72
     0
 73
     1
 93
      105
 10
10.94848816111159
 20
3.699721908857415
 10
10.9485155574924
 20
3.700729446809692
 10
10.9486071190809
 20
3.7016638075869
 10
10.94875383390973
 20
3.702534003156417
 10
10.94895534150019
 20
3.703321649104806
 10
10.9492026298849
 20
3.70404549032419
 10
10.94950471103124
 20
3.704695793889807
 10
10.94985293345053
 20
3.705281932247735
 10
10.95024657618537
 20
3.705803905397976
 10
10.9506773482258
 20
3.706262073819207
 10
10.95114452861439
 20
3.706646704586681
 10
10.95164811735118
 20
3.706976542592527
 10
10.95218847491486
 20
3.707242215390675
 10
10.95275658933804
 20
3.707443722981134
 10
10.95335173966335
 20
3.707590077331262
 10
10.95396563488078
 20
3.707672626952399
 10
10.95460692647902
 20
3.707700023333217
 10
10.95540358439478
 20
3.707626846158142
 10
10.9561822183758
 20
3.707415966121616
 10
10.95692408352992
 20
3.707086488594472
 10
10.95762954033587
 20
3.706637692619306
 10
10.95827083193411
 20
3.706087962609565
 10
10.95882957391123
 20
3.705456043457378
 10
10.95929639382114
 20
3.704750586651442
 10
10.95966300065387
 20
3.70397195267043
 10
10.96471006286134
 20
3.706372019821156
 10
10.96377570208413
 20
3.707791584921724
 10
10.96275879168577
 20
3.70905578370478
 10
10.96164130773155
 20
3.710145871278195
 10
10.96104615740625
 20
3.710622063634175
 10
10.96042325022144
 20
3.711061847641964
 10
10.95977294665582
 20
3.711446478409436
 10
10.95909488623068
 20
3.711785328382657
 10
10.95838041745736
 20
3.71207839756162
 10
10.95763855230325
 20
3.712316673978957
 10
10.95686929076829
 20
3.712508809123343
 10
10.95606326040647
 20
3.712646511984804
 10
10.95522046121777
 20
3.712728701127246
 10
10.95434125368088
 20
3.712756097508052
 10
10.95293070054768
 20
3.712682920332985
 10
10.9516113485243
 20
3.712481412742531
 10
10.95036589463339
 20
3.712142562769315
 10
10.94921164185227
 20
3.711693766794151
 10
10.9481399386923
 20
3.711125652370965
 10
10.94715979712083
 20
3.710457324870597
 10
10.9462622051705
 20
3.709687702856963
 10
10.94545617480867
 20
3.708835891700883
 10
10.94474170603535
 20
3.707892518956292
 10
10.94411879885055
 20
3.706884981004014
 10
10.94358745325425
 20
3.705803905397976
 10
10.94314802972515
 20
3.704677409476369
 10
10.94280881927324
 20
3.703486748347073
 10
10.94256153088852
 20
3.702268330358273
 10
10.94241517653839
 20
3.701004131575215
 10
10.94236002329807
 20
3.699721908857415
 10
10.94241517653839
 20
3.698430313693541
 10
10.94257090333459
 20
3.697175487356546
 10
10.94283657613275
 20
3.695948057400372
 10
10.94319381051941
 20
3.694766408238449
 10
10.94366099090801
 20
3.693630539870779
 10
10.94421973288513
 20
3.692549824743435
 10
10.94487003645075
 20
3.691542286791155
 10
10.94562091357225
 20
3.690607926013936
 10
10.94647272472833
 20
3.689747102890493
 10
10.94740708550554
 20
3.688986492844222
 10
10.94843300787126
 20
3.688308792897786
 10
10.94955049182549
 20
3.687750050920675
 10
10.95075052540085
 20
3.687292242978136
 10
10.95204212056472
 20
3.68696240497229
 10
10.95341590487103
 20
3.686751524935767
 10
10.95487223879848
 20
3.6866783477607
 10
10.95561446443131
 20
3.686705744141511
 10
10.95634695713937
 20
3.686788293762647
 10
10.95779427909944
 20
3.687118131768493
 10
10.95849036345932
 20
3.687356047707135
 10
10.95917743585182
 20
3.687649477364797
 10
10.95984612383088
 20
3.687988327338013
 10
10.96048741542913
 20
3.688381970072855
 10
10.96171484538532
 20
3.68928893446925
 10
10.96284134130691
 20
3.690388034010041
 10
10.96383986729182
 20
3.691642860347032
 10
10.96429767523436
 20
3.692339305185604
 10
10.96471006286134
 20
3.693071797893668
 10
10.95992867345202
 20
3.695462492598324
 10
10.95947050503079
 20
3.69462906585569
 10
10.95891176305368
 20
3.69391459708237
 10
10.9582798439015
 20
3.693319086278374
 10
10.95759277150898
 20
3.692833881955028
 10
10.95688767518174
 20
3.692467275122302
 10
10.9561822183758
 20
3.692210974770218
 10
10.95550451842936
 20
3.692055247974015
 10
10.95487223879848
 20
3.69200009473369
 10
10.95396563488078
 20
3.692055247974015
 10
10.95314122010551
 20
3.692192590356774
 10
10.95239935495138
 20
3.692421494328046
 10
10.9517396789397
 20
3.692723935953074
 10
10.95114452861439
 20
3.693099554753173
 10
10.95063156743153
 20
3.6935299663149
 10
10.9501733990103
 20
3.694024543084323
 10
10.94977939579676
 20
3.694564900647993
 10
10.94944991826961
 20
3.69514202703855
 10
10.94917487302539
 20
3.695755561777291
 10
10.94894596905412
 20
3.69639685337554
 10
10.94877185784448
 20
3.697056529387226
 10
10.94855232631928
 20
3.698393905345349
 97
        0
 92
        3
 72
     0
 73
     1
 93
       12
 10
10.96817246072597
 20
3.687484378122523
 10
10.97429122609341
 20
3.687484378122523
 10
10.97429122609341
 20
3.697853187302988
 10
10.98360671652734
 20
3.697853187302988
 10
10.98360671652734
 20
3.687484378122523
 10
10.98972512141609
 20
3.687484378122523
 10
10.98972512141609
 20
3.712225112390445
 10
10.98360671652734
 20
3.712225112390445
 10
10.98360671652734
 20
3.703175294754672
 10
10.97429122609341
 20
3.703175294754672
 10
10.97429122609341
 20
3.712225112390445
 10
10.96817246072597
 20
3.712225112390445
 97
        0
 92
        3
 72
     0
 73
     1
 93
        8
 10
11.00569072281377
 20
3.707434350535061
 10
11.01207516097935
 20
3.707434350535061
 10
11.01207516097935
 20
3.712225112390445
 10
10.9929128345152
 20
3.712225112390445
 10
10.9929128345152
 20
3.707434350535061
 10
10.99957195744632
 20
3.707434350535061
 10
10.99957195744632
 20
3.687484378122523
 10
11.00569072281377
 20
3.687484378122523
 97
        0
 92
        3
 72
     0
 73
     1
 93
        8
 10
11.01020643942493
 20
3.687484378122523
 10
11.01686556235605
 20
3.687484378122523
 10
11.01819392634679
 20
3.69120343681793
 10
11.02723437153651
 20
3.69120343681793
 10
11.02857174749463
 20
3.687484378122523
 10
11.03522185845837
 20
3.687484378122523
 10
11.02590636802445
 20
3.712225112390445
 10
11.01952192985886
 20
3.712225112390445
 97
        0
 92
        3
 72
     0
 73
     1
 93
        6
 10
11.03787822596118
 20
3.687484378122523
 10
11.05384346688016
 20
3.687484378122523
 10
11.05384346688016
 20
3.692531440329989
 10
11.04426266412678
 20
3.692531440329989
 10
11.04426266412678
 20
3.712225112390445
 10
11.03787822596118
 20
3.712225112390445
 97
        0
 92
       18
 72
     0
 73
     1
 93
        3
 10
10.78592993316214
 20
3.709028387323959
 10
10.79045502221936
 20
3.696790856589081
 10
10.78113953178544
 20
3.696790856589081
 97
        0
 92
       18
 72
     0
 73
     1
 93
       29
 10
10.83089532460812
 20
3.709825045239723
 10
10.832370042949
 20
3.709751868064654
 10
10.83360648487255
 20
3.709531976060762
 10
10.83413783046885
 20
3.709367237297183
 10
10.83461438330353
 20
3.709165729706731
 10
10.83504479486525
 20
3.70893646525676
 10
10.83542041366535
 20
3.708661780491237
 10
10.83574087922513
 20
3.708359699344908
 10
10.83601556399065
 20
3.708020488892986
 10
10.83624482844062
 20
3.707654242538958
 10
10.83642795161763
 20
3.70725122735805
 10
10.83666586755628
 20
3.706344262961649
 10
10.83674841717741
 20
3.705309328628555
 10
10.83668425196972
 20
3.704411736678221
 10
10.83646435996582
 20
3.703550553076075
 10
10.83629060923487
 20
3.703138525927788
 10
10.83607071723098
 20
3.702735510746881
 10
10.83580504443283
 20
3.702359891946779
 10
10.83548457887305
 20
3.70201166952749
 10
10.83510896007296
 20
3.701691203967719
 10
10.83466917606515
 20
3.701398134788755
 10
10.83416522684966
 20
3.701141834436674
 10
10.83360648487255
 20
3.70093095440015
 10
10.83297456572037
 20
3.700756843190504
 10
10.83226946939312
 20
3.700628873253811
 10
10.83148146296604
 20
3.700546323632674
 10
10.83062965180996
 20
3.700518927251856
 10
10.8231735104844
 20
3.700518927251856
 10
10.8231735104844
 20
3.709825045239723
 97
        0
 92
       18
 72
     0
 73
     1
 93
       64
 10
10.84289457892567
 20
3.700674654048065
 10
10.84299551296025
 20
3.701636411206089
 10
10.84315123975645
 20
3.702607180331494
 10
10.84337113176034
 20
3.703559925522146
 10
10.84366420093931
 20
3.70448491385329
 10
10.84402143532597
 20
3.70539187824969
 10
10.84444247444162
 20
3.706252701373143
 10
10.84492803924366
 20
3.707068104181033
 10
10.84548678122078
 20
3.707818981302527
 10
10.84611906085166
 20
3.708506053695033
 10
10.84681514521153
 20
3.709119948912468
 10
10.84758440674648
 20
3.709632910095328
 10
10.84841783348912
 20
3.710053949210987
 10
10.84933380985289
 20
3.710365402803393
 10
10.85031359094565
 20
3.710557898426476
 10
10.8513669096922
 20
3.710631075601545
 10
10.85242960088479
 20
3.710557898426476
 10
10.85340974245626
 20
3.710365402803393
 10
10.85430733440659
 20
3.710053949210987
 10
10.85513174918186
 20
3.709632910095328
 10
10.85587361433599
 20
3.709119948912468
 10
10.85655167476111
 20
3.708506053695033
 10
10.85715619753249
 20
3.707818981302527
 10
10.8576871826501
 20
3.707068104181033
 10
10.85815436303869
 20
3.706252701373143
 10
10.85854836625223
 20
3.70539187824969
 10
10.85888721622545
 20
3.70448491385329
 10
10.85915288902361
 20
3.703559925522146
 10
10.85936340858143
 20
3.702607180331494
 10
10.85950111144289
 20
3.701636411206089
 10
10.8595926730314
 20
3.700674654048065
 10
10.85962006941221
 20
3.699721908857415
 10
10.8595926730314
 20
3.698760151699384
 10
10.85950111144289
 20
3.697798394541358
 10
10.85936340858143
 20
3.696836637383325
 10
10.85915288902361
 20
3.695883892192682
 10
10.85888721622545
 20
3.69494953141547
 10
10.85854836625223
 20
3.694042927497764
 10
10.85815436303869
 20
3.693181743895615
 10
10.8576871826501
 20
3.692366701566414
 10
10.85715619753249
 20
3.691615463966218
 10
10.85655167476111
 20
3.69092839157372
 10
10.85587361433599
 20
3.69032386880235
 10
10.85513174918186
 20
3.689801895652112
 10
10.85430733440659
 20
3.689380496057764
 10
10.85340974245626
 20
3.689069042465359
 10
10.85242960088479
 20
3.688876907320968
 10
10.8513669096922
 20
3.688812742113276
 10
10.85031359094565
 20
3.688876907320968
 10
10.84933380985289
 20
3.689069042465359
 10
10.84841783348912
 20
3.689380496057764
 10
10.84758440674648
 20
3.689801895652112
 10
10.84681514521153
 20
3.69032386880235
 10
10.84611906085166
 20
3.69092839157372
 10
10.84548678122078
 20
3.691615463966218
 10
10.84492803924366
 20
3.692366701566414
 10
10.84444247444162
 20
3.693181743895615
 10
10.84402143532597
 20
3.694042927497764
 10
10.84366420093931
 20
3.69494953141547
 10
10.84337113176034
 20
3.695883892192682
 10
10.84315123975645
 20
3.696836637383325
 10
10.84299551296025
 20
3.697798394541358
 10
10.84289457892567
 20
3.698760151699384
 10
10.84286718254485
 20
3.699721908857415
 97
        0
 92
       18
 72
     0
 73
     1
 93
       26
 10
10.87505432521358
 20
3.709825045239723
 10
10.8763639443122
 20
3.709788636891533
 10
10.87749080071249
 20
3.709650934030075
 10
10.87845255787053
 20
3.709413018091438
 10
10.87887395746488
 20
3.709238906881792
 10
10.87924020381891
 20
3.709028387323959
 10
10.87957004182475
 20
3.708790110906623
 10
10.87985409903634
 20
3.708506053695033
 10
10.88009201497498
 20
3.708176215689191
 10
10.88028451059806
 20
3.707809969335162
 10
10.88044023739427
 20
3.707388569740813
 10
10.88055018339623
 20
3.706930761798271
 10
10.88064174498473
 20
3.705840674224854
 10
10.88054081095015
 20
3.704887929034201
 10
10.88042185298083
 20
3.704457517472476
 10
10.88024774177118
 20
3.704054502291569
 10
10.88003722221336
 20
3.703669871524095
 10
10.87978056138258
 20
3.703321649104806
 10
10.87913963026303
 20
3.702708114366058
 10
10.87834261186857
 20
3.702222549564014
 10
10.87787543147997
 20
3.702030053940931
 10
10.87738085471054
 20
3.701874327144731
 10
10.87628175516976
 20
3.701654795619526
 10
10.87505432521358
 20
3.701581257965767
 10
10.86733251108986
 20
3.701581257965767
 10
10.86733251108986
 20
3.709825045239723
 97
        0
 92
       18
 72
     0
 73
     1
 93
       28
 10
10.87505432521358
 20
3.699456236059255
 10
10.87654742796792
 20
3.699355662503376
 10
10.87784803509916
 20
3.699071605291787
 10
10.87841578904364
 20
3.698860725255263
 10
10.87893812267257
 20
3.698613436870553
 10
10.87941431502855
 20
3.698320367691593
 10
10.8798357146229
 20
3.697990890164441
 10
10.880211333423
 20
3.697624283331714
 10
10.88054081095015
 20
3.697221268150801
 10
10.88081585619437
 20
3.696781484143004
 10
10.88103538771957
 20
3.696314303754405
 10
10.88120949892922
 20
3.695810715017609
 10
10.8813378293446
 20
3.695279369421312
 10
10.88143840290048
 20
3.694134489086266
 10
10.88135621375804
 20
3.693328458724442
 10
10.88112730978678
 20
3.692531440329989
 10
10.88072393412716
 20
3.691762178795047
 10
10.88013779576924
 20
3.691075106402548
 10
10.87978056138258
 20
3.690763652810141
 10
10.8793685342343
 20
3.690479595598552
 10
10.87891036581307
 20
3.690232307213839
 10
10.87840677707627
 20
3.690012415209945
 10
10.87784803509916
 20
3.68984767644637
 10
10.87723413988173
 20
3.689719346030985
 10
10.87656545190265
 20
3.689637156888546
 10
10.87585098312934
 20
3.689609400029031
 10
10.86733251108986
 20
3.689609400029031
 10
10.86733251108986
 20
3.699456236059255
 97
        0
 92
       18
 72
     0
 73
     1
 93
       19
 10
10.90299142406929
 20
3.707434350535061
 10
10.90366011204836
 20
3.707406954154247
 10
10.90427400726579
 20
3.707324404533114
 10
10.90481436482947
 20
3.70716867773691
 10
10.90528154521807
 20
3.706939773765646
 10
10.90565716401818
 20
3.706619308205866
 10
10.90594086075108
 20
3.706197908611512
 10
10.90611497196072
 20
3.705675574982581
 10
10.90617913716841
 20
3.705043655830403
 10
10.90611497196072
 20
3.704393352264784
 10
10.90594086075108
 20
3.703834610287666
 10
10.90565716401818
 20
3.703376802345127
 10
10.90528154521807
 20
3.703010195512399
 10
10.90481436482947
 20
3.702726138300814
 10
10.90427400726579
 20
3.702534003156417
 10
10.90366011204836
 20
3.702415045187099
 10
10.90299142406929
 20
3.70237827636022
 10
10.89766967709631
 20
3.70237827636022
 10
10.89766967709631
 20
3.707434350535061
 97
        0
 92
       18
 72
     0
 73
     1
 93
       19
 10
10.90405411526189
 20
3.697853187302988
 10
10.90478696844865
 20
3.697807406508731
 10
10.90540951515476
 20
3.697661052158594
 10
10.90591346437025
 20
3.697422775741261
 10
10.90631647955117
 20
3.69709293773542
 10
10.90660954873013
 20
3.696671538141061
 10
10.90682042876666
 20
3.696176961371644
 10
10.90693938673597
 20
3.695590823013712
 10
10.90697615556285
 20
3.694931507480717
 10
10.90693938673597
 20
3.694345008644101
 10
10.90680204435321
 20
3.693795639113048
 10
10.90655475596851
 20
3.693301062343629
 10
10.90617913716841
 20
3.69287029030321
 10
10.90565716401818
 20
3.692504043949179
 10
10.90496071917961
 20
3.692238371151026
 10
10.90407249967534
 20
3.692064259941388
 10
10.90299142406929
 20
3.69200009473369
 10
10.89793534989446
 20
3.69200009473369
 10
10.89793534989446
 20
3.697853187302988
 97
        0
 92
       18
 72
     0
 73
     1
 93
        3
 10
11.02271865492534
 20
3.706106347023006
 10
11.0256406952263
 20
3.695728165396476
 10
11.01952192985886
 20
3.695728165396476
 97
        0
 75
     0
 76
     1
 98
        0
  0
HATCH
  5
80
102
{ACAD_REACTORS
330
7F
102
}
330
1F
100
AcDbEntity
  8
XR$1$TB_1415_1
  6
AUSGEZOGEN
 62
     3
440
 33554687
370
    35
100
AcDbHatch
 10
0.0
 20
0.0
 30
0.0
210
0.0
220
0.0
230
1.0
  2
SOLID
 70
     1
 71
     0
 91
        1
 92
        3
 72
     0
 73
     1
 93
       22
 10
10.74602097636968
 20
3.687209693356999
 10
10.7611895593729
 20
3.687209693356999
 10
10.7599073366551
 20
3.688052492545709
 10
10.75866152228549
 20
3.688968468909477
 10
10.75746148871011
 20
3.689976006861756
 10
10.75632562034244
 20
3.691075106402548
 10
10.75527230159592
 20
3.692265767531842
 10
10.75430153247052
 20
3.693575747109155
 10
10.753431336901
 20
3.694995312209719
 10
10.75267108733343
 20
3.696525183790929
 10
10.75220390694482
 20
3.697523709775831
 10
10.75180089176391
 20
3.69853124772811
 10
10.75145266934461
 20
3.699538785680395
 10
10.75115960016566
 20
3.700546323632674
 10
10.75075658498475
 20
3.702570771983299
 10
10.75057346180772
 20
3.704576475441796
 10
10.75060987015592
 20
3.706555142998172
 10
10.75083913460588
 20
3.708497041727667
 10
10.75126053420024
 20
3.710393159662903
 10
10.75154423093314
 20
3.71131814799405
 10
10.75187406893897
 20
3.712225112390445
 10
10.74602097636968
 20
3.712225112390445
 97
        0
 75
     0
 76
     1
 98
        0
  0
HATCH
  5
81
102
{ACAD_REACTORS
330
7F
102
}
330
1F
100
AcDbEntity
  8
XR$1$TB_1415_1
  6
AUSGEZOGEN
 62
     3
440
 33554687
370
    35
100
AcDbHatch
 10
0.0
 20
0.0
 30
0.0
210
0.0
220
0.0
230
1.0
  2
SOLID
 70
     1
 71
     0
 91
        1
 92
        3
 72
     0
 73
     1
 93
       24
 10
10.75858834511041
 20
3.69092839157372
 10
10.75979739065314
 20
3.689810907619491
 10
10.76112539416521
 20
3.688803369667208
 10
10.76256334367922
 20
3.687942546543762
 10
10.76411159967387
 20
3.687209693356999
 10
10.77102702295707
 20
3.687209693356999
 10
10.77102702295707
 20
3.712225112390445
 10
10.75746148871011
 20
3.712225112390445
 10
10.756902746733
 20
3.711583820792197
 10
10.75642655437703
 20
3.710860340051508
 10
10.75560213960176
 20
3.709293699643422
 10
10.75522652080167
 20
3.708497041727667
 10
10.75489668279582
 20
3.707681638919769
 10
10.7546219980303
 20
3.706866596590573
 10
10.75439309405902
 20
3.706042181815314
 10
10.75407226802055
 20
3.704393352264784
 10
10.75393492563779
 20
3.702744522714253
 10
10.75397169446467
 20
3.701095693163716
 10
10.75417320205512
 20
3.699483632440075
 10
10.75453944840916
 20
3.697898968097237
 10
10.75506178203808
 20
3.696360445027354
 10
10.75573948198453
 20
3.694885726686464
 10
10.75655488479241
 20
3.693474813074576
 10
10.75750726950437
 20
3.692155821529894
 97
        0
 75
     0
 76
     1
 98
        0
  0
MTEXT
  5
82
330
1F
100
AcDbEntity
  8
XR$1$TB_1415_1
  6
AUSGEZOGEN
 62
     7
440
 33554687
370
    -3
100
AcDbMText
 10
10.652637
 20
4.970459
 30
0.0
 40
0.025
 41
0.405443
 46
0.0
 71
     7
 72
     5
  1
\W1.00;BAUKERAMIKFASSADE
  7
ARIAL
 73
     1
 44
1.0
  0
MTEXT
  5
83
330
1F
100
AcDbEntity
  8
XR$1$TB_1415_1
  6
AUSGEZOGEN
 62
     7
440
 33554687
370
    -3
100
AcDbMText
 10
10.651569
 20
4.912892
 30
0.0
 40
0.0175
 41
0.434598
 46
0.0
 71
     7
 72
     5
  1
\W1.00;FACADE CERAMIQUE DE BATIMENT
  7
ARIAL
 73
     1
 44
1.0
  0
MTEXT
  5
84
330
1F
100
AcDbEntity
  8
XR$1$TB_1415_1
  6
AUSGEZOGEN
 62
     7
440
 33554687
370
    -3
100
AcDbMText
 10
10.651569
 20
4.939142
 30
0.0
 40
0.0175
 41
0.457071
 46
0.0
 71
     7
 72
     5
  1
\W1.00;ARCHITECTURAL CERAMICS FACADE
  7
ARIAL
 73
     1
 44
1.0
  0
MTEXT
  5
85
330
1F
100
AcDbEntity
  8
XR$1$TB_1415_1
  6
AUSGEZOGEN
 62
     7
440
 33554687
370
    -3
100
AcDbMText
 10
10.650741
 20
4.823889
 30
0.0
 40
0.0175
 41
0.434003
 46
0.0
 71
     7
 72
     5
  1
\W1.00;COVERING OF THE ROOF PARAPET
  7
ARIAL
 73
     1
 44
1.0
  0
MTEXT
  5
86
330
1F
100
AcDbEntity
  8
XR$1$TB_1415_1
  6
AUSGEZOGEN
 62
     7
440
 33554687
370
    -3
100
AcDbMText
 10
10.650741
 20
4.797639
 30
0.0
 40
0.0175
 41
0.352351
 46
0.0
 71
     7
 72
     5
  1
\W1.00;RECOUVREMENT D'ATTIQUE
  7
ARIAL
 73
     1
 44
1.0
  0
MTEXT
  5
87
330
1F
100
AcDbEntity
  8
XR$1$TB_1415_1
  6
AUSGEZOGEN
 62
     7
440
 33554687
370
    -3
100
AcDbMText
 10
10.650191
 20
3.80549
 30
0.0
 40
0.0175
 41
0.743802
 46
0.0
 71
     7
 72
     5
  1
\W1.01;Die Verlegevorschriften des Klebemittelherstellers sind einzuhalten!
  7
ARIAL
 73
     1
 44
1.0
  0
MTEXT
  5
88
330
1F
100
AcDbEntity
  8
XR$1$TB_1415_1
  6
AUSGEZOGEN
 62
     7
440
 33554687
370
    -3
100
AcDbMText
 10
10.650191
 20
3.776102
 30
0.0
 40
0.0175
 41
0.766251
 46
0.0
 71
     7
 72
     5
  1
\W1.00;The laying instructions of the adhesive producer have to be observed!
  7
ARIAL
 73
     1
 44
1.0
  0
MTEXT
  5
89
330
1F
100
AcDbEntity
  8
XR$1$TB_1415_1
  6
AUSGEZOGEN
 62
     7
440
 33554687
370
    -3
100
AcDbMText
 10
10.650191
 20
3.746714
 30
0.0
 40
0.0175
 41
0.832461
 46
0.0
 71
     7
 72
     5
  1
\W1.01;Les instructions de pose du fabricant de l'adzhésive doivent être observées!
  7
ARIAL
 73
     1
 44
1.0
  0
LINE
  5
8A
330
1F
100
AcDbEntity
  8
XR$1$TB_1415_1
  6
AUSGEZOGEN
 62
     1
440
 33554687
370
    70
100
AcDbLine
 10
10.532575
 20
3.563845
 30
0.0
 11
11.582575
 21
3.563845
 31
0.0
  0
MTEXT
  5
8B
330
1F
100
AcDbEntity
  8
XR$1$TB_1415_1
  6
AUSGEZOGEN
 62
     7
440
 33554687
370
    -3
100
AcDbMText
 10
10.650383
 20
3.631224
 30
0.0
 40
0.009
 41
0.89646
 46
0.0
 71
     7
 72
     5
  1
\W0.85;THESE ARE NOT BINDING CONSTRUCTION PROPOSALS WHICH HAVE TO BE VERIFIED FOR EACH INDIVIDUAL PROJECT AS REGARDS APPLICABILITY AND CORRECTNESS.
  7
ARIAL
 73
     1
 44
1.0
  0
MTEXT
  5
8C
330
1F
100
AcDbEntity
  8
XR$1$TB_1415_1
  6
AUSGEZOGEN
 62
     7
440
 33554687
370
    -3
100
AcDbMText
 10
10.650383
 20
3.649223
 30
0.0
 40
0.009
 41
0.8975
 46
0.0
 71
     7
 72
     5
  1
\W0.91;DIES SIND UNVERBINDLICHE KONSTRUKTIONSVORSCHLÄGE, DIE FÜR JEDES PROJEKT AUF ANWENDBARKEIT UND RICHTIGKEIT GEPRÜFT WERDEN MÜSSEN.
  7
ARIAL
 73
     1
 44
1.0
  0
MTEXT
  5
8D
330
1F
100
AcDbEntity
  8
XR$1$TB_1415_1
  6
AUSGEZOGEN
 62
     7
440
 33554687
370
    -3
100
AcDbMText
 10
10.650383
 20
3.613224
 30
0.0
 40
0.009
 41
0.895804
 46
0.0
 71
     7
 72
     5
  1
\W0.80;IL S' AGIT DE PROPOSITIONS DE CONSTRUCTION SANS ENGAGEMENT DE NOTRE PART QUI DOIVENT ETRE VERIFIEES POUR CHAQUE PROJET A LEUR EXACTITUDE ET FAISABILITE.
  7
ARIAL
 73
     1
 44
1.0
  0
MTEXT
  5
8E
330
1F
100
AcDbEntity
  8
XR$1$TB_1415_1
  6
AUSGEZOGEN
 62
     7
440
 33554687
370
    -3
100
AcDbMText
 10
11.065044
 20
3.687152
 30
0.0
 40
0.009
 41
0.348436
 46
0.0
 71
     7
 72
     5
  1
\W0.92;Tel. 09435 / 391 3238   e-mail: as.fassade@deutsche-steinzeug.de
  7
ARIAL
 73
     1
 44
1.0
  0
LINE
  5
8F
330
1F
100
AcDbEntity
  8
XR$1$TB_1415_1
  6
AUSGEZOGEN
 62
    52
440
 33554687
370
    70
100
AcDbLine
 10
10.532575
 20
5.04883
 30
0.0
 11
10.532575
 21
3.563845
 31
0.0
  0
LINE
  5
90
330
1F
100
AcDbEntity
  8
XR$1$TB_1415_1
  6
AUSGEZOGEN
 62
    52
440
 33554687
370
    70
100
AcDbLine
 10
11.582565
 20
3.563845
 30
0.0
 11
11.582565
 21
5.04883
 31
0.0
  0
LINE
  5
91
330
1F
100
AcDbEntity
  8
XR$1$TB_1415_1
  6
AUSGEZOGEN
 62
    52
440
 33554687
370
    70
100
AcDbLine
 10
11.582565
 20
5.04883
 30
0.0
 11
10.532575
 21
5.04883
 31
0.0
  0
MTEXT
  5
92
330
1F
100
AcDbEntity
  8
XR$1$TB_1415_1
  6
AUSGEZOGEN
 62
     7
440
 33554687
370
    -3
100
AcDbMText
 10
11.064592
 20
3.703394
 30
0.0
 40
0.009
 41
0.418059
 46
0.0
 71
     7
 72
     5
  1
\W1.00;AGROB BUCHTAL GmbH   Architektenservice   D - 92521 Schwarzenfeld
  7
ARIAL
 73
     1
 44
1.0
  0
MTEXT
  5
93
330
1F
100
AcDbEntity
  8
XR$1$TB_1415_1
  6
AUSGEZOGEN
 62
     7
440
 33554687
370
    -3
100
AcDbMText
 10
10.650741
 20
4.852544
 30
0.0
 40
0.025
 41
0.347108
 46
0.0
 71
     7
 72
     5
  1
\W1.00;ATTIKAABSCHLUSS
  7
ARIAL
 73
     1
 44
1.0
  0
HATCH
  5
95
330
1F
100
AcDbEntity
  8
XR$1$TB_1415_1
  6
AUSGEZOGEN
 62
    14
440
 33554687
370
    -3
100
AcDbHatch
 10
0.0
 20
0.0
 30
0.0
210
0.0
220
0.0
230
1.0
  2
_USER
 70
     0
 71
     0
 91
        1
 92
        0
 93
        4
 72
     1
 10
10.97647579134688
 20
4.560934050034525
 11
10.93447579134688
 21
4.560934050034525
 72
     1
 10
10.93447579134688
 20
4.560934050034525
 11
10.93447579134688
 21
3.966419948552223
 72
     1
 10
10.93447579134688
 20
3.966419948552222
 11
10.97647579134688
 21
3.966419948552222
 72
     1
 10
10.97647579134688
 20
3.966419948552222
 11
10.97647579134688
 21
4.560934050034525
 97
        0
 75
     0
 76
     0
 52
90.0
 41
0.06
 77
     1
 78
     2
 53
90.00000000000001
 43
0.0
 44
0.0
 45
-0.06
 46
0.0
 79
     0
 53
180.0
 43
0.0
 44
0.0
 45
0.0
 46
-0.06
 79
     0
 98
        0
1001
ACAD
1010
0.0
1020
0.0
1030
0.0
1001
NEM_ODX
1002
{
1000
BZM_DEPEND
1070
     1
1000
BZM_SCALE
1040
5.0
1000
MUSTER_415
1002
}
  0
LWPOLYLINE
  5
96
330
1F
100
AcDbEntity
  8
XR$1$TB_1415_1
  6
AUSGEZOGEN
 62
    52
440
 33554687
370
    -3
100
AcDbPolyline
 90
        2
 70
     1
 43
0.0
 10
11.241476
 20
4.596934
 10
11.241476
 20
4.596934
  0
HATCH
  5
97
330
1F
100
AcDbEntity
  8
XR$1$TB_1415_1
  6
AUSGEZOGEN
 62
    18
420
        0
440
 33554687
370
    -3
100
AcDbHatch
 10
0.0
 20
0.0
 30
0.0
210
0.0
220
0.0
230
1.0
  2
SOLID
 70
     1
 71
     0
 91
        1
 92
        3
 72
     0
 73
     1
 93
       12
 10
10.86026258791128
 20
4.648654973449226
 10
10.86026258791128
 20
4.477461474578026
 10
10.88147579134688
 20
4.498674678013622
 10
10.87935447100332
 20
4.500795998357181
 10
10.86326258791128
 20
4.484704115265144
 10
10.86326258791128
 20
4.645558224013625
 10
11.31468899478248
 20
4.635821289172478
 10
11.31468899478248
 20
4.484782894724989
 10
11.29859711169044
 20
4.500874777817025
 10
11.29647579134688
 20
4.498753457473465
 10
11.31768899478248
 20
4.477540254037869
 10
11.31768899478248
 20
4.638727562407419
 97
        0
 75
     0
 76
     1
 98
        0
  0
HATCH
  5
98
330
1F
100
AcDbEntity
  8
XR$1$TB_1415_1
  6
AUSGEZOGEN
 62
    18
420
        0
440
 33554687
370
    -3
100
AcDbHatch
 10
0.0
 20
0.0
 30
0.0
210
0.0
220
0.0
230
1.0
  2
SOLID
 70
     1
 71
     0
 91
        1
 92
        3
 72
     0
 73
     1
 93
       16
 10
11.30868899478248
 20
4.629488031980442
 10
11.30868899478248
 20
4.497540254037869
 10
11.31168899478248
 20
4.497540254037869
 10
11.31168899478248
 20
4.632426897909951
 10
11.21300630575449
 20
4.634207300285967
 10
11.18273305550305
 20
4.603934050034526
 10
11.03521833687729
 20
4.603934050034526
 10
11.00057105011633
 20
4.638581336795485
 10
10.86626258791128
 20
4.642364802047989
 10
10.86626258791128
 20
4.497461474578025
 10
10.86926258791128
 20
4.497461474578025
 10
10.86926258791128
 20
4.639302396271111
 10
10.99930293482073
 20
4.635606811403968
 10
11.03397569619017
 20
4.600934050034525
 10
11.18397569619017
 20
4.600934050034525
 10
11.21422325366196
 20
4.631181607506316
 97
        0
 75
     0
 76
     1
 98
        0
  0
HATCH
  5
99
330
1F
100
AcDbEntity
  8
XR$1$TB_1415_1
  6
AUSGEZOGEN
 62
     9
440
 33554687
370
    -3
100
AcDbHatch
 10
0.0
 20
0.0
 30
0.0
210
0.0
220
0.0
230
1.0
  2
SOLID
 70
     1
 71
     0
 91
        1
 92
        3
 72
     0
 73
     1
 93
        4
 10
10.90147579134688
 20
4.560934050034525
 10
10.90147579134688
 20
3.966419948552222
 10
10.91947579134688
 20
3.966419948552222
 10
10.91947579134688
 20
4.560934050034525
 97
        0
 75
     0
 76
     1
 98
        0
  0
LINE
  5
9A
330
1F
100
AcDbEntity
  8
XR$1$TB_1415_1
  6
AUSGEZOGEN
 62
   174
440
 33554687
370
    35
100
AcDbLine
 10
10.976476
 20
4.560934
 30
0.0
 11
10.976476
 21
3.96642
 31
0.0
  0
LINE
  5
9B
330
1F
100
AcDbEntity
  8
XR$1$TB_1415_1
  6
AUSGEZOGEN
 62
    94
440
 33554687
370
    25
100
AcDbLine
 10
10.919476
 20
4.560934
 30
0.0
 11
10.919476
 21
3.96642
 31
0.0
  0
LINE
  5
9C
330
1F
100
AcDbEntity
  8
XR$1$TB_1415_1
  6
AUSGEZOGEN
 62
    54
440
 33554687
370
    -3
100
AcDbLine
 10
10.934476
 20
4.560934
 30
0.0
 11
10.934476
 21
3.96642
 31
0.0
  0
LINE
  5
9D
330
1F
100
AcDbEntity
  8
XR$1$TB_1415_1
  6
AUSGEZOGEN
 62
    94
440
 33554687
370
    25
100
AcDbLine
 10
10.901476
 20
4.560934
 30
0.0
 11
10.901476
 21
3.96642
 31
0.0
  0
LINE
  5
9E
330
1F
100
AcDbEntity
  8
XR$1$TB_1415_1
  6
STRICHPUNKT2_S5
 62
    14
440
 33554687
370
    -3
100
AcDbLine
 10
10.840572
 20
3.96642
 30
0.0
 11
11.338334
 21
3.96642
 31
0.0
  0
LINE
  5
9F
330
1F
100
AcDbEntity
  8
XR$1$TB_1415_1
  6
AUSGEZOGEN
 62
     7
440
 33554687
370
    -3
100
AcDbLine
 10
11.182733
 20
4.603934
 30
0.0
 11
11.035218
 21
4.603934
 31
0.0
  0
LINE
  5
A0
330
1F
100
AcDbEntity
  8
XR$1$TB_1415_1
  6
AUSGEZOGEN
 62
     7
440
 33554687
370
    -3
100
AcDbLine
 10
11.183976
 20
4.600934
 30
0.0
 11
11.214223
 21
4.631182
 31
0.0
  0
LINE
  5
A1
330
1F
100
AcDbEntity
  8
XR$1$TB_1415_1
  6
AUSGEZOGEN
 62
     7
440
 33554687
370
    -3
100
AcDbLine
 10
11.182733
 20
4.603934
 30
0.0
 11
11.213006
 21
4.634207
 31
0.0
  0
LINE
  5
A2
330
1F
100
AcDbEntity
  8
XR$1$TB_1415_1
  6
AUSGEZOGEN
 62
     7
440
 33554687
370
    -3
100
AcDbLine
 10
11.035218
 20
4.603934
 30
0.0
 11
11.000571
 21
4.638581
 31
0.0
  0
LINE
  5
A3
330
1F
100
AcDbEntity
  8
XR$1$TB_1415_1
  6
AUSGEZOGEN
 62
     7
440
 33554687
370
    -3
100
AcDbLine
 10
11.033976
 20
4.600934
 30
0.0
 11
10.999303
 21
4.635607
 31
0.0
  0
LINE
  5
A4
330
1F
100
AcDbEntity
  8
XR$1$TB_1415_1
  6
STRICHPUNKT2_S5
 62
     6
440
 33554687
370
    35
100
AcDbLine
 10
11.108976
 20
4.618934
 30
0.0
 11
11.108976
 21
4.460934
 31
0.0
  0
LINE
  5
A5
330
1F
100
AcDbEntity
  8
XR$1$TB_1415_1
  6
AUSGEZOGEN
 62
     3
440
 33554687
370
    25
100
AcDbLine
 10
11.241476
 20
4.560934
 30
0.0
 11
11.241476
 21
4.600934
 31
0.0
  0
LINE
  5
A6
330
1F
100
AcDbEntity
  8
XR$1$TB_1415_1
  6
AUSGEZOGEN
 62
     3
440
 33554687
370
    25
100
AcDbLine
 10
10.976476
 20
4.560934
 30
0.0
 11
10.976476
 21
4.600934
 31
0.0
  0
LINE
  5
A7
330
1F
100
AcDbEntity
  8
XR$1$TB_1415_1
  6
AUSGEZOGEN
 62
     3
440
 33554687
370
    25
100
AcDbLine
 10
10.976476
 20
4.600934
 30
0.0
 11
11.241476
 21
4.600934
 31
0.0
  0
LINE
  5
A8
330
1F
100
AcDbEntity
  8
XR$1$TB_1415_1
  6
AUSGEZOGEN
 62
     7
440
 33554687
370
    -3
100
AcDbLine
 10
11.241476
 20
4.600934
 30
0.0
 11
10.976476
 21
4.560934
 31
0.0
  0
LINE
  5
A9
330
1F
100
AcDbEntity
  8
XR$1$TB_1415_1
  6
AUSGEZOGEN
 62
     7
440
 33554687
370
    -3
100
AcDbLine
 10
11.241476
 20
4.560934
 30
0.0
 11
10.976476
 21
4.600934
 31
0.0
  0
LINE
  5
AA
330
1F
100
AcDbEntity
  8
XR$1$TB_1415_1
  6
AUSGEZOGEN
 62
    14
440
 33554687
370
    35
100
AcDbLine
 10
10.976476
 20
4.560934
 30
0.0
 11
11.276476
 21
4.560934
 31
0.0
  0
LINE
  5
AB
330
1F
100
AcDbEntity
  8
XR$1$TB_1415_1
  6
AUSGEZOGEN
 62
    14
440
 33554687
370
    35
100
AcDbLine
 10
11.276476
 20
4.560934
 30
0.0
 11
11.276476
 21
3.96642
 31
0.0
  0
LINE
  5
AC
330
1F
100
AcDbEntity
  8
XR$1$TB_1415_1
  6
AUSGEZOGEN
 62
     7
440
 33554687
370
    -3
100
AcDbLine
 10
10.869263
 20
4.497461
 30
0.0
 11
10.866263
 21
4.497461
 31
0.0
  0
LINE
  5
AD
330
1F
100
AcDbEntity
  8
XR$1$TB_1415_1
  6
AUSGEZOGEN
 62
     7
440
 33554687
370
    -3
100
AcDbLine
 10
10.860263
 20
4.477461
 30
0.0
 11
10.881476
 21
4.498675
 31
0.0
  0
LINE
  5
AE
330
1F
100
AcDbEntity
  8
XR$1$TB_1415_1
  6
AUSGEZOGEN
 62
     7
440
 33554687
370
    -3
100
AcDbLine
 10
10.863263
 20
4.484704
 30
0.0
 11
10.879354
 21
4.500796
 31
0.0
  0
LINE
  5
AF
330
1F
100
AcDbEntity
  8
XR$1$TB_1415_1
  6
AUSGEZOGEN
 62
     7
440
 33554687
370
    -3
100
AcDbLine
 10
10.879354
 20
4.500796
 30
0.0
 11
10.881476
 21
4.498675
 31
0.0
  0
LINE
  5
B0
330
1F
100
AcDbEntity
  8
XR$1$TB_1415_1
  6
AUSGEZOGEN
 62
     7
440
 33554687
370
    -3
100
AcDbLine
 10
10.860263
 20
4.648655
 30
0.0
 11
10.860263
 21
4.477461
 31
0.0
  0
LINE
  5
B1
330
1F
100
AcDbEntity
  8
XR$1$TB_1415_1
  6
AUSGEZOGEN
 62
     7
440
 33554687
370
    -3
100
AcDbLine
 10
10.863263
 20
4.645558
 30
0.0
 11
10.863263
 21
4.484704
 31
0.0
  0
LINE
  5
B2
330
1F
100
AcDbEntity
  8
XR$1$TB_1415_1
  6
AUSGEZOGEN
 62
     7
440
 33554687
370
    -3
100
AcDbLine
 10
10.866263
 20
4.642365
 30
0.0
 11
10.866263
 21
4.497461
 31
0.0
  0
LINE
  5
B3
330
1F
100
AcDbEntity
  8
XR$1$TB_1415_1
  6
AUSGEZOGEN
 62
     7
440
 33554687
370
    -3
100
AcDbLine
 10
11.000571
 20
4.638581
 30
0.0
 11
10.866263
 21
4.642365
 31
0.0
  0
LINE
  5
B4
330
1F
100
AcDbEntity
  8
XR$1$TB_1415_1
  6
AUSGEZOGEN
 62
     7
440
 33554687
370
    -3
100
AcDbLine
 10
10.999303
 20
4.635607
 30
0.0
 11
10.869263
 21
4.639302
 31
0.0
  0
LINE
  5
B5
330
1F
100
AcDbEntity
  8
XR$1$TB_1415_1
  6
AUSGEZOGEN
 62
     7
440
 33554687
370
    -3
100
AcDbLine
 10
10.869263
 20
4.639302
 30
0.0
 11
10.869263
 21
4.497461
 31
0.0
  0
LINE
  5
B6
330
1F
100
AcDbEntity
  8
XR$1$TB_1415_1
  6
AUSGEZOGEN
 62
     7
440
 33554687
370
    -3
100
AcDbLine
 10
11.311689
 20
4.49754
 30
0.0
 11
11.308689
 21
4.49754
 31
0.0
  0
LINE
  5
B7
330
1F
100
AcDbEntity
  8
XR$1$TB_1415_1
  6
AUSGEZOGEN
 62
     7
440
 33554687
370
    -3
100
AcDbLine
 10
11.317689
 20
4.47754
 30
0.0
 11
11.296476
 21
4.498753
 31
0.0
  0
LINE
  5
B8
330
1F
100
AcDbEntity
  8
XR$1$TB_1415_1
  6
AUSGEZOGEN
 62
     7
440
 33554687
370
    -3
100
AcDbLine
 10
11.314689
 20
4.484783
 30
0.0
 11
11.298597
 21
4.500875
 31
0.0
  0
LINE
  5
B9
330
1F
100
AcDbEntity
  8
XR$1$TB_1415_1
  6
AUSGEZOGEN
 62
     7
440
 33554687
370
    -3
100
AcDbLine
 10
11.298597
 20
4.500875
 30
0.0
 11
11.296476
 21
4.498753
 31
0.0
  0
LINE
  5
BA
330
1F
100
AcDbEntity
  8
XR$1$TB_1415_1
  6
AUSGEZOGEN
 62
     7
440
 33554687
370
    -3
100
AcDbLine
 10
11.317689
 20
4.47754
 30
0.0
 11
11.317689
 21
4.638728
 31
0.0
  0
LINE
  5
BB
330
1F
100
AcDbEntity
  8
XR$1$TB_1415_1
  6
AUSGEZOGEN
 62
     7
440
 33554687
370
    -3
100
AcDbLine
 10
11.314689
 20
4.484783
 30
0.0
 11
11.314689
 21
4.635821
 31
0.0
  0
LINE
  5
BC
330
1F
100
AcDbEntity
  8
XR$1$TB_1415_1
  6
AUSGEZOGEN
 62
     7
440
 33554687
370
    -3
100
AcDbLine
 10
11.311689
 20
4.49754
 30
0.0
 11
11.311689
 21
4.632427
 31
0.0
  0
LINE
  5
BD
330
1F
100
AcDbEntity
  8
XR$1$TB_1415_1
  6
AUSGEZOGEN
 62
     7
440
 33554687
370
    -3
100
AcDbLine
 10
11.311689
 20
4.632427
 30
0.0
 11
11.213006
 21
4.634207
 31
0.0
  0
LINE
  5
BE
330
1F
100
AcDbEntity
  8
XR$1$TB_1415_1
  6
AUSGEZOGEN
 62
     7
440
 33554687
370
    -3
100
AcDbLine
 10
11.308689
 20
4.49754
 30
0.0
 11
11.308689
 21
4.629488
 31
0.0
  0
LINE
  5
BF
330
1F
100
AcDbEntity
  8
XR$1$TB_1415_1
  6
AUSGEZOGEN
 62
     7
440
 33554687
370
    -3
100
AcDbLine
 10
11.308689
 20
4.629488
 30
0.0
 11
11.214223
 21
4.631182
 31
0.0
  0
LINE
  5
C0
330
1F
100
AcDbEntity
  8
XR$1$TB_1415_1
  6
AUSGEZOGEN
 62
     7
440
 33554687
370
    -3
100
AcDbLine
 10
11.317689
 20
4.638728
 30
0.0
 11
10.860263
 21
4.648655
 31
0.0
  0
LINE
  5
C1
330
1F
100
AcDbEntity
  8
XR$1$TB_1415_1
  6
AUSGEZOGEN
 62
     7
440
 33554687
370
    -3
100
AcDbLine
 10
11.314689
 20
4.635821
 30
0.0
 11
10.863263
 21
4.645558
 31
0.0
  0
LINE
  5
C2
330
1F
100
AcDbEntity
  8
XR$1$TB_1415_1
  6
AUSGEZOGEN
 62
    14
440
 33554687
370
    -3
100
AcDbLine
 10
10.919476
 20
4.560934
 30
0.0
 11
10.976476
 21
4.560934
 31
0.0
  0
LINE
  5
C3
330
1F
100
AcDbEntity
  8
XR$1$TB_1415_1
  6
AUSGEZOGEN
 62
    14
440
 33554687
370
    25
100
AcDbLine
 10
10.919476
 20
4.560934
 30
0.0
 11
10.901476
 21
4.560934
 31
0.0
  0
LINE
  5
C4
330
1F
100
AcDbEntity
  8
XR$1$TB_1415_1
  6
AUSGEZOGEN
 62
     7
440
 33554687
370
    -3
100
AcDbLine
 10
10.820787
 20
4.012931
 30
0.0
 11
10.908887
 21
4.012931
 31
0.0
  0
LINE
  5
C5
330
1F
100
AcDbEntity
  8
XR$1$TB_1415_1
  6
VERDECKT2_S2
 62
     7
440
 33554687
370
    50
100
AcDbLine
 10
10.934676
 20
4.560934
 30
0.0
 11
10.934676
 21
3.96642
 31
0.0
  0
CIRCLE
  5
C6
330
1F
100
AcDbEntity
  8
XR$1$TB_1415_1
  6
AUSGEZOGEN
 62
     7
440
 33554687
370
    -3
100
AcDbCircle
 10
10.802996
 20
4.012931
 30
0.0
 40
0.0177913987405051
  0
MTEXT
  5
C7
330
1F
100
AcDbEntity
  8
XR$1$TB_1415_1
  6
AUSGEZOGEN
 62
     7
440
 33554687
370
    -3
100
AcDbMText
 10
10.796108
 20
4.005365
 30
0.0
 40
0.0175
 41
0.022374
 46
0.0
 71
     7
 72
     5
  1
\W0.99;5
  7
ARIAL
 73
     1
 44
1.0
  0
LINE
  5
C8
330
1F
100
AcDbEntity
  8
XR$1$TB_1415_1
  6
AUSGEZOGEN
 62
     7
440
 33554687
370
    -3
100
AcDbLine
 10
10.923903
 20
4.112931
 30
0.0
 11
10.820787
 21
4.112931
 31
0.0
  0
CIRCLE
  5
C9
330
1F
100
AcDbEntity
  8
XR$1$TB_1415_1
  6
AUSGEZOGEN
 62
     7
440
 33554687
370
    -3
100
AcDbCircle
 10
10.802996
 20
4.11335
 30
0.0
 40
0.0177913987405051
  0
MTEXT
  5
CA
330
1F
100
AcDbEntity
  8
XR$1$TB_1415_1
  6
AUSGEZOGEN
 62
     7
440
 33554687
370
    -3
100
AcDbMText
 10
10.796108
 20
4.105784
 30
0.0
 40
0.0175
 41
0.022374
 46
0.0
 71
     7
 72
     5
  1
\W0.99;4
  7
ARIAL
 73
     1
 44
1.0
  0
LINE
  5
CB
330
1F
100
AcDbEntity
  8
XR$1$TB_1415_1
  6
AUSGEZOGEN
 62
     7
440
 33554687
370
    -3
100
AcDbLine
 10
10.821613
 20
4.212931
 30
0.0
 11
10.951179
 21
4.212931
 31
0.0
  0
CIRCLE
  5
CC
330
1F
100
AcDbEntity
  8
XR$1$TB_1415_1
  6
AUSGEZOGEN
 62
     7
440
 33554687
370
    -3
100
AcDbCircle
 10
10.803822
 20
4.212988
 30
0.0
 40
0.0177913987405051
  0
MTEXT
  5
CD
330
1F
100
AcDbEntity
  8
XR$1$TB_1415_1
  6
AUSGEZOGEN
 62
     7
440
 33554687
370
    -3
100
AcDbMText
 10
10.796934
 20
4.205422
 30
0.0
 40
0.0175
 41
0.022374
 46
0.0
 71
     7
 72
     5
  1
\W0.99;3
  7
ARIAL
 73
     1
 44
1.0
  0
LINE
  5
CE
330
1F
100
AcDbEntity
  8
XR$1$TB_1415_1
  6
AUSGEZOGEN
 62
     7
440
 33554687
370
    -3
100
AcDbLine
 10
10.822439
 20
4.312931
 30
0.0
 11
10.952005
 21
4.312931
 31
0.0
  0
MTEXT
  5
CF
330
1F
100
AcDbEntity
  8
XR$1$TB_1415_1
  6
AUSGEZOGEN
 62
     7
440
 33554687
370
    -3
100
AcDbMText
 10
10.79776
 20
4.305422
 30
0.0
 40
0.0175
 41
0.022374
 46
0.0
 71
     7
 72
     5
  1
\W0.99;2
  7
ARIAL
 73
     1
 44
1.0
  0
CIRCLE
  5
D0
330
1F
100
AcDbEntity
  8
XR$1$TB_1415_1
  6
AUSGEZOGEN
 62
     7
440
 33554687
370
    -3
100
AcDbCircle
 10
10.804648
 20
4.312988
 30
0.0
 40
0.0177913987405051
  0
LINE
  5
D1
330
1F
100
AcDbEntity
  8
XR$1$TB_1415_1
  6
AUSGEZOGEN
 62
     7
440
 33554687
370
    -3
100
AcDbLine
 10
10.821613
 20
4.412931
 30
0.0
 11
11.042001
 21
4.412931
 31
0.0
  0
MTEXT
  5
D2
330
1F
100
AcDbEntity
  8
XR$1$TB_1415_1
  6
AUSGEZOGEN
 62
     7
440
 33554687
370
    -3
100
AcDbMText
 10
10.796934
 20
4.405365
 30
0.0
 40
0.0175
 41
0.021605
 46
0.0
 71
     7
 72
     5
  1
\W0.90;1
  7
ARIAL
 73
     1
 44
1.0
  0
CIRCLE
  5
D3
330
1F
100
AcDbEntity
  8
XR$1$TB_1415_1
  6
AUSGEZOGEN
 62
     7
440
 33554687
370
    -3
100
AcDbCircle
 10
10.803822
 20
4.412932
 30
0.0
 40
0.0177913987405051
  0
MTEXT
  5
D4
330
1F
100
AcDbEntity
  8
XR$1$TB_1415_1
  6
AUSGEZOGEN
 62
     7
440
 33554687
370
    -3
100
AcDbMText
 10
11.429551
 20
3.667508
 30
0.0
 40
0.009
 41
0.095517
 46
0.0
 71
     7
 72
     5
  1
\W0.91;STAND: Juli 2019
  7
ARIAL
 73
     1
 44
1.0
  0
VIEWPORT
  5
72
330
6E
100
AcDbEntity
 67
     1
  8
0
100
AcDbViewport
 10
0.105
 20
0.148499
 30
0.0
 40
0.2102
 41
0.297197
 68
     1
 69
     1
 12
0.105
 22
0.148499
 13
0.0
 23
0.0
 14
0.5
 24
0.5
 15
0.5
 25
0.5
 16
0.0
 26
0.0
 36
1.0
 17
0.0
 27
0.0
 37
0.0
 42
50.0
 43
0.0
 44
0.0
 45
0.297197
 50
0.0
 51
0.0
 72
   100
 90
   557152
  1

281
     0
 71
     1
 74
     0
110
0.0
120
0.0
130
0.0
111
1.0
121
0.0
131
0.0
112
0.0
122
1.0
132
0.0
 79
     0
146
0.0
170
     0
 61
     5
348
2F
292
     1
282
     1
141
0.0
142
0.0
 63
   256
361
73
  0
VIEWPORT
  5
D7
330
6E
100
AcDbEntity
 67
     1
  8
PLAN_1415
  6
AUSGEZOGEN
 62
     7
370
    35
100
AcDbViewport
 10
0.105
 20
0.148499
 30
0.0
 40
0.2102
 41
0.297197
 68
     2
 69
     2
 12
0.0
 22
0.0
 13
0.0
 23
0.0
 14
1.0
 24
1.0
 15
0.0
 25
0.0
 16
0.0
 26
0.0
 36
1.0
 17
11.057575
 27
4.306338
 37
0.0
 42
50.0
 43
0.0
 44
0.0
 45
1.485985
 50
0.0
 51
0.0
 72
   100
331
10
331
76
331
78
 90
   557280
  1

281
     0
 71
     1
 74
     0
110
0.0
120
0.0
130
0.0
111
1.0
121
0.0
131
0.0
112
0.0
122
1.0
132
0.0
 79
     0
146
0.0
170
     0
 61
     5
348
2F
292
     1
282
     1
141
0.0
142
0.0
 63
   256
361
D8
  0
ENDSEC
  0
SECTION
  2
OBJECTS
  0
DICTIONARY
  5
C
330
0
100
AcDbDictionary
281
     1
  3
ACAD_DETAILVIEWSTYLE
350
110
  3
ACAD_GROUP
350
D
  3
ACAD_LAYOUT
350
1A
  3
ACAD_MATERIAL
350
43
  3
ACAD_MLEADERSTYLE
350
6B
  3
ACAD_MLINESTYLE
350
17
  3
ACAD_PLOTSETTINGS
350
19
  3
ACAD_PLOTSTYLENAME
350
E
  3
ACAD_SCALELIST
350
47
  3
ACAD_SECTIONVIEWSTYLE
350
111
  3
ACAD_TABLESTYLE
350
69
  3
ACAD_VISUALSTYLE
350
2A
  3
ACDB_RECOMPOSE_DATA
350
10D
  3
AcDbVariableDictionary
350
D9
  0
SUN
  5
6D
330
29
100
AcDbSun
 90
        1
290
     0
 63
     7
421
 16777215
 40
1.0
291
     1
 91
  2455826
 92
 54000000
292
     0
 70
     2
 71
   256
280
     1
  0
DICTIONARY
  5
D5
330
1F
100
AcDbDictionary
280
     1
281
     1
  3
ACAD_SORTENTS
360
D6
  0
SUN
  5
73
330
72
100
AcDbSun
 90
        1
290
     0
 63
     7
421
 16777215
 40
1.0
291
     1
 91
  2455826
 92
 54000000
292
     0
 70
     2
 71
   256
280
     1
  0
SUN
  5
D8
330
D7
100
AcDbSun
 90
        1
290
     0
 63
     7
421
 16777215
 40
1.0
291
     1
 91
  2455826
 92
 54000000
292
     0
 70
     2
 71
   256
280
     1
  0
DICTIONARY
  5
110
102
{ACAD_REACTORS
330
C
102
}
330
C
100
AcDbDictionary
281
     1
  0
DICTIONARY
  5
D
102
{ACAD_REACTORS
330
C
102
}
330
C
100
AcDbDictionary
281
     1
  3
VERBUNDBLOCK_0
350
7F
  0
DICTIONARY
  5
1A
102
{ACAD_REACTORS
330
C
102
}
330
C
100
AcDbDictionary
281
     1
  3
Baukeramikfassade 16
350
6F
  3
Model
350
22
  0
DICTIONARY
  5
43
102
{ACAD_REACTORS
330
C
102
}
330
C
100
AcDbDictionary
281
     1
  3
ByBlock
350
45
  3
ByLayer
350
44
  3
Global
350
46
  0
DICTIONARY
  5
6B
102
{ACAD_REACTORS
330
C
102
}
330
C
100
AcDbDictionary
281
     1
  3
Standard
350
6C
  0
DICTIONARY
  5
17
102
{ACAD_REACTORS
330
C
102
}
330
C
100
AcDbDictionary
281
     1
  3
Standard
350
18
  0
DICTIONARY
  5
19
102
{ACAD_REACTORS
330
C
102
}
330
C
100
AcDbDictionary
281
     1
  0
ACDBDICTIONARYWDFLT
  5
E
102
{ACAD_REACTORS
330
C
102
}
330
C
100
AcDbDictionary
281
     1
  3
Normal
350
F
100
AcDbDictionaryWithDefault
340
F
  0
DICTIONARY
  5
47
102
{ACAD_REACTORS
330
C
102
}
330
C
100
AcDbDictionary
281
     1
  3
A0
350
48
  3
A1
350
49
  3
A2
350
4A
  3
A3
350
4B
  3
A4
350
4C
  3
A5
350
4D
  3
A6
350
4E
  3
A7
350
4F
  3
A8
350
50
  3
A9
350
51
  3
B0
350
52
  3
B1
350
53
  3
B2
350
54
  3
B3
350
55
  3
B4
350
56
  3
B5
350
57
  3
B6
350
58
  3
B7
350
59
  3
B8
350
5A
  3
B9
350
5B
  3
C0
350
5C
  3
C1
350
5D
  3
C2
350
5E
  3
C3
350
5F
  3
C4
350
60
  3
C5
350
61
  3
C6
350
62
  3
C7
350
63
  3
C8
350
64
  3
C9
350
65
  3
D0
350
66
  3
D1
350
67
  3
D2
350
68
  0
DICTIONARY
  5
111
102
{ACAD_REACTORS
330
C
102
}
330
C
100
AcDbDictionary
281
     1
  0
DICTIONARY
  5
69
102
{ACAD_REACTORS
330
C
102
}
330
C
100
AcDbDictionary
281
     1
  3
Standard
350
6A
  0
DICTIONARY
  5
2A
102
{ACAD_REACTORS
330
C
102
}
330
C
100
AcDbDictionary
281
     1
  3
2dWireframe
350
2F
  3
Basic
350
32
  3
Brighten
350
36
  3
ColorChange
350
3A
  3
Conceptual
350
34
  3
Dim
350
35
  3
EdgeColorOff
350
3D
  3
Facepattern
350
39
  3
Flat
350
2B
  3
FlatWithEdges
350
2C
  3
Gouraud
350
2D
  3
GouraudWithEdges
350
2E
  3
Hidden
350
31
  3
JitterOff
350
3B
  3
Linepattern
350
38
  3
OverhangOff
350
3C
  3
Realistic
350
33
  3
Shaded
350
42
  3
Shaded with edges
350
41
  3
Shades of Gray
350
3E
  3
Sketchy
350
3F
  3
Thicken
350
37
  3
Wireframe
350
30
  3
X-Ray
350
40
  0
XRECORD
  5
10D
102
{ACAD_REACTORS
330
C
102
}
330
C
100
AcDbXrecord
280
     1
 90
        1
330
6A
  0
DICTIONARY
  5
D9
102
{ACAD_REACTORS
330
C
102
}
330
C
100
AcDbDictionary
281
     1
  3
CANNOSCALE
350
DA
  3
CMLEADERSTYLE
350
10F
  3
CTABLESTYLE
350
10E
  0
SORTENTSTABLE
  5
D6
102
{ACAD_REACTORS
330
D5
102
}
330
D5
100
AcDbSortentsTable
330
1F
331
82
  5
85
331
83
  5
86
331
84
  5
87
331
85
  5
88
331
86
  5
89
331
87
  5
8A
331
88
  5
8B
331
89
  5
8C
331
8A
  5
8D
331
8B
  5
8E
331
8C
  5
8F
331
8D
  5
90
331
8E
  5
91
331
8F
  5
92
331
90
  5
93
331
91
  5
95
331
92
  5
96
331
93
  5
97
331
95
  5
98
331
96
  5
99
331
97
  5
82
331
98
  5
83
331
99
  5
84
  0
GROUP
  5
7F
102
{ACAD_REACTORS
330
D
102
}
330
D
100
AcDbGroup
300

 70
     0
 71
     1
340
80
340
81
  0
LAYOUT
  5
6F
102
{ACAD_REACTORS
330
1A
102
}
330
1A
100
AcDbPlotSettings
  1

  2
none_device
  4
none_user_media
  6

 40
0.0
 41
0.0
 42
0.0
 43
0.0
 44
297.0
 45
209.9
 46
0.0
 47
0.0
 48
0.0
 49
0.0
140
0.0
141
0.0
142
1000.0
143
1.0
 70
   688
 72
     1
 73
     1
 74
     5
  7

 75
    33
 76
     0
 77
     2
 78
   300
147
1000.0
148
0.0
149
0.0
100
AcDbLayout
  1
Baukeramikfassade 16
 70
     0
 71
     1
 10
-0.0001
 20
-0.0001
 11
0.2101
 21
0.297097
 12
0.0
 22
0.0
 32
0.0
 14
-0.0001
 24
-0.0001
 34
0.0
 15
0.2101
 25
0.297097
 35
0.0
146
0.0
 13
0.0
 23
0.0
 33
0.0
 16
1.0
 26
0.0
 36
0.0
 17
0.0
 27
1.0
 37
0.0
 76
     0
330
6E
331
72
  0
LAYOUT
  5
22
102
{ACAD_REACTORS
330
1A
102
}
330
1A
100
AcDbPlotSettings
  1

  2
none_device
  4
Letter_(8.50_x_11.00_Inches)
  6

 40
6.35
 41
6.35
 42
6.350005
 43
6.350005
 44
215.9
 45
279.4
 46
0.0
 47
0.0
 48
0.0
 49
0.0
140
0.0
141
0.0
142
1.0
143
1.0
 70
  1712
 72
     0
 73
     0
 74
     0
  7

 75
     0
 76
     0
 77
     2
 78
   300
147
1.0
148
0.0
149
0.0
100
AcDbLayout
  1
Model
 70
     1
 71
     0
 10
10.532575
 20
3.563845
 11
11.582575
 21
5.04883
 12
0.0
 22
0.0
 32
0.0
 14
10.532575
 24
3.563845
 34
10.532575
 15
11.582575
 25
5.04883
 35
11.582575
146
0.0
 13
0.0
 23
0.0
 33
0.0
 16
1.0
 26
0.0
 36
0.0
 17
0.0
 27
1.0
 37
0.0
 76
     0
330
1F
331
29
  0
MATERIAL
  5
45
102
{ACAD_REACTORS
330
43
102
}
330
43
100
AcDbMaterial
  1
ByBlock
 72
     1
 94
      127
  0
MATERIAL
  5
44
102
{ACAD_REACTORS
330
43
102
}
330
43
100
AcDbMaterial
  1
ByLayer
 72
     1
 94
      127
  0
MATERIAL
  5
46
102
{ACAD_REACTORS
330
43
102
}
330
43
100
AcDbMaterial
  1
Global
 72
     1
 94
      127
  0
MLEADERSTYLE
  5
6C
102
{ACAD_REACTORS
330
6B
102
}
330
6B
100
AcDbMLeaderStyle
179
     2
170
     2
171
     1
172
     0
 90
        2
 40
0.0
 41
0.0
173
     1
 91
-1056964608
340
14
 92
       -2
290
     1
 42
0.09
291
     1
 43
0.36
  3
Standard
341
0
 44
0.18
300

342
11
174
     1
178
     6
175
     1
176
     0
 93
-1056964608
 45
0.18
292
     0
297
     0
 46
0.18
343
0
 94
-1056964608
 47
1.0
 49
1.0
140
1.0
293
     1
141
0.0
294
     1
177
     0
142
1.0
295
     0
296
     0
143
0.125
271
     0
272
     9
273
     9
  0
MLINESTYLE
  5
18
102
{ACAD_REACTORS
330
17
102
}
330
17
100
AcDbMlineStyle
  2
Standard
 70
     0
  3

 62
   256
 51
90.0
 52
90.0
 71
     2
 49
0.5
 62
   256
  6
BYLAYER
 49
-0.5
 62
   256
  6
BYLAYER
  0
ACDBPLACEHOLDER
  5
F
102
{ACAD_REACTORS
330
E
102
}
330
E
  0
SCALE
  5
48
102
{ACAD_REACTORS
330
47
102
}
330
47
100
AcDbScale
 70
     0
300
1:1
140
1.0
141
1.0
290
     1
  0
SCALE
  5
49
102
{ACAD_REACTORS
330
47
102
}
330
47
100
AcDbScale
 70
     0
300
1:2
140
1.0
141
2.0
290
     0
  0
SCALE
  5
4A
102
{ACAD_REACTORS
330
47
102
}
330
47
100
AcDbScale
 70
     0
300
1:4
140
1.0
141
4.0
290
     0
  0
SCALE
  5
4B
102
{ACAD_REACTORS
330
47
102
}
330
47
100
AcDbScale
 70
     0
300
1:5
140
1.0
141
5.0
290
     0
  0
SCALE
  5
4C
102
{ACAD_REACTORS
330
47
102
}
330
47
100
AcDbScale
 70
     0
300
1:8
140
1.0
141
8.0
290
     0
  0
SCALE
  5
4D
102
{ACAD_REACTORS
330
47
102
}
330
47
100
AcDbScale
 70
     0
300
1:10
140
1.0
141
10.0
290
     0
  0
SCALE
  5
4E
102
{ACAD_REACTORS
330
47
102
}
330
47
100
AcDbScale
 70
     0
300
1:16
140
1.0
141
16.0
290
     0
  0
SCALE
  5
4F
102
{ACAD_REACTORS
330
47
102
}
330
47
100
AcDbScale
 70
     0
300
1:20
140
1.0
141
20.0
290
     0
  0
SCALE
  5
50
102
{ACAD_REACTORS
330
47
102
}
330
47
100
AcDbScale
 70
     0
300
1:30
140
1.0
141
30.0
290
     0
  0
SCALE
  5
51
102
{ACAD_REACTORS
330
47
102
}
330
47
100
AcDbScale
 70
     0
300
1:40
140
1.0
141
40.0
290
     0
  0
SCALE
  5
52
102
{ACAD_REACTORS
330
47
102
}
330
47
100
AcDbScale
 70
     0
300
1:50
140
1.0
141
50.0
290
     0
  0
SCALE
  5
53
102
{ACAD_REACTORS
330
47
102
}
330
47
100
AcDbScale
 70
     0
300
1:100
140
1.0
141
100.0
290
     0
  0
SCALE
  5
54
102
{ACAD_REACTORS
330
47
102
}
330
47
100
AcDbScale
 70
     0
300
2:1
140
2.0
141
1.0
290
     0
  0
SCALE
  5
55
102
{ACAD_REACTORS
330
47
102
}
330
47
100
AcDbScale
 70
     0
300
4:1
140
4.0
141
1.0
290
     0
  0
SCALE
  5
56
102
{ACAD_REACTORS
330
47
102
}
330
47
100
AcDbScale
 70
     0
300
8:1
140
8.0
141
1.0
290
     0
  0
SCALE
  5
57
102
{ACAD_REACTORS
330
47
102
}
330
47
100
AcDbScale
 70
     0
300
10:1
140
10.0
141
1.0
290
     0
  0
SCALE
  5
58
102
{ACAD_REACTORS
330
47
102
}
330
47
100
AcDbScale
 70
     0
300
100:1
140
100.0
141
1.0
290
     0
  0
SCALE
  5
59
102
{ACAD_REACTORS
330
47
102
}
330
47
100
AcDbScale
 70
     0
300
1/128" = 1'-0"
140
0.007812
141
12.0
290
     0
  0
SCALE
  5
5A
102
{ACAD_REACTORS
330
47
102
}
330
47
100
AcDbScale
 70
     0
300
1/64" = 1'-0"
140
0.015625
141
12.0
290
     0
  0
SCALE
  5
5B
102
{ACAD_REACTORS
330
47
102
}
330
47
100
AcDbScale
 70
     0
300
1/32" = 1'-0"
140
0.03125
141
12.0
290
     0
  0
SCALE
  5
5C
102
{ACAD_REACTORS
330
47
102
}
330
47
100
AcDbScale
 70
     0
300
1/16" = 1'-0"
140
0.0625
141
12.0
290
     0
  0
SCALE
  5
5D
102
{ACAD_REACTORS
330
47
102
}
330
47
100
AcDbScale
 70
     0
300
3/32" = 1'-0"
140
0.09375
141
12.0
290
     0
  0
SCALE
  5
5E
102
{ACAD_REACTORS
330
47
102
}
330
47
100
AcDbScale
 70
     0
300
1/8" = 1'-0"
140
0.125
141
12.0
290
     0
  0
SCALE
  5
5F
102
{ACAD_REACTORS
330
47
102
}
330
47
100
AcDbScale
 70
     0
300
3/16" = 1'-0"
140
0.1875
141
12.0
290
     0
  0
SCALE
  5
60
102
{ACAD_REACTORS
330
47
102
}
330
47
100
AcDbScale
 70
     0
300
1/4" = 1'-0"
140
0.25
141
12.0
290
     0
  0
SCALE
  5
61
102
{ACAD_REACTORS
330
47
102
}
330
47
100
AcDbScale
 70
     0
300
3/8" = 1'-0"
140
0.375
141
12.0
290
     0
  0
SCALE
  5
62
102
{ACAD_REACTORS
330
47
102
}
330
47
100
AcDbScale
 70
     0
300
1/2" = 1'-0"
140
0.5
141
12.0
290
     0
  0
SCALE
  5
63
102
{ACAD_REACTORS
330
47
102
}
330
47
100
AcDbScale
 70
     0
300
3/4" = 1'-0"
140
0.75
141
12.0
290
     0
  0
SCALE
  5
64
102
{ACAD_REACTORS
330
47
102
}
330
47
100
AcDbScale
 70
     0
300
1" = 1'-0"
140
1.0
141
12.0
290
     0
  0
SCALE
  5
65
102
{ACAD_REACTORS
330
47
102
}
330
47
100
AcDbScale
 70
     0
300
1-1/2" = 1'-0"
140
1.5
141
12.0
290
     0
  0
SCALE
  5
66
102
{ACAD_REACTORS
330
47
102
}
330
47
100
AcDbScale
 70
     0
300
3" = 1'-0"
140
3.0
141
12.0
290
     0
  0
SCALE
  5
67
102
{ACAD_REACTORS
330
47
102
}
330
47
100
AcDbScale
 70
     0
300
6" = 1'-0"
140
6.0
141
12.0
290
     0
  0
SCALE
  5
68
102
{ACAD_REACTORS
330
47
102
}
330
47
100
AcDbScale
 70
     0
300
1'-0" = 1'-0"
140
12.0
141
12.0
290
     0
  0
TABLESTYLE
  5
6A
102
{ACAD_REACTORS
330
69
102
}
102
{ACAD_XDICTIONARY
360
10B
102
}
330
69
100
AcDbTableStyle
  3
Standard
 70
     0
 71
     0
 40
0.06
 41
0.06
280
     0
281
     0
  7
Standard
140
0.18
170
     2
 62
     0
 63
   257
283
     0
 90
        4
 91
        0
  1

274
    -2
284
     1
 64
     0
275
    -2
285
     1
 65
     0
276
    -2
286
     1
 66
     0
277
    -2
287
     1
 67
     0
278
    -2
288
     1
 68
     0
279
    -2
289
     1
 69
     0
  7
Standard
140
0.25
170
     5
 62
     0
 63
   257
283
     0
 90
        4
 91
        0
  1

274
    -2
284
     1
 64
     0
275
    -2
285
     1
 65
     0
276
    -2
286
     1
 66
     0
277
    -2
287
     1
 67
     0
278
    -2
288
     1
 68
     0
279
    -2
289
     1
 69
     0
  7
Standard
140
0.18
170
     5
 62
     0
 63
   257
283
     0
 90
        4
 91
        0
  1

274
    -2
284
     1
 64
     0
275
    -2
285
     1
 65
     0
276
    -2
286
     1
 66
     0
277
    -2
287
     1
 67
     0
278
    -2
288
     1
 68
     0
279
    -2
289
     1
 69
     0
  0
VISUALSTYLE
  5
2F
102
{ACAD_REACTORS
330
2A
102
}
102
{ACAD_XDICTIONARY
360
E3
102
}
330
2A
100
AcDbVisualStyle
  2
2dWireframe
 70
     4
177
     2
291
     0
 71
     0
176
     1
 72
     2
176
     1
 73
     0
176
     1
 90
        0
176
     1
 40
0.6
176
     1
 41
30.0
176
     1
 62
     5
 63
     7
421
 16777215
176
     1
 74
     1
176
     1
 91
        4
176
     1
 64
     7
176
     1
 65
   257
176
     1
 75
     1
176
     1
175
     1
176
     1
 42
1.0
176
     1
 92
        0
176
     1
 66
   257
176
     1
 43
1.0
176
     1
 76
     1
176
     1
 77
     6
176
     1
 78
     2
176
     1
 67
     7
176
     1
 79
     5
176
     1
170
     0
176
     1
171
     0
176
     1
290
     0
176
     1
 93
        1
176
     1
 44
0.0
176
     1
173
     0
176
     1
  0
VISUALSTYLE
  5
32
102
{ACAD_REACTORS
330
2A
102
}
102
{ACAD_XDICTIONARY
360
E9
102
}
330
2A
100
AcDbVisualStyle
  2
Basic
 70
     7
177
     2
291
     1
 71
     1
176
     1
 72
     0
176
     1
 73
     1
176
     1
 90
        0
176
     1
 40
0.6
176
     1
 41
30.0
176
     1
 62
     5
 63
     7
421
 16777215
176
     1
 74
     0
176
     1
 91
        4
176
     1
 64
     7
176
     1
 65
   257
176
     1
 75
     1
176
     1
175
     1
176
     1
 42
1.0
176
     1
 92
        8
176
     1
 66
     7
176
     1
 43
1.0
176
     1
 76
     1
176
     1
 77
     6
176
     1
 78
     2
176
     1
 67
     7
176
     1
 79
     5
176
     1
170
     0
176
     1
171
     0
176
     1
290
     0
176
     1
 93
        1
176
     1
 44
0.0
176
     1
173
     0
176
     1
  0
VISUALSTYLE
  5
36
102
{ACAD_REACTORS
330
2A
102
}
102
{ACAD_XDICTIONARY
360
F1
102
}
330
2A
100
AcDbVisualStyle
  2
Brighten
 70
    12
177
     2
291
     1
 71
     2
176
     1
 72
     2
176
     1
 73
     0
176
     1
 90
        0
176
     1
 40
0.6
176
     1
 41
30.0
176
     1
 62
     5
 63
     7
421
 16777215
176
     1
 74
     1
176
     1
 91
        4
176
     1
 64
     7
176
     1
 65
   257
176
     1
 75
     1
176
     1
175
     1
176
     1
 42
1.0
176
     1
 92
        8
176
     1
 66
     7
176
     1
 43
1.0
176
     1
 76
     1
176
     1
 77
     6
176
     1
 78
     2
176
     1
 67
     7
176
     1
 79
     5
176
     1
170
     0
176
     1
171
     0
176
     1
290
     0
176
     1
 93
        1
176
     1
 44
50.0
176
     1
173
     0
176
     1
  0
VISUALSTYLE
  5
3A
102
{ACAD_REACTORS
330
2A
102
}
102
{ACAD_XDICTIONARY
360
F9
102
}
330
2A
100
AcDbVisualStyle
  2
ColorChange
 70
    16
177
     2
291
     1
 71
     2
176
     1
 72
     2
176
     1
 73
     3
176
     1
 90
        0
176
     1
 40
0.6
176
     1
 41
30.0
176
     1
 62
     5
 63
     8
421
  8421504
176
     1
 74
     1
176
     1
 91
        4
176
     1
 64
     7
176
     1
 65
   257
176
     1
 75
     1
176
     1
175
     1
176
     1
 42
1.0
176
     1
 92
        8
176
     1
 66
     8
424
  8421504
176
     1
 43
1.0
176
     1
 76
     1
176
     1
 77
     6
176
     1
 78
     2
176
     1
 67
     7
176
     1
 79
     5
176
     1
170
     0
176
     1
171
     0
176
     1
290
     0
176
     1
 93
        1
176
     1
 44
0.0
176
     1
173
     0
176
     1
  0
VISUALSTYLE
  5
34
102
{ACAD_REACTORS
330
2A
102
}
102
{ACAD_XDICTIONARY
360
ED
102
}
330
2A
100
AcDbVisualStyle
  2
Conceptual
 70
     9
177
     2
291
     0
 71
     3
176
     1
 72
     2
176
     1
 73
     0
176
     1
 90
        0
176
     1
 40
0.6
176
     1
 41
30.0
176
     1
 62
     5
 63
     7
421
 16777215
176
     1
 74
     2
176
     1
 91
        2
176
     1
 64
     7
176
     1
 65
   257
176
     1
 75
     1
176
     1
175
     1
176
     1
 42
179.0
176
     1
 92
        8
176
     1
 66
     7
176
     1
 43
1.0
176
     1
 76
     1
176
     1
 77
     6
176
     1
 78
     2
176
     1
 67
     7
176
     1
 79
     3
176
     1
170
     0
176
     1
171
     0
176
     1
290
     0
176
     1
 93
        1
176
     1
 44
0.0
176
     1
173
     0
176
     1
  0
VISUALSTYLE
  5
35
102
{ACAD_REACTORS
330
2A
102
}
102
{ACAD_XDICTIONARY
360
EF
102
}
330
2A
100
AcDbVisualStyle
  2
Dim
 70
    11
177
     2
291
     1
 71
     2
176
     1
 72
     2
176
     1
 73
     0
176
     1
 90
        0
176
     1
 40
0.6
176
     1
 41
30.0
176
     1
 62
     5
 63
     7
421
 16777215
176
     1
 74
     1
176
     1
 91
        4
176
     1
 64
     7
176
     1
 65
   257
176
     1
 75
     1
176
     1
175
     1
176
     1
 42
1.0
176
     1
 92
        8
176
     1
 66
     7
176
     1
 43
1.0
176
     1
 76
     1
176
     1
 77
     6
176
     1
 78
     2
176
     1
 67
     7
176
     1
 79
     5
176
     1
170
     0
176
     1
171
     0
176
     1
290
     0
176
     1
 93
        1
176
     1
 44
-50.0
176
     1
173
     0
176
     1
  0
VISUALSTYLE
  5
3D
102
{ACAD_REACTORS
330
2A
102
}
102
{ACAD_XDICTIONARY
360
FF
102
}
330
2A
100
AcDbVisualStyle
  2
EdgeColorOff
 70
    22
177
     2
291
     1
 71
     2
176
     0
 72
     2
176
     0
 73
     0
176
     0
 90
        0
176
     0
 40
0.6
176
     0
 41
30.0
176
     0
 62
     5
 63
     7
421
 16777215
176
     0
 74
     1
176
     0
 91
        4
176
     0
 64
     7
176
     0
 65
   257
176
     0
 75
     1
176
     0
175
     1
176
     0
 42
1.0
176
     0
 92
        8
176
     2
 66
     7
176
     0
 43
1.0
176
     0
 76
     1
176
     0
 77
     6
176
     0
 78
     2
176
     0
 67
     7
176
     0
 79
     5
176
     0
170
     0
176
     0
171
     0
176
     0
290
     0
176
     0
 93
        1
176
     0
 44
0.0
176
     0
173
     0
176
     0
  0
VISUALSTYLE
  5
39
102
{ACAD_REACTORS
330
2A
102
}
102
{ACAD_XDICTIONARY
360
F7
102
}
330
2A
100
AcDbVisualStyle
  2
Facepattern
 70
    15
177
     2
291
     1
 71
     2
176
     1
 72
     2
176
     1
 73
     0
176
     1
 90
        0
176
     1
 40
0.6
176
     1
 41
30.0
176
     1
 62
     5
 63
     7
421
 16777215
176
     1
 74
     1
176
     1
 91
        4
176
     1
 64
     7
176
     1
 65
   257
176
     1
 75
     1
176
     1
175
     1
176
     1
 42
1.0
176
     1
 92
        8
176
     1
 66
     7
176
     1
 43
1.0
176
     1
 76
     1
176
     1
 77
     6
176
     1
 78
     2
176
     1
 67
     7
176
     1
 79
     5
176
     1
170
     0
176
     1
171
     0
176
     1
290
     0
176
     1
 93
        1
176
     1
 44
0.0
176
     1
173
     0
176
     1
  0
VISUALSTYLE
  5
2B
102
{ACAD_REACTORS
330
2A
102
}
102
{ACAD_XDICTIONARY
360
DB
102
}
330
2A
100
AcDbVisualStyle
  2
Flat
 70
     0
177
     2
291
     1
 71
     2
176
     1
 72
     1
176
     1
 73
     1
176
     1
 90
        2
176
     1
 40
0.6
176
     1
 41
30.0
176
     1
 62
     5
 63
     7
421
 16777215
176
     1
 74
     0
176
     1
 91
        0
176
     1
 64
     7
176
     1
 65
   257
176
     1
 75
     1
176
     1
175
     1
176
     1
 42
1.0
176
     1
 92
        8
176
     1
 66
     7
176
     1
 43
1.0
176
     1
 76
     1
176
     1
 77
     6
176
     1
 78
     2
176
     1
 67
     7
176
     1
 79
     5
176
     1
170
     0
176
     1
171
     0
176
     1
290
     0
176
     1
 93
       13
176
     1
 44
0.0
176
     1
173
     0
176
     1
  0
VISUALSTYLE
  5
2C
102
{ACAD_REACTORS
330
2A
102
}
102
{ACAD_XDICTIONARY
360
DD
102
}
330
2A
100
AcDbVisualStyle
  2
FlatWithEdges
 70
     1
177
     2
291
     1
 71
     2
176
     1
 72
     1
176
     1
 73
     1
176
     1
 90
        2
176
     1
 40
0.6
176
     1
 41
30.0
176
     1
 62
     5
 63
     7
421
 16777215
176
     1
 74
     1
176
     1
 91
        0
176
     1
 64
     7
176
     1
 65
   257
176
     1
 75
     1
176
     1
175
     1
176
     1
 42
1.0
176
     1
 92
        0
176
     1
 66
   257
176
     1
 43
1.0
176
     1
 76
     1
176
     1
 77
     6
176
     1
 78
     2
176
     1
 67
     7
176
     1
 79
     5
176
     1
170
     0
176
     1
171
     0
176
     1
290
     0
176
     1
 93
       13
176
     1
 44
0.0
176
     1
173
     0
176
     1
  0
VISUALSTYLE
  5
2D
102
{ACAD_REACTORS
330
2A
102
}
102
{ACAD_XDICTIONARY
360
DF
102
}
330
2A
100
AcDbVisualStyle
  2
Gouraud
 70
     2
177
     2
291
     1
 71
     2
176
     1
 72
     2
176
     1
 73
     1
176
     1
 90
        2
176
     1
 40
0.6
176
     1
 41
30.0
176
     1
 62
     5
 63
     7
421
 16777215
176
     1
 74
     0
176
     1
 91
        0
176
     1
 64
     7
176
     1
 65
   257
176
     1
 75
     1
176
     1
175
     1
176
     1
 42
1.0
176
     1
 92
        0
176
     1
 66
     7
176
     1
 43
1.0
176
     1
 76
     1
176
     1
 77
     6
176
     1
 78
     2
176
     1
 67
     7
176
     1
 79
     5
176
     1
170
     0
176
     1
171
     0
176
     1
290
     0
176
     1
 93
       13
176
     1
 44
0.0
176
     1
173
     0
176
     1
  0
VISUALSTYLE
  5
2E
102
{ACAD_REACTORS
330
2A
102
}
102
{ACAD_XDICTIONARY
360
E1
102
}
330
2A
100
AcDbVisualStyle
  2
GouraudWithEdges
 70
     3
177
     2
291
     1
 71
     2
176
     1
 72
     2
176
     1
 73
     1
176
     1
 90
        2
176
     1
 40
0.6
176
     1
 41
30.0
176
     1
 62
     5
 63
     7
421
 16777215
176
     1
 74
     1
176
     1
 91
        0
176
     1
 64
     7
176
     1
 65
   257
176
     1
 75
     1
176
     1
175
     1
176
     1
 42
1.0
176
     1
 92
        0
176
     1
 66
   257
176
     1
 43
1.0
176
     1
 76
     1
176
     1
 77
     6
176
     1
 78
     2
176
     1
 67
     7
176
     1
 79
     5
176
     1
170
     0
176
     1
171
     0
176
     1
290
     0
176
     1
 93
       13
176
     1
 44
0.0
176
     1
173
     0
176
     1
  0
VISUALSTYLE
  5
31
102
{ACAD_REACTORS
330
2A
102
}
102
{ACAD_XDICTIONARY
360
E7
102
}
330
2A
100
AcDbVisualStyle
  2
Hidden
 70
     6
177
     2
291
     0
 71
     1
176
     1
 72
     2
176
     1
 73
     2
176
     1
 90
        0
176
     1
 40
0.6
176
     1
 41
30.0
176
     1
 62
     5
 63
     7
421
 16777215
176
     1
 74
     2
176
     1
 91
        2
176
     1
 64
     7
176
     1
 65
   257
176
     1
 75
     2
176
     1
175
     1
176
     1
 42
40.0
176
     1
 92
        0
176
     1
 66
   257
176
     1
 43
1.0
176
     1
 76
     1
176
     1
 77
     6
176
     1
 78
     2
176
     1
 67
     7
176
     1
 79
     3
176
     1
170
     0
176
     1
171
     0
176
     1
290
     0
176
     1
 93
        1
176
     1
 44
0.0
176
     1
173
     0
176
     1
  0
VISUALSTYLE
  5
3B
102
{ACAD_REACTORS
330
2A
102
}
102
{ACAD_XDICTIONARY
360
FB
102
}
330
2A
100
AcDbVisualStyle
  2
JitterOff
 70
    20
177
     2
291
     1
 71
     2
176
     0
 72
     2
176
     0
 73
     0
176
     0
 90
        0
176
     0
 40
0.6
176
     0
 41
30.0
176
     0
 62
     5
 63
     7
421
 16777215
176
     0
 74
     1
176
     0
 91
        4
176
     0
 64
     7
176
     0
 65
   257
176
     0
 75
     1
176
     0
175
     1
176
     0
 42
1.0
176
     0
 92
       10
176
     2
 66
     7
176
     0
 43
1.0
176
     0
 76
     1
176
     0
 77
     6
176
     0
 78
     2
176
     0
 67
     7
176
     0
 79
     5
176
     0
170
     0
176
     0
171
     0
176
     0
290
     0
176
     0
 93
        1
176
     0
 44
0.0
176
     0
173
     0
176
     0
  0
VISUALSTYLE
  5
38
102
{ACAD_REACTORS
330
2A
102
}
102
{ACAD_XDICTIONARY
360
F5
102
}
330
2A
100
AcDbVisualStyle
  2
Linepattern
 70
    14
177
     2
291
     1
 71
     2
176
     1
 72
     2
176
     1
 73
     0
176
     1
 90
        0
176
     1
 40
0.6
176
     1
 41
30.0
176
     1
 62
     5
 63
     7
421
 16777215
176
     1
 74
     1
176
     1
 91
        4
176
     1
 64
     7
176
     1
 65
   257
176
     1
 75
     7
176
     1
175
     7
176
     1
 42
1.0
176
     1
 92
        8
176
     1
 66
     7
176
     1
 43
1.0
176
     1
 76
     1
176
     1
 77
     6
176
     1
 78
     2
176
     1
 67
     7
176
     1
 79
     5
176
     1
170
     0
176
     1
171
     0
176
     1
290
     0
176
     1
 93
        1
176
     1
 44
0.0
176
     1
173
     0
176
     1
  0
VISUALSTYLE
  5
3C
102
{ACAD_REACTORS
330
2A
102
}
102
{ACAD_XDICTIONARY
360
FD
102
}
330
2A
100
AcDbVisualStyle
  2
OverhangOff
 70
    21
177
     2
291
     1
 71
     2
176
     0
 72
     2
176
     0
 73
     0
176
     0
 90
        0
176
     0
 40
0.6
176
     0
 41
30.0
176
     0
 62
     5
 63
     7
421
 16777215
176
     0
 74
     1
176
     0
 91
        4
176
     0
 64
     7
176
     0
 65
   257
176
     0
 75
     1
176
     0
175
     1
176
     0
 42
1.0
176
     0
 92
        9
176
     2
 66
     7
176
     0
 43
1.0
176
     0
 76
     1
176
     0
 77
     6
176
     0
 78
     2
176
     0
 67
     7
176
     0
 79
     5
176
     0
170
     0
176
     0
171
     0
176
     0
290
     0
176
     0
 93
        1
176
     0
 44
0.0
176
     0
173
     0
176
     0
  0
VISUALSTYLE
  5
33
102
{ACAD_REACTORS
330
2A
102
}
102
{ACAD_XDICTIONARY
360
EB
102
}
330
2A
100
AcDbVisualStyle
  2
Realistic
 70
     8
177
     2
291
     0
 71
     2
176
     1
 72
     3
176
     1
 73
     0
176
     1
 90
        2
176
     1
 40
0.6
176
     1
 41
30.0
176
     1
 62
     5
 63
     7
421
 16777215
176
     1
 74
     0
176
     1
 91
        0
176
     1
 64
     7
176
     1
 65
   257
176
     1
 75
     1
176
     1
175
     1
176
     1
 42
1.0
176
     1
 92
        8
176
     1
 66
   257
176
     1
 43
1.0
176
     1
 76
     1
176
     1
 77
     6
176
     1
 78
     2
176
     1
 67
     7
176
     1
 79
     3
176
     1
170
     0
176
     1
171
     0
176
     1
290
     0
176
     1
 93
       13
176
     1
 44
0.0
176
     1
173
     0
176
     1
  0
VISUALSTYLE
  5
42
102
{ACAD_REACTORS
330
2A
102
}
102
{ACAD_XDICTIONARY
360
109
102
}
330
2A
100
AcDbVisualStyle
  2
Shaded
 70
    27
177
     2
291
     0
 71
     2
176
     1
 72
     2
176
     1
 73
     1
176
     1
 90
        2
176
     1
 40
0.6
176
     1
 41
30.0
176
     1
 62
     5
 63
     7
421
 16777215
176
     1
 74
     0
176
     1
 91
        4
176
     1
 64
     7
176
     1
 65
   257
176
     1
 75
     1
176
     1
175
     1
176
     1
 42
1.0
176
     1
 92
        8
176
     1
 66
   257
176
     1
 43
1.0
176
     1
 76
     1
176
     1
 77
     6
176
     1
 78
     2
176
     1
 67
     8
425
  7895160
176
     1
 79
     3
176
     1
170
     0
176
     1
171
     0
176
     1
290
     0
176
     1
 93
        5
176
     1
 44
0.0
176
     1
173
     0
176
     1
  0
VISUALSTYLE
  5
41
102
{ACAD_REACTORS
330
2A
102
}
102
{ACAD_XDICTIONARY
360
107
102
}
330
2A
100
AcDbVisualStyle
  2
Shaded with edges
 70
    26
177
     2
291
     0
 71
     2
176
     1
 72
     2
176
     1
 73
     1
176
     1
 90
        2
176
     1
 40
0.6
176
     1
 41
30.0
176
     1
 62
     5
 63
     7
421
 16777215
176
     1
 74
     1
176
     1
 91
       10
176
     1
 64
     7
176
     1
 65
   257
176
     1
 75
     2
176
     1
175
     1
176
     1
 42
1.0
176
     1
 92
        8
176
     1
 66
   257
176
     1
 43
1.0
176
     1
 76
     1
176
     1
 77
     6
176
     1
 78
     2
176
     1
 67
     7
176
     1
 79
     3
176
     1
170
     0
176
     1
171
     0
176
     1
290
     0
176
     1
 93
        5
176
     1
 44
0.0
176
     1
173
     0
176
     1
  0
VISUALSTYLE
  5
3E
102
{ACAD_REACTORS
330
2A
102
}
102
{ACAD_XDICTIONARY
360
101
102
}
330
2A
100
AcDbVisualStyle
  2
Shades of Gray
 70
    23
177
     2
291
     0
 71
     2
176
     1
 72
     2
176
     1
 73
     3
176
     1
 90
        0
176
     1
 40
0.6
176
     1
 41
30.0
176
     1
 62
     5
 63
     7
421
 16777215
176
     1
 74
     2
176
     1
 91
        2
176
     1
 64
     7
176
     1
 65
     7
176
     1
 75
     1
176
     1
175
     1
176
     1
 42
40.0
176
     1
 92
        8
176
     1
 66
     7
176
     1
 43
1.0
176
     1
 76
     1
176
     1
 77
     6
176
     1
 78
     2
176
     1
 67
     7
176
     1
 79
     3
176
     1
170
     0
176
     1
171
     0
176
     1
290
     0
176
     1
 93
        1
176
     1
 44
0.0
176
     1
173
     0
176
     1
  0
VISUALSTYLE
  5
3F
102
{ACAD_REACTORS
330
2A
102
}
102
{ACAD_XDICTIONARY
360
103
102
}
330
2A
100
AcDbVisualStyle
  2
Sketchy
 70
    24
177
     2
291
     0
 71
     1
176
     1
 72
     2
176
     1
 73
     2
176
     1
 90
        0
176
     1
 40
0.6
176
     1
 41
30.0
176
     1
 62
     5
 63
     7
421
 16777215
176
     1
 74
     2
176
     1
 91
        2
176
     1
 64
     7
176
     1
 65
     7
176
     1
 75
     1
176
     1
175
     1
176
     1
 42
40.0
176
     1
 92
       11
176
     1
 66
     7
176
     1
 43
1.0
176
     1
 76
     1
176
     1
 77
     6
176
     1
 78
     2
176
     1
 67
     7
176
     1
 79
     6
176
     1
170
     0
176
     1
171
     0
176
     1
290
     0
176
     1
 93
        1
176
     1
 44
0.0
176
     1
173
     0
176
     1
  0
VISUALSTYLE
  5
37
102
{ACAD_REACTORS
330
2A
102
}
102
{ACAD_XDICTIONARY
360
F3
102
}
330
2A
100
AcDbVisualStyle
  2
Thicken
 70
    13
177
     2
291
     1
 71
     2
176
     1
 72
     2
176
     1
 73
     0
176
     1
 90
        0
176
     1
 40
0.6
176
     1
 41
30.0
176
     1
 62
     5
 63
     7
421
 16777215
176
     1
 74
     1
176
     1
 91
        4
176
     1
 64
     7
176
     1
 65
   257
176
     1
 75
     1
176
     1
175
     1
176
     1
 42
1.0
176
     1
 92
       12
176
     1
 66
     7
176
     1
 43
1.0
176
     1
 76
     1
176
     1
 77
     6
176
     1
 78
     2
176
     1
 67
     7
176
     1
 79
     5
176
     1
170
     0
176
     1
171
     0
176
     1
290
     0
176
     1
 93
        1
176
     1
 44
0.0
176
     1
173
     0
176
     1
  0
VISUALSTYLE
  5
30
102
{ACAD_REACTORS
330
2A
102
}
102
{ACAD_XDICTIONARY
360
E5
102
}
330
2A
100
AcDbVisualStyle
  2
Wireframe
 70
     5
177
     2
291
     0
 71
     0
176
     1
 72
     2
176
     1
 73
     0
176
     1
 90
        0
176
     1
 40
0.6
176
     1
 41
30.0
176
     1
 62
     5
 63
     7
421
 16777215
176
     1
 74
     1
176
     1
 91
        4
176
     1
 64
     7
176
     1
 65
   257
176
     1
 75
     1
176
     1
175
     1
176
     1
 42
1.0
176
     1
 92
        0
176
     1
 66
   257
176
     1
 43
1.0
176
     1
 76
     1
176
     1
 77
     6
176
     1
 78
     2
176
     1
 67
     7
176
     1
 79
     3
176
     1
170
     0
176
     1
171
     0
176
     1
290
     0
176
     1
 93
        1
176
     1
 44
0.0
176
     1
173
     0
176
     1
  0
VISUALSTYLE
  5
40
102
{ACAD_REACTORS
330
2A
102
}
102
{ACAD_XDICTIONARY
360
105
102
}
330
2A
100
AcDbVisualStyle
  2
X-Ray
 70
    25
177
     2
291
     0
 71
     2
176
     1
 72
     2
176
     1
 73
     1
176
     1
 90
        1
176
     1
 40
0.5
176
     1
 41
30.0
176
     1
 62
     5
 63
     7
421
 16777215
176
     1
 74
     1
176
     1
 91
        0
176
     1
 64
     7
176
     1
 65
   257
176
     1
 75
     1
176
     1
175
     1
176
     1
 42
1.0
176
     1
 92
        8
176
     1
 66
     7
176
     1
 43
1.0
176
     1
 76
     1
176
     1
 77
     6
176
     1
 78
     2
176
     1
 67
     7
176
     1
 79
     3
176
     1
170
     0
176
     1
171
     0
176
     1
290
     0
176
     1
 93
       13
176
     1
 44
0.0
176
     1
173
     0
176
     1
  0
DICTIONARYVAR
  5
DA
102
{ACAD_REACTORS
330
D9
102
}
330
D9
100
DictionaryVariables
280
     0
  1
1:1
  0
DICTIONARYVAR
  5
10F
102
{ACAD_REACTORS
330
D9
102
}
330
D9
100
DictionaryVariables
280
     0
  1
Standard
  0
DICTIONARYVAR
  5
10E
102
{ACAD_REACTORS
330
D9
102
}
330
D9
100
DictionaryVariables
280
     0
  1
Standard
  0
DICTIONARY
  5
10B
330
6A
100
AcDbDictionary
280
     1
281
     1
  3
ACAD_ROUNDTRIP_2008_TABLESTYLE_CELLSTYLEMAP
360
10C
  0
DICTIONARY
  5
E3
330
2F
100
AcDbDictionary
280
     1
281
     1
  3
ACAD_XREC_ROUNDTRIP
360
E4
  0
DICTIONARY
  5
E9
330
32
100
AcDbDictionary
280
     1
281
     1
  3
ACAD_XREC_ROUNDTRIP
360
EA
  0
DICTIONARY
  5
F1
330
36
100
AcDbDictionary
280
     1
281
     1
  3
ACAD_XREC_ROUNDTRIP
360
F2
  0
DICTIONARY
  5
F9
330
3A
100
AcDbDictionary
280
     1
281
     1
  3
ACAD_XREC_ROUNDTRIP
360
FA
  0
DICTIONARY
  5
ED
330
34
100
AcDbDictionary
280
     1
281
     1
  3
ACAD_XREC_ROUNDTRIP
360
EE
  0
DICTIONARY
  5
EF
330
35
100
AcDbDictionary
280
     1
281
     1
  3
ACAD_XREC_ROUNDTRIP
360
F0
  0
DICTIONARY
  5
FF
330
3D
100
AcDbDictionary
280
     1
281
     1
  3
ACAD_XREC_ROUNDTRIP
360
100
  0
DICTIONARY
  5
F7
330
39
100
AcDbDictionary
280
     1
281
     1
  3
ACAD_XREC_ROUNDTRIP
360
F8
  0
DICTIONARY
  5
DB
330
2B
100
AcDbDictionary
280
     1
281
     1
  3
ACAD_XREC_ROUNDTRIP
360
DC
  0
DICTIONARY
  5
DD
330
2C
100
AcDbDictionary
280
     1
281
     1
  3
ACAD_XREC_ROUNDTRIP
360
DE
  0
DICTIONARY
  5
DF
330
2D
100
AcDbDictionary
280
     1
281
     1
  3
ACAD_XREC_ROUNDTRIP
360
E0
  0
DICTIONARY
  5
E1
330
2E
100
AcDbDictionary
280
     1
281
     1
  3
ACAD_XREC_ROUNDTRIP
360
E2
  0
DICTIONARY
  5
E7
330
31
100
AcDbDictionary
280
     1
281
     1
  3
ACAD_XREC_ROUNDTRIP
360
E8
  0
DICTIONARY
  5
FB
330
3B
100
AcDbDictionary
280
     1
281
     1
  3
ACAD_XREC_ROUNDTRIP
360
FC
  0
DICTIONARY
  5
F5
330
38
100
AcDbDictionary
280
     1
281
     1
  3
ACAD_XREC_ROUNDTRIP
360
F6
  0
DICTIONARY
  5
FD
330
3C
100
AcDbDictionary
280
     1
281
     1
  3
ACAD_XREC_ROUNDTRIP
360
FE
  0
DICTIONARY
  5
EB
330
33
100
AcDbDictionary
280
     1
281
     1
  3
ACAD_XREC_ROUNDTRIP
360
EC
  0
DICTIONARY
  5
109
330
42
100
AcDbDictionary
280
     1
281
     1
  3
ACAD_XREC_ROUNDTRIP
360
10A
  0
DICTIONARY
  5
107
330
41
100
AcDbDictionary
280
     1
281
     1
  3
ACAD_XREC_ROUNDTRIP
360
108
  0
DICTIONARY
  5
101
330
3E
100
AcDbDictionary
280
     1
281
     1
  3
ACAD_XREC_ROUNDTRIP
360
102
  0
DICTIONARY
  5
103
330
3F
100
AcDbDictionary
280
     1
281
     1
  3
ACAD_XREC_ROUNDTRIP
360
104
  0
DICTIONARY
  5
F3
330
37
100
AcDbDictionary
280
     1
281
     1
  3
ACAD_XREC_ROUNDTRIP
360
F4
  0
DICTIONARY
  5
E5
330
30
100
AcDbDictionary
280
     1
281
     1
  3
ACAD_XREC_ROUNDTRIP
360
E6
  0
DICTIONARY
  5
105
330
40
100
AcDbDictionary
280
     1
281
     1
  3
ACAD_XREC_ROUNDTRIP
360
106
  0
CELLSTYLEMAP
  5
10C
102
{ACAD_REACTORS
330
10B
102
}
330
10B
100
AcDbCellStyleMap
 90
        3
300
CELLSTYLE
  1
TABLEFORMAT_BEGIN
 90
        5
170
     1
 91
        0
 92
    32768
 62
   257
 93
        1
300
CONTENTFORMAT
  1
CONTENTFORMAT_BEGIN
 90
        0
 91
        0
 92
        4
 93
        0
300

 40
0.0
140
1.0
 94
        5
 62
     0
340
11
144
0.25
309
CONTENTFORMAT_END
171
     1
301
MARGIN
  1
CELLMARGIN_BEGIN
 40
0.06
 40
0.06
 40
0.06
 40
0.06
 40
0.06
 40
0.06
309
CELLMARGIN_END
 94
        6
 95
        1
302
GRIDFORMAT
  1
GRIDFORMAT_BEGIN
 90
        0
 91
        1
 62
     0
 92
       -2
340
14
 93
        0
 40
0.045
309
GRIDFORMAT_END
 95
        2
302
GRIDFORMAT
  1
GRIDFORMAT_BEGIN
 90
        0
 91
        1
 62
     0
 92
       -2
340
14
 93
        0
 40
0.045
309
GRIDFORMAT_END
 95
        4
302
GRIDFORMAT
  1
GRIDFORMAT_BEGIN
 90
        0
 91
        1
 62
     0
 92
       -2
340
14
 93
        0
 40
0.045
309
GRIDFORMAT_END
 95
        8
302
GRIDFORMAT
  1
GRIDFORMAT_BEGIN
 90
        0
 91
        1
 62
     0
 92
       -2
340
14
 93
        0
 40
0.045
309
GRIDFORMAT_END
 95
       16
302
GRIDFORMAT
  1
GRIDFORMAT_BEGIN
 90
        0
 91
        1
 62
     0
 92
       -2
340
14
 93
        0
 40
0.045
309
GRIDFORMAT_END
 95
       32
302
GRIDFORMAT
  1
GRIDFORMAT_BEGIN
 90
        0
 91
        1
 62
     0
 92
       -2
340
14
 93
        0
 40
0.045
309
GRIDFORMAT_END
309
TABLEFORMAT_END
  1
CELLSTYLE_BEGIN
 90
        1
 91
        1
300
_TITLE
309
CELLSTYLE_END
300
CELLSTYLE
  1
TABLEFORMAT_BEGIN
 90
        5
170
     1
 91
        0
 92
        0
 62
   257
 93
        1
300
CONTENTFORMAT
  1
CONTENTFORMAT_BEGIN
 90
        0
 91
        0
 92
        4
 93
        0
300

 40
0.0
140
1.0
 94
        5
 62
     0
340
11
144
0.18
309
CONTENTFORMAT_END
171
     1
301
MARGIN
  1
CELLMARGIN_BEGIN
 40
0.06
 40
0.06
 40
0.06
 40
0.06
 40
0.06
 40
0.06
309
CELLMARGIN_END
 94
        6
 95
        1
302
GRIDFORMAT
  1
GRIDFORMAT_BEGIN
 90
        0
 91
        1
 62
     0
 92
       -2
340
14
 93
        0
 40
0.045
309
GRIDFORMAT_END
 95
        2
302
GRIDFORMAT
  1
GRIDFORMAT_BEGIN
 90
        0
 91
        1
 62
     0
 92
       -2
340
14
 93
        0
 40
0.045
309
GRIDFORMAT_END
 95
        4
302
GRIDFORMAT
  1
GRIDFORMAT_BEGIN
 90
        0
 91
        1
 62
     0
 92
       -2
340
14
 93
        0
 40
0.045
309
GRIDFORMAT_END
 95
        8
302
GRIDFORMAT
  1
GRIDFORMAT_BEGIN
 90
        0
 91
        1
 62
     0
 92
       -2
340
14
 93
        0
 40
0.045
309
GRIDFORMAT_END
 95
       16
302
GRIDFORMAT
  1
GRIDFORMAT_BEGIN
 90
        0
 91
        1
 62
     0
 92
       -2
340
14
 93
        0
 40
0.045
309
GRIDFORMAT_END
 95
       32
302
GRIDFORMAT
  1
GRIDFORMAT_BEGIN
 90
        0
 91
        1
 62
     0
 92
       -2
340
14
 93
        0
 40
0.045
309
GRIDFORMAT_END
309
TABLEFORMAT_END
  1
CELLSTYLE_BEGIN
 90
        2
 91
        1
300
_HEADER
309
CELLSTYLE_END
300
CELLSTYLE
  1
TABLEFORMAT_BEGIN
 90
        5
170
     1
 91
        0
 92
        0
 62
   257
 93
        1
300
CONTENTFORMAT
  1
CONTENTFORMAT_BEGIN
 90
        0
 91
        0
 92
        4
 93
        0
300

 40
0.0
140
1.0
 94
        2
 62
     0
340
11
144
0.18
309
CONTENTFORMAT_END
171
     1
301
MARGIN
  1
CELLMARGIN_BEGIN
 40
0.06
 40
0.06
 40
0.06
 40
0.06
 40
0.06
 40
0.06
309
CELLMARGIN_END
 94
        6
 95
        1
302
GRIDFORMAT
  1
GRIDFORMAT_BEGIN
 90
        0
 91
        1
 62
     0
 92
       -2
340
14
 93
        0
 40
0.045
309
GRIDFORMAT_END
 95
        2
302
GRIDFORMAT
  1
GRIDFORMAT_BEGIN
 90
        0
 91
        1
 62
     0
 92
       -2
340
14
 93
        0
 40
0.045
309
GRIDFORMAT_END
 95
        4
302
GRIDFORMAT
  1
GRIDFORMAT_BEGIN
 90
        0
 91
        1
 62
     0
 92
       -2
340
14
 93
        0
 40
0.045
309
GRIDFORMAT_END
 95
        8
302
GRIDFORMAT
  1
GRIDFORMAT_BEGIN
 90
        0
 91
        1
 62
     0
 92
       -2
340
14
 93
        0
 40
0.045
309
GRIDFORMAT_END
 95
       16
302
GRIDFORMAT
  1
GRIDFORMAT_BEGIN
 90
        0
 91
        1
 62
     0
 92
       -2
340
14
 93
        0
 40
0.045
309
GRIDFORMAT_END
 95
       32
302
GRIDFORMAT
  1
GRIDFORMAT_BEGIN
 90
        0
 91
        1
 62
     0
 92
       -2
340
14
 93
        0
 40
0.045
309
GRIDFORMAT_END
309
TABLEFORMAT_END
  1
CELLSTYLE_BEGIN
 90
        3
 91
        2
300
_DATA
309
CELLSTYLE_END
  0
XRECORD
  5
E4
102
{ACAD_REACTORS
330
E3
102
}
330
E3
100
AcDbXrecord
280
     1
102
RTVSPost2010Prop28
280
     1
102
RTVSPost2010PropOp28
 70
     1
102
RTVSPost2010Prop29
280
     1
102
RTVSPost2010PropOp29
 70
     1
102
RTVSPost2010Prop30
280
     0
102
RTVSPost2010PropOp30
 70
     1
102
RTVSPost2010Prop31
280
     0
102
RTVSPost2010PropOp31
 70
     1
102
RTVSPost2010Prop32
280
     0
102
RTVSPost2010PropOp32
 70
     1
102
RTVSPost2010Prop33
280
     0
102
RTVSPost2010PropOp33
 70
     1
102
RTVSPost2010Prop34
280
     0
102
RTVSPost2010PropOp34
 70
     1
102
RTVSPost2010Prop35
280
     0
102
RTVSPost2010PropOp35
 70
     1
102
RTVSPost2010Prop36
280
     0
102
RTVSPost2010PropOp36
 70
     1
102
RTVSPost2010Prop37
 90
       50
102
RTVSPost2010PropOp37
 70
     1
102
RTVSPost2010Prop38
140
0.0
102
RTVSPost2010PropOp38
 70
     1
102
RTVSPost2010Prop39
140
1.0
102
RTVSPost2010PropOp39
 70
     1
102
RTVSPost2010Prop40
 90
        0
102
RTVSPost2010PropOp40
 70
     1
102
RTVSPost2010Prop41ColorIndex
 90
       18
102
RTVSPost2010Prop41ColorRGB
 90
        0
102
RTVSPost2010PropOp41
 70
     1
102
RTVSPost2010Prop42
 90
       50
102
RTVSPost2010PropOp42
 70
     1
102
RTVSPost2010Prop43
 90
        3
102
RTVSPost2010PropOp43
 70
     1
102
RTVSPost2010Prop44ColorIndex
 90
        5
102
RTVSPost2010Prop44ColorRGB
 90
      255
102
RTVSPost2010PropOp44
 70
     1
102
RTVSPost2010Prop45
280
     0
102
RTVSPost2010PropOp45
 70
     1
102
RTVSPost2010Prop46
 90
       50
102
RTVSPost2010PropOp46
 70
     1
102
RTVSPost2010Prop47
 90
       50
102
RTVSPost2010PropOp47
 70
     1
102
RTVSPost2010Prop48
 90
       50
102
RTVSPost2010PropOp48
 70
     1
102
RTVSPost2010Prop49
280
     0
102
RTVSPost2010PropOp49
 70
     1
102
RTVSPost2010Prop50
 90
       50
102
RTVSPost2010PropOp50
 70
     1
102
RTVSPost2010Prop51ColorIndex
 90
      256
102
RTVSPost2010Prop51ColorRGB
 90
-16777216
102
RTVSPost2010PropOp51
 70
     0
102
RTVSPost2010Prop52
140
1.0
102
RTVSPost2010PropOp52
 70
     0
102
RTVSPost2010Prop53
 90
        2
102
RTVSPost2010PropOp53
 70
     1
102
RTVSPost2010Prop54
  1
strokes_ogs.tif
102
RTVSPost2010PropOp54
 70
     1
102
RTVSPost2010Prop55
280
     0
102
RTVSPost2010PropOp55
 70
     1
102
RTVSPost2010Prop56
140
1.0
102
RTVSPost2010PropOp56
 70
     1
102
RTVSPost2010Prop57
140
1.0
102
RTVSPost2010PropOp57
 70
     1
  0
XRECORD
  5
EA
102
{ACAD_REACTORS
330
E9
102
}
330
E9
100
AcDbXrecord
280
     1
102
RTVSPost2010Prop28
280
     0
102
RTVSPost2010PropOp28
 70
     1
102
RTVSPost2010Prop29
280
     1
102
RTVSPost2010PropOp29
 70
     1
102
RTVSPost2010Prop30
280
     1
102
RTVSPost2010PropOp30
 70
     1
102
RTVSPost2010Prop31
280
     0
102
RTVSPost2010PropOp31
 70
     1
102
RTVSPost2010Prop32
280
     0
102
RTVSPost2010PropOp32
 70
     1
102
RTVSPost2010Prop33
280
     0
102
RTVSPost2010PropOp33
 70
     1
102
RTVSPost2010Prop34
280
     0
102
RTVSPost2010PropOp34
 70
     1
102
RTVSPost2010Prop35
280
     0
102
RTVSPost2010PropOp35
 70
     1
102
RTVSPost2010Prop36
280
     0
102
RTVSPost2010PropOp36
 70
     1
102
RTVSPost2010Prop37
 90
       50
102
RTVSPost2010PropOp37
 70
     1
102
RTVSPost2010Prop38
140
0.0
102
RTVSPost2010PropOp38
 70
     1
102
RTVSPost2010Prop39
140
1.0
102
RTVSPost2010PropOp39
 70
     1
102
RTVSPost2010Prop40
 90
        0
102
RTVSPost2010PropOp40
 70
     1
102
RTVSPost2010Prop41ColorIndex
 90
       18
102
RTVSPost2010Prop41ColorRGB
 90
        0
102
RTVSPost2010PropOp41
 70
     1
102
RTVSPost2010Prop42
 90
       50
102
RTVSPost2010PropOp42
 70
     1
102
RTVSPost2010Prop43
 90
        3
102
RTVSPost2010PropOp43
 70
     1
102
RTVSPost2010Prop44ColorIndex
 90
        5
102
RTVSPost2010Prop44ColorRGB
 90
      255
102
RTVSPost2010PropOp44
 70
     1
102
RTVSPost2010Prop45
280
     0
102
RTVSPost2010PropOp45
 70
     1
102
RTVSPost2010Prop46
 90
       50
102
RTVSPost2010PropOp46
 70
     1
102
RTVSPost2010Prop47
 90
       50
102
RTVSPost2010PropOp47
 70
     1
102
RTVSPost2010Prop48
 90
       50
102
RTVSPost2010PropOp48
 70
     1
102
RTVSPost2010Prop49
280
     0
102
RTVSPost2010PropOp49
 70
     1
102
RTVSPost2010Prop50
 90
       50
102
RTVSPost2010PropOp50
 70
     1
102
RTVSPost2010Prop51ColorIndex
 90
      256
102
RTVSPost2010Prop51ColorRGB
 90
-16777216
102
RTVSPost2010PropOp51
 70
     0
102
RTVSPost2010Prop52
140
1.0
102
RTVSPost2010PropOp52
 70
     0
102
RTVSPost2010Prop53
 90
        2
102
RTVSPost2010PropOp53
 70
     1
102
RTVSPost2010Prop54
  1
strokes_ogs.tif
102
RTVSPost2010PropOp54
 70
     1
102
RTVSPost2010Prop55
280
     0
102
RTVSPost2010PropOp55
 70
     1
102
RTVSPost2010Prop56
140
1.0
102
RTVSPost2010PropOp56
 70
     1
102
RTVSPost2010Prop57
140
1.0
102
RTVSPost2010PropOp57
 70
     1
  0
XRECORD
  5
F2
102
{ACAD_REACTORS
330
F1
102
}
330
F1
100
AcDbXrecord
280
     1
102
RTVSPost2010Prop28
280
     0
102
RTVSPost2010PropOp28
 70
     1
102
RTVSPost2010Prop29
280
     1
102
RTVSPost2010PropOp29
 70
     1
102
RTVSPost2010Prop30
280
     1
102
RTVSPost2010PropOp30
 70
     1
102
RTVSPost2010Prop31
280
     0
102
RTVSPost2010PropOp31
 70
     1
102
RTVSPost2010Prop32
280
     0
102
RTVSPost2010PropOp32
 70
     1
102
RTVSPost2010Prop33
280
     0
102
RTVSPost2010PropOp33
 70
     1
102
RTVSPost2010Prop34
280
     0
102
RTVSPost2010PropOp34
 70
     1
102
RTVSPost2010Prop35
280
     0
102
RTVSPost2010PropOp35
 70
     1
102
RTVSPost2010Prop36
280
     0
102
RTVSPost2010PropOp36
 70
     1
102
RTVSPost2010Prop37
 90
       50
102
RTVSPost2010PropOp37
 70
     1
102
RTVSPost2010Prop38
140
0.0
102
RTVSPost2010PropOp38
 70
     1
102
RTVSPost2010Prop39
140
1.0
102
RTVSPost2010PropOp39
 70
     1
102
RTVSPost2010Prop40
 90
        0
102
RTVSPost2010PropOp40
 70
     1
102
RTVSPost2010Prop41ColorIndex
 90
       18
102
RTVSPost2010Prop41ColorRGB
 90
        0
102
RTVSPost2010PropOp41
 70
     1
102
RTVSPost2010Prop42
 90
       50
102
RTVSPost2010PropOp42
 70
     1
102
RTVSPost2010Prop43
 90
        3
102
RTVSPost2010PropOp43
 70
     1
102
RTVSPost2010Prop44ColorIndex
 90
        5
102
RTVSPost2010Prop44ColorRGB
 90
      255
102
RTVSPost2010PropOp44
 70
     1
102
RTVSPost2010Prop45
280
     0
102
RTVSPost2010PropOp45
 70
     1
102
RTVSPost2010Prop46
 90
       50
102
RTVSPost2010PropOp46
 70
     1
102
RTVSPost2010Prop47
 90
       50
102
RTVSPost2010PropOp47
 70
     1
102
RTVSPost2010Prop48
 90
       50
102
RTVSPost2010PropOp48
 70
     1
102
RTVSPost2010Prop49
280
     0
102
RTVSPost2010PropOp49
 70
     1
102
RTVSPost2010Prop50
 90
       50
102
RTVSPost2010PropOp50
 70
     1
102
RTVSPost2010Prop51ColorIndex
 90
      256
102
RTVSPost2010Prop51ColorRGB
 90
-16777216
102
RTVSPost2010PropOp51
 70
     0
102
RTVSPost2010Prop52
140
1.0
102
RTVSPost2010PropOp52
 70
     0
102
RTVSPost2010Prop53
 90
        2
102
RTVSPost2010PropOp53
 70
     1
102
RTVSPost2010Prop54
  1
strokes_ogs.tif
102
RTVSPost2010PropOp54
 70
     1
102
RTVSPost2010Prop55
280
     0
102
RTVSPost2010PropOp55
 70
     1
102
RTVSPost2010Prop56
140
1.0
102
RTVSPost2010PropOp56
 70
     1
102
RTVSPost2010Prop57
140
1.0
102
RTVSPost2010PropOp57
 70
     1
  0
XRECORD
  5
FA
102
{ACAD_REACTORS
330
F9
102
}
330
F9
100
AcDbXrecord
280
     1
102
RTVSPost2010Prop28
280
     0
102
RTVSPost2010PropOp28
 70
     1
102
RTVSPost2010Prop29
280
     1
102
RTVSPost2010PropOp29
 70
     1
102
RTVSPost2010Prop30
280
     1
102
RTVSPost2010PropOp30
 70
     1
102
RTVSPost2010Prop31
280
     0
102
RTVSPost2010PropOp31
 70
     1
102
RTVSPost2010Prop32
280
     0
102
RTVSPost2010PropOp32
 70
     1
102
RTVSPost2010Prop33
280
     0
102
RTVSPost2010PropOp33
 70
     1
102
RTVSPost2010Prop34
280
     0
102
RTVSPost2010PropOp34
 70
     1
102
RTVSPost2010Prop35
280
     0
102
RTVSPost2010PropOp35
 70
     1
102
RTVSPost2010Prop36
280
     0
102
RTVSPost2010PropOp36
 70
     1
102
RTVSPost2010Prop37
 90
       50
102
RTVSPost2010PropOp37
 70
     1
102
RTVSPost2010Prop38
140
0.0
102
RTVSPost2010PropOp38
 70
     1
102
RTVSPost2010Prop39
140
1.0
102
RTVSPost2010PropOp39
 70
     1
102
RTVSPost2010Prop40
 90
        0
102
RTVSPost2010PropOp40
 70
     1
102
RTVSPost2010Prop41ColorIndex
 90
       18
102
RTVSPost2010Prop41ColorRGB
 90
        0
102
RTVSPost2010PropOp41
 70
     1
102
RTVSPost2010Prop42
 90
       50
102
RTVSPost2010PropOp42
 70
     1
102
RTVSPost2010Prop43
 90
        3
102
RTVSPost2010PropOp43
 70
     1
102
RTVSPost2010Prop44ColorIndex
 90
        5
102
RTVSPost2010Prop44ColorRGB
 90
      255
102
RTVSPost2010PropOp44
 70
     1
102
RTVSPost2010Prop45
280
     0
102
RTVSPost2010PropOp45
 70
     1
102
RTVSPost2010Prop46
 90
       50
102
RTVSPost2010PropOp46
 70
     1
102
RTVSPost2010Prop47
 90
       50
102
RTVSPost2010PropOp47
 70
     1
102
RTVSPost2010Prop48
 90
       50
102
RTVSPost2010PropOp48
 70
     1
102
RTVSPost2010Prop49
280
     0
102
RTVSPost2010PropOp49
 70
     1
102
RTVSPost2010Prop50
 90
       50
102
RTVSPost2010PropOp50
 70
     1
102
RTVSPost2010Prop51ColorIndex
 90
      256
102
RTVSPost2010Prop51ColorRGB
 90
-16777216
102
RTVSPost2010PropOp51
 70
     0
102
RTVSPost2010Prop52
140
1.0
102
RTVSPost2010PropOp52
 70
     0
102
RTVSPost2010Prop53
 90
        2
102
RTVSPost2010PropOp53
 70
     1
102
RTVSPost2010Prop54
  1
strokes_ogs.tif
102
RTVSPost2010PropOp54
 70
     1
102
RTVSPost2010Prop55
280
     0
102
RTVSPost2010PropOp55
 70
     1
102
RTVSPost2010Prop56
140
1.0
102
RTVSPost2010PropOp56
 70
     1
102
RTVSPost2010Prop57
140
1.0
102
RTVSPost2010PropOp57
 70
     1
  0
XRECORD
  5
EE
102
{ACAD_REACTORS
330
ED
102
}
330
ED
100
AcDbXrecord
280
     1
102
RTVSPost2010Prop28
280
     0
102
RTVSPost2010PropOp28
 70
     1
102
RTVSPost2010Prop29
280
     1
102
RTVSPost2010PropOp29
 70
     1
102
RTVSPost2010Prop30
280
     1
102
RTVSPost2010PropOp30
 70
     1
102
RTVSPost2010Prop31
280
     0
102
RTVSPost2010PropOp31
 70
     1
102
RTVSPost2010Prop32
280
     0
102
RTVSPost2010PropOp32
 70
     1
102
RTVSPost2010Prop33
280
     0
102
RTVSPost2010PropOp33
 70
     1
102
RTVSPost2010Prop34
280
     0
102
RTVSPost2010PropOp34
 70
     1
102
RTVSPost2010Prop35
280
     0
102
RTVSPost2010PropOp35
 70
     1
102
RTVSPost2010Prop36
280
     0
102
RTVSPost2010PropOp36
 70
     1
102
RTVSPost2010Prop37
 90
       50
102
RTVSPost2010PropOp37
 70
     1
102
RTVSPost2010Prop38
140
0.0
102
RTVSPost2010PropOp38
 70
     1
102
RTVSPost2010Prop39
140
1.0
102
RTVSPost2010PropOp39
 70
     1
102
RTVSPost2010Prop40
 90
        0
102
RTVSPost2010PropOp40
 70
     1
102
RTVSPost2010Prop41ColorIndex
 90
       18
102
RTVSPost2010Prop41ColorRGB
 90
        0
102
RTVSPost2010PropOp41
 70
     1
102
RTVSPost2010Prop42
 90
       50
102
RTVSPost2010PropOp42
 70
     1
102
RTVSPost2010Prop43
 90
        3
102
RTVSPost2010PropOp43
 70
     1
102
RTVSPost2010Prop44ColorIndex
 90
        5
102
RTVSPost2010Prop44ColorRGB
 90
      255
102
RTVSPost2010PropOp44
 70
     1
102
RTVSPost2010Prop45
280
     0
102
RTVSPost2010PropOp45
 70
     1
102
RTVSPost2010Prop46
 90
       50
102
RTVSPost2010PropOp46
 70
     1
102
RTVSPost2010Prop47
 90
       50
102
RTVSPost2010PropOp47
 70
     1
102
RTVSPost2010Prop48
 90
       50
102
RTVSPost2010PropOp48
 70
     1
102
RTVSPost2010Prop49
280
     0
102
RTVSPost2010PropOp49
 70
     1
102
RTVSPost2010Prop50
 90
       50
102
RTVSPost2010PropOp50
 70
     1
102
RTVSPost2010Prop51ColorIndex
 90
      256
102
RTVSPost2010Prop51ColorRGB
 90
-16777216
102
RTVSPost2010PropOp51
 70
     0
102
RTVSPost2010Prop52
140
1.0
102
RTVSPost2010PropOp52
 70
     0
102
RTVSPost2010Prop53
 90
        2
102
RTVSPost2010PropOp53
 70
     1
102
RTVSPost2010Prop54
  1
strokes_ogs.tif
102
RTVSPost2010PropOp54
 70
     1
102
RTVSPost2010Prop55
280
     0
102
RTVSPost2010PropOp55
 70
     1
102
RTVSPost2010Prop56
140
1.0
102
RTVSPost2010PropOp56
 70
     1
102
RTVSPost2010Prop57
140
1.0
102
RTVSPost2010PropOp57
 70
     1
  0
XRECORD
  5
F0
102
{ACAD_REACTORS
330
EF
102
}
330
EF
100
AcDbXrecord
280
     1
102
RTVSPost2010Prop28
280
     0
102
RTVSPost2010PropOp28
 70
     1
102
RTVSPost2010Prop29
280
     1
102
RTVSPost2010PropOp29
 70
     1
102
RTVSPost2010Prop30
280
     1
102
RTVSPost2010PropOp30
 70
     1
102
RTVSPost2010Prop31
280
     0
102
RTVSPost2010PropOp31
 70
     1
102
RTVSPost2010Prop32
280
     0
102
RTVSPost2010PropOp32
 70
     1
102
RTVSPost2010Prop33
280
     0
102
RTVSPost2010PropOp33
 70
     1
102
RTVSPost2010Prop34
280
     0
102
RTVSPost2010PropOp34
 70
     1
102
RTVSPost2010Prop35
280
     0
102
RTVSPost2010PropOp35
 70
     1
102
RTVSPost2010Prop36
280
     0
102
RTVSPost2010PropOp36
 70
     1
102
RTVSPost2010Prop37
 90
       50
102
RTVSPost2010PropOp37
 70
     1
102
RTVSPost2010Prop38
140
0.0
102
RTVSPost2010PropOp38
 70
     1
102
RTVSPost2010Prop39
140
1.0
102
RTVSPost2010PropOp39
 70
     1
102
RTVSPost2010Prop40
 90
        0
102
RTVSPost2010PropOp40
 70
     1
102
RTVSPost2010Prop41ColorIndex
 90
       18
102
RTVSPost2010Prop41ColorRGB
 90
        0
102
RTVSPost2010PropOp41
 70
     1
102
RTVSPost2010Prop42
 90
       50
102
RTVSPost2010PropOp42
 70
     1
102
RTVSPost2010Prop43
 90
        3
102
RTVSPost2010PropOp43
 70
     1
102
RTVSPost2010Prop44ColorIndex
 90
        5
102
RTVSPost2010Prop44ColorRGB
 90
      255
102
RTVSPost2010PropOp44
 70
     1
102
RTVSPost2010Prop45
280
     0
102
RTVSPost2010PropOp45
 70
     1
102
RTVSPost2010Prop46
 90
       50
102
RTVSPost2010PropOp46
 70
     1
102
RTVSPost2010Prop47
 90
       50
102
RTVSPost2010PropOp47
 70
     1
102
RTVSPost2010Prop48
 90
       50
102
RTVSPost2010PropOp48
 70
     1
102
RTVSPost2010Prop49
280
     0
102
RTVSPost2010PropOp49
 70
     1
102
RTVSPost2010Prop50
 90
       50
102
RTVSPost2010PropOp50
 70
     1
102
RTVSPost2010Prop51ColorIndex
 90
      256
102
RTVSPost2010Prop51ColorRGB
 90
-16777216
102
RTVSPost2010PropOp51
 70
     0
102
RTVSPost2010Prop52
140
1.0
102
RTVSPost2010PropOp52
 70
     0
102
RTVSPost2010Prop53
 90
        2
102
RTVSPost2010PropOp53
 70
     1
102
RTVSPost2010Prop54
  1
strokes_ogs.tif
102
RTVSPost2010PropOp54
 70
     1
102
RTVSPost2010Prop55
280
     0
102
RTVSPost2010PropOp55
 70
     1
102
RTVSPost2010Prop56
140
1.0
102
RTVSPost2010PropOp56
 70
     1
102
RTVSPost2010Prop57
140
1.0
102
RTVSPost2010PropOp57
 70
     1
  0
XRECORD
  5
100
102
{ACAD_REACTORS
330
FF
102
}
330
FF
100
AcDbXrecord
280
     1
102
RTVSPost2010Prop28
280
     0
102
RTVSPost2010PropOp28
 70
     0
102
RTVSPost2010Prop29
280
     1
102
RTVSPost2010PropOp29
 70
     0
102
RTVSPost2010Prop30
280
     1
102
RTVSPost2010PropOp30
 70
     0
102
RTVSPost2010Prop31
280
     0
102
RTVSPost2010PropOp31
 70
     0
102
RTVSPost2010Prop32
280
     0
102
RTVSPost2010PropOp32
 70
     0
102
RTVSPost2010Prop33
280
     0
102
RTVSPost2010PropOp33
 70
     0
102
RTVSPost2010Prop34
280
     0
102
RTVSPost2010PropOp34
 70
     0
102
RTVSPost2010Prop35
280
     0
102
RTVSPost2010PropOp35
 70
     0
102
RTVSPost2010Prop36
280
     0
102
RTVSPost2010PropOp36
 70
     0
102
RTVSPost2010Prop37
 90
       50
102
RTVSPost2010PropOp37
 70
     0
102
RTVSPost2010Prop38
140
0.0
102
RTVSPost2010PropOp38
 70
     0
102
RTVSPost2010Prop39
140
1.0
102
RTVSPost2010PropOp39
 70
     0
102
RTVSPost2010Prop40
 90
        0
102
RTVSPost2010PropOp40
 70
     0
102
RTVSPost2010Prop41ColorIndex
 90
       18
102
RTVSPost2010Prop41ColorRGB
 90
        0
102
RTVSPost2010PropOp41
 70
     0
102
RTVSPost2010Prop42
 90
       50
102
RTVSPost2010PropOp42
 70
     0
102
RTVSPost2010Prop43
 90
        3
102
RTVSPost2010PropOp43
 70
     0
102
RTVSPost2010Prop44ColorIndex
 90
        5
102
RTVSPost2010Prop44ColorRGB
 90
      255
102
RTVSPost2010PropOp44
 70
     0
102
RTVSPost2010Prop45
280
     0
102
RTVSPost2010PropOp45
 70
     0
102
RTVSPost2010Prop46
 90
       50
102
RTVSPost2010PropOp46
 70
     0
102
RTVSPost2010Prop47
 90
       50
102
RTVSPost2010PropOp47
 70
     0
102
RTVSPost2010Prop48
 90
       50
102
RTVSPost2010PropOp48
 70
     0
102
RTVSPost2010Prop49
280
     0
102
RTVSPost2010PropOp49
 70
     0
102
RTVSPost2010Prop50
 90
       50
102
RTVSPost2010PropOp50
 70
     0
102
RTVSPost2010Prop51ColorIndex
 90
      256
102
RTVSPost2010Prop51ColorRGB
 90
-16777216
102
RTVSPost2010PropOp51
 70
     0
102
RTVSPost2010Prop52
140
1.0
102
RTVSPost2010PropOp52
 70
     0
102
RTVSPost2010Prop53
 90
        2
102
RTVSPost2010PropOp53
 70
     0
102
RTVSPost2010Prop54
  1
strokes_ogs.tif
102
RTVSPost2010PropOp54
 70
     0
102
RTVSPost2010Prop55
280
     0
102
RTVSPost2010PropOp55
 70
     0
102
RTVSPost2010Prop56
140
1.0
102
RTVSPost2010PropOp56
 70
     0
102
RTVSPost2010Prop57
140
1.0
102
RTVSPost2010PropOp57
 70
     0
  0
XRECORD
  5
F8
102
{ACAD_REACTORS
330
F7
102
}
330
F7
100
AcDbXrecord
280
     1
102
RTVSPost2010Prop28
280
     0
102
RTVSPost2010PropOp28
 70
     1
102
RTVSPost2010Prop29
280
     1
102
RTVSPost2010PropOp29
 70
     1
102
RTVSPost2010Prop30
280
     1
102
RTVSPost2010PropOp30
 70
     1
102
RTVSPost2010Prop31
280
     0
102
RTVSPost2010PropOp31
 70
     1
102
RTVSPost2010Prop32
280
     0
102
RTVSPost2010PropOp32
 70
     1
102
RTVSPost2010Prop33
280
     0
102
RTVSPost2010PropOp33
 70
     1
102
RTVSPost2010Prop34
280
     0
102
RTVSPost2010PropOp34
 70
     1
102
RTVSPost2010Prop35
280
     0
102
RTVSPost2010PropOp35
 70
     1
102
RTVSPost2010Prop36
280
     0
102
RTVSPost2010PropOp36
 70
     1
102
RTVSPost2010Prop37
 90
       50
102
RTVSPost2010PropOp37
 70
     1
102
RTVSPost2010Prop38
140
0.0
102
RTVSPost2010PropOp38
 70
     1
102
RTVSPost2010Prop39
140
1.0
102
RTVSPost2010PropOp39
 70
     1
102
RTVSPost2010Prop40
 90
        0
102
RTVSPost2010PropOp40
 70
     1
102
RTVSPost2010Prop41ColorIndex
 90
       18
102
RTVSPost2010Prop41ColorRGB
 90
        0
102
RTVSPost2010PropOp41
 70
     1
102
RTVSPost2010Prop42
 90
       50
102
RTVSPost2010PropOp42
 70
     1
102
RTVSPost2010Prop43
 90
        3
102
RTVSPost2010PropOp43
 70
     1
102
RTVSPost2010Prop44ColorIndex
 90
        5
102
RTVSPost2010Prop44ColorRGB
 90
      255
102
RTVSPost2010PropOp44
 70
     1
102
RTVSPost2010Prop45
280
     0
102
RTVSPost2010PropOp45
 70
     1
102
RTVSPost2010Prop46
 90
       50
102
RTVSPost2010PropOp46
 70
     1
102
RTVSPost2010Prop47
 90
       50
102
RTVSPost2010PropOp47
 70
     1
102
RTVSPost2010Prop48
 90
       50
102
RTVSPost2010PropOp48
 70
     1
102
RTVSPost2010Prop49
280
     0
102
RTVSPost2010PropOp49
 70
     1
102
RTVSPost2010Prop50
 90
       50
102
RTVSPost2010PropOp50
 70
     1
102
RTVSPost2010Prop51ColorIndex
 90
      256
102
RTVSPost2010Prop51ColorRGB
 90
-16777216
102
RTVSPost2010PropOp51
 70
     0
102
RTVSPost2010Prop52
140
1.0
102
RTVSPost2010PropOp52
 70
     0
102
RTVSPost2010Prop53
 90
        2
102
RTVSPost2010PropOp53
 70
     1
102
RTVSPost2010Prop54
  1
strokes_ogs.tif
102
RTVSPost2010PropOp54
 70
     1
102
RTVSPost2010Prop55
280
     0
102
RTVSPost2010PropOp55
 70
     1
102
RTVSPost2010Prop56
140
1.0
102
RTVSPost2010PropOp56
 70
     1
102
RTVSPost2010Prop57
140
1.0
102
RTVSPost2010PropOp57
 70
     1
  0
XRECORD
  5
DC
102
{ACAD_REACTORS
330
DB
102
}
330
DB
100
AcDbXrecord
280
     1
102
RTVSPost2010Prop28
280
     0
102
RTVSPost2010PropOp28
 70
     1
102
RTVSPost2010Prop29
280
     1
102
RTVSPost2010PropOp29
 70
     1
102
RTVSPost2010Prop30
280
     1
102
RTVSPost2010PropOp30
 70
     1
102
RTVSPost2010Prop31
280
     0
102
RTVSPost2010PropOp31
 70
     1
102
RTVSPost2010Prop32
280
     0
102
RTVSPost2010PropOp32
 70
     1
102
RTVSPost2010Prop33
280
     0
102
RTVSPost2010PropOp33
 70
     1
102
RTVSPost2010Prop34
280
     0
102
RTVSPost2010PropOp34
 70
     1
102
RTVSPost2010Prop35
280
     0
102
RTVSPost2010PropOp35
 70
     1
102
RTVSPost2010Prop36
280
     0
102
RTVSPost2010PropOp36
 70
     1
102
RTVSPost2010Prop37
 90
       50
102
RTVSPost2010PropOp37
 70
     1
102
RTVSPost2010Prop38
140
0.0
102
RTVSPost2010PropOp38
 70
     1
102
RTVSPost2010Prop39
140
1.0
102
RTVSPost2010PropOp39
 70
     1
102
RTVSPost2010Prop40
 90
        0
102
RTVSPost2010PropOp40
 70
     1
102
RTVSPost2010Prop41ColorIndex
 90
       18
102
RTVSPost2010Prop41ColorRGB
 90
        0
102
RTVSPost2010PropOp41
 70
     1
102
RTVSPost2010Prop42
 90
       50
102
RTVSPost2010PropOp42
 70
     1
102
RTVSPost2010Prop43
 90
        3
102
RTVSPost2010PropOp43
 70
     1
102
RTVSPost2010Prop44ColorIndex
 90
        5
102
RTVSPost2010Prop44ColorRGB
 90
      255
102
RTVSPost2010PropOp44
 70
     1
102
RTVSPost2010Prop45
280
     0
102
RTVSPost2010PropOp45
 70
     1
102
RTVSPost2010Prop46
 90
       50
102
RTVSPost2010PropOp46
 70
     1
102
RTVSPost2010Prop47
 90
       50
102
RTVSPost2010PropOp47
 70
     1
102
RTVSPost2010Prop48
 90
       50
102
RTVSPost2010PropOp48
 70
     1
102
RTVSPost2010Prop49
280
     0
102
RTVSPost2010PropOp49
 70
     1
102
RTVSPost2010Prop50
 90
       50
102
RTVSPost2010PropOp50
 70
     1
102
RTVSPost2010Prop51ColorIndex
 90
      256
102
RTVSPost2010Prop51ColorRGB
 90
-16777216
102
RTVSPost2010PropOp51
 70
     0
102
RTVSPost2010Prop52
140
1.0
102
RTVSPost2010PropOp52
 70
     0
102
RTVSPost2010Prop53
 90
        2
102
RTVSPost2010PropOp53
 70
     1
102
RTVSPost2010Prop54
  1
strokes_ogs.tif
102
RTVSPost2010PropOp54
 70
     1
102
RTVSPost2010Prop55
280
     0
102
RTVSPost2010PropOp55
 70
     1
102
RTVSPost2010Prop56
140
1.0
102
RTVSPost2010PropOp56
 70
     1
102
RTVSPost2010Prop57
140
1.0
102
RTVSPost2010PropOp57
 70
     1
  0
XRECORD
  5
DE
102
{ACAD_REACTORS
330
DD
102
}
330
DD
100
AcDbXrecord
280
     1
102
RTVSPost2010Prop28
280
     0
102
RTVSPost2010PropOp28
 70
     1
102
RTVSPost2010Prop29
280
     1
102
RTVSPost2010PropOp29
 70
     1
102
RTVSPost2010Prop30
280
     1
102
RTVSPost2010PropOp30
 70
     1
102
RTVSPost2010Prop31
280
     0
102
RTVSPost2010PropOp31
 70
     1
102
RTVSPost2010Prop32
280
     0
102
RTVSPost2010PropOp32
 70
     1
102
RTVSPost2010Prop33
280
     0
102
RTVSPost2010PropOp33
 70
     1
102
RTVSPost2010Prop34
280
     0
102
RTVSPost2010PropOp34
 70
     1
102
RTVSPost2010Prop35
280
     0
102
RTVSPost2010PropOp35
 70
     1
102
RTVSPost2010Prop36
280
     0
102
RTVSPost2010PropOp36
 70
     1
102
RTVSPost2010Prop37
 90
       50
102
RTVSPost2010PropOp37
 70
     1
102
RTVSPost2010Prop38
140
0.0
102
RTVSPost2010PropOp38
 70
     1
102
RTVSPost2010Prop39
140
1.0
102
RTVSPost2010PropOp39
 70
     1
102
RTVSPost2010Prop40
 90
        0
102
RTVSPost2010PropOp40
 70
     1
102
RTVSPost2010Prop41ColorIndex
 90
       18
102
RTVSPost2010Prop41ColorRGB
 90
        0
102
RTVSPost2010PropOp41
 70
     1
102
RTVSPost2010Prop42
 90
       50
102
RTVSPost2010PropOp42
 70
     1
102
RTVSPost2010Prop43
 90
        3
102
RTVSPost2010PropOp43
 70
     1
102
RTVSPost2010Prop44ColorIndex
 90
        5
102
RTVSPost2010Prop44ColorRGB
 90
      255
102
RTVSPost2010PropOp44
 70
     1
102
RTVSPost2010Prop45
280
     0
102
RTVSPost2010PropOp45
 70
     1
102
RTVSPost2010Prop46
 90
       50
102
RTVSPost2010PropOp46
 70
     1
102
RTVSPost2010Prop47
 90
       50
102
RTVSPost2010PropOp47
 70
     1
102
RTVSPost2010Prop48
 90
       50
102
RTVSPost2010PropOp48
 70
     1
102
RTVSPost2010Prop49
280
     0
102
RTVSPost2010PropOp49
 70
     1
102
RTVSPost2010Prop50
 90
       50
102
RTVSPost2010PropOp50
 70
     1
102
RTVSPost2010Prop51ColorIndex
 90
      256
102
RTVSPost2010Prop51ColorRGB
 90
-16777216
102
RTVSPost2010PropOp51
 70
     0
102
RTVSPost2010Prop52
140
1.0
102
RTVSPost2010PropOp52
 70
     0
102
RTVSPost2010Prop53
 90
        2
102
RTVSPost2010PropOp53
 70
     1
102
RTVSPost2010Prop54
  1
strokes_ogs.tif
102
RTVSPost2010PropOp54
 70
     1
102
RTVSPost2010Prop55
280
     0
102
RTVSPost2010PropOp55
 70
     1
102
RTVSPost2010Prop56
140
1.0
102
RTVSPost2010PropOp56
 70
     1
102
RTVSPost2010Prop57
140
1.0
102
RTVSPost2010PropOp57
 70
     1
  0
XRECORD
  5
E0
102
{ACAD_REACTORS
330
DF
102
}
330
DF
100
AcDbXrecord
280
     1
102
RTVSPost2010Prop28
280
     0
102
RTVSPost2010PropOp28
 70
     1
102
RTVSPost2010Prop29
280
     1
102
RTVSPost2010PropOp29
 70
     1
102
RTVSPost2010Prop30
280
     1
102
RTVSPost2010PropOp30
 70
     1
102
RTVSPost2010Prop31
280
     0
102
RTVSPost2010PropOp31
 70
     1
102
RTVSPost2010Prop32
280
     0
102
RTVSPost2010PropOp32
 70
     1
102
RTVSPost2010Prop33
280
     0
102
RTVSPost2010PropOp33
 70
     1
102
RTVSPost2010Prop34
280
     0
102
RTVSPost2010PropOp34
 70
     1
102
RTVSPost2010Prop35
280
     0
102
RTVSPost2010PropOp35
 70
     1
102
RTVSPost2010Prop36
280
     0
102
RTVSPost2010PropOp36
 70
     1
102
RTVSPost2010Prop37
 90
       50
102
RTVSPost2010PropOp37
 70
     1
102
RTVSPost2010Prop38
140
0.0
102
RTVSPost2010PropOp38
 70
     1
102
RTVSPost2010Prop39
140
1.0
102
RTVSPost2010PropOp39
 70
     1
102
RTVSPost2010Prop40
 90
        0
102
RTVSPost2010PropOp40
 70
     1
102
RTVSPost2010Prop41ColorIndex
 90
       18
102
RTVSPost2010Prop41ColorRGB
 90
        0
102
RTVSPost2010PropOp41
 70
     1
102
RTVSPost2010Prop42
 90
       50
102
RTVSPost2010PropOp42
 70
     1
102
RTVSPost2010Prop43
 90
        3
102
RTVSPost2010PropOp43
 70
     1
102
RTVSPost2010Prop44ColorIndex
 90
        5
102
RTVSPost2010Prop44ColorRGB
 90
      255
102
RTVSPost2010PropOp44
 70
     1
102
RTVSPost2010Prop45
280
     0
102
RTVSPost2010PropOp45
 70
     1
102
RTVSPost2010Prop46
 90
       50
102
RTVSPost2010PropOp46
 70
     1
102
RTVSPost2010Prop47
 90
       50
102
RTVSPost2010PropOp47
 70
     1
102
RTVSPost2010Prop48
 90
       50
102
RTVSPost2010PropOp48
 70
     1
102
RTVSPost2010Prop49
280
     0
102
RTVSPost2010PropOp49
 70
     1
102
RTVSPost2010Prop50
 90
       50
102
RTVSPost2010PropOp50
 70
     1
102
RTVSPost2010Prop51ColorIndex
 90
      256
102
RTVSPost2010Prop51ColorRGB
 90
-16777216
102
RTVSPost2010PropOp51
 70
     0
102
RTVSPost2010Prop52
140
1.0
102
RTVSPost2010PropOp52
 70
     0
102
RTVSPost2010Prop53
 90
        2
102
RTVSPost2010PropOp53
 70
     1
102
RTVSPost2010Prop54
  1
strokes_ogs.tif
102
RTVSPost2010PropOp54
 70
     1
102
RTVSPost2010Prop55
280
     0
102
RTVSPost2010PropOp55
 70
     1
102
RTVSPost2010Prop56
140
1.0
102
RTVSPost2010PropOp56
 70
     1
102
RTVSPost2010Prop57
140
1.0
102
RTVSPost2010PropOp57
 70
     1
  0
XRECORD
  5
E2
102
{ACAD_REACTORS
330
E1
102
}
330
E1
100
AcDbXrecord
280
     1
102
RTVSPost2010Prop28
280
     0
102
RTVSPost2010PropOp28
 70
     1
102
RTVSPost2010Prop29
280
     1
102
RTVSPost2010PropOp29
 70
     1
102
RTVSPost2010Prop30
280
     1
102
RTVSPost2010PropOp30
 70
     1
102
RTVSPost2010Prop31
280
     0
102
RTVSPost2010PropOp31
 70
     1
102
RTVSPost2010Prop32
280
     0
102
RTVSPost2010PropOp32
 70
     1
102
RTVSPost2010Prop33
280
     0
102
RTVSPost2010PropOp33
 70
     1
102
RTVSPost2010Prop34
280
     0
102
RTVSPost2010PropOp34
 70
     1
102
RTVSPost2010Prop35
280
     0
102
RTVSPost2010PropOp35
 70
     1
102
RTVSPost2010Prop36
280
     0
102
RTVSPost2010PropOp36
 70
     1
102
RTVSPost2010Prop37
 90
       50
102
RTVSPost2010PropOp37
 70
     1
102
RTVSPost2010Prop38
140
0.0
102
RTVSPost2010PropOp38
 70
     1
102
RTVSPost2010Prop39
140
1.0
102
RTVSPost2010PropOp39
 70
     1
102
RTVSPost2010Prop40
 90
        0
102
RTVSPost2010PropOp40
 70
     1
102
RTVSPost2010Prop41ColorIndex
 90
       18
102
RTVSPost2010Prop41ColorRGB
 90
        0
102
RTVSPost2010PropOp41
 70
     1
102
RTVSPost2010Prop42
 90
       50
102
RTVSPost2010PropOp42
 70
     1
102
RTVSPost2010Prop43
 90
        3
102
RTVSPost2010PropOp43
 70
     1
102
RTVSPost2010Prop44ColorIndex
 90
        5
102
RTVSPost2010Prop44ColorRGB
 90
      255
102
RTVSPost2010PropOp44
 70
     1
102
RTVSPost2010Prop45
280
     0
102
RTVSPost2010PropOp45
 70
     1
102
RTVSPost2010Prop46
 90
       50
102
RTVSPost2010PropOp46
 70
     1
102
RTVSPost2010Prop47
 90
       50
102
RTVSPost2010PropOp47
 70
     1
102
RTVSPost2010Prop48
 90
       50
102
RTVSPost2010PropOp48
 70
     1
102
RTVSPost2010Prop49
280
     0
102
RTVSPost2010PropOp49
 70
     1
102
RTVSPost2010Prop50
 90
       50
102
RTVSPost2010PropOp50
 70
     1
102
RTVSPost2010Prop51ColorIndex
 90
      256
102
RTVSPost2010Prop51ColorRGB
 90
-16777216
102
RTVSPost2010PropOp51
 70
     0
102
RTVSPost2010Prop52
140
1.0
102
RTVSPost2010PropOp52
 70
     0
102
RTVSPost2010Prop53
 90
        2
102
RTVSPost2010PropOp53
 70
     1
102
RTVSPost2010Prop54
  1
strokes_ogs.tif
102
RTVSPost2010PropOp54
 70
     1
102
RTVSPost2010Prop55
280
     0
102
RTVSPost2010PropOp55
 70
     1
102
RTVSPost2010Prop56
140
1.0
102
RTVSPost2010PropOp56
 70
     1
102
RTVSPost2010Prop57
140
1.0
102
RTVSPost2010PropOp57
 70
     1
  0
XRECORD
  5
E8
102
{ACAD_REACTORS
330
E7
102
}
330
E7
100
AcDbXrecord
280
     1
102
RTVSPost2010Prop28
280
     0
102
RTVSPost2010PropOp28
 70
     1
102
RTVSPost2010Prop29
280
     1
102
RTVSPost2010PropOp29
 70
     1
102
RTVSPost2010Prop30
280
     1
102
RTVSPost2010PropOp30
 70
     1
102
RTVSPost2010Prop31
280
     0
102
RTVSPost2010PropOp31
 70
     1
102
RTVSPost2010Prop32
280
     0
102
RTVSPost2010PropOp32
 70
     1
102
RTVSPost2010Prop33
280
     0
102
RTVSPost2010PropOp33
 70
     1
102
RTVSPost2010Prop34
280
     0
102
RTVSPost2010PropOp34
 70
     1
102
RTVSPost2010Prop35
280
     0
102
RTVSPost2010PropOp35
 70
     1
102
RTVSPost2010Prop36
280
     0
102
RTVSPost2010PropOp36
 70
     1
102
RTVSPost2010Prop37
 90
       50
102
RTVSPost2010PropOp37
 70
     1
102
RTVSPost2010Prop38
140
0.0
102
RTVSPost2010PropOp38
 70
     1
102
RTVSPost2010Prop39
140
1.0
102
RTVSPost2010PropOp39
 70
     1
102
RTVSPost2010Prop40
 90
        0
102
RTVSPost2010PropOp40
 70
     1
102
RTVSPost2010Prop41ColorIndex
 90
       18
102
RTVSPost2010Prop41ColorRGB
 90
        0
102
RTVSPost2010PropOp41
 70
     1
102
RTVSPost2010Prop42
 90
       50
102
RTVSPost2010PropOp42
 70
     1
102
RTVSPost2010Prop43
 90
        3
102
RTVSPost2010PropOp43
 70
     1
102
RTVSPost2010Prop44ColorIndex
 90
        5
102
RTVSPost2010Prop44ColorRGB
 90
      255
102
RTVSPost2010PropOp44
 70
     1
102
RTVSPost2010Prop45
280
     0
102
RTVSPost2010PropOp45
 70
     1
102
RTVSPost2010Prop46
 90
       50
102
RTVSPost2010PropOp46
 70
     1
102
RTVSPost2010Prop47
 90
       50
102
RTVSPost2010PropOp47
 70
     1
102
RTVSPost2010Prop48
 90
       50
102
RTVSPost2010PropOp48
 70
     1
102
RTVSPost2010Prop49
280
     0
102
RTVSPost2010PropOp49
 70
     1
102
RTVSPost2010Prop50
 90
       50
102
RTVSPost2010PropOp50
 70
     1
102
RTVSPost2010Prop51ColorIndex
 90
      256
102
RTVSPost2010Prop51ColorRGB
 90
-16777216
102
RTVSPost2010PropOp51
 70
     0
102
RTVSPost2010Prop52
140
1.0
102
RTVSPost2010PropOp52
 70
     0
102
RTVSPost2010Prop53
 90
        2
102
RTVSPost2010PropOp53
 70
     1
102
RTVSPost2010Prop54
  1
strokes_ogs.tif
102
RTVSPost2010PropOp54
 70
     1
102
RTVSPost2010Prop55
280
     0
102
RTVSPost2010PropOp55
 70
     1
102
RTVSPost2010Prop56
140
1.0
102
RTVSPost2010PropOp56
 70
     1
102
RTVSPost2010Prop57
140
1.0
102
RTVSPost2010PropOp57
 70
     1
  0
XRECORD
  5
FC
102
{ACAD_REACTORS
330
FB
102
}
330
FB
100
AcDbXrecord
280
     1
102
RTVSPost2010Prop28
280
     0
102
RTVSPost2010PropOp28
 70
     0
102
RTVSPost2010Prop29
280
     1
102
RTVSPost2010PropOp29
 70
     0
102
RTVSPost2010Prop30
280
     1
102
RTVSPost2010PropOp30
 70
     0
102
RTVSPost2010Prop31
280
     0
102
RTVSPost2010PropOp31
 70
     0
102
RTVSPost2010Prop32
280
     0
102
RTVSPost2010PropOp32
 70
     0
102
RTVSPost2010Prop33
280
     0
102
RTVSPost2010PropOp33
 70
     0
102
RTVSPost2010Prop34
280
     0
102
RTVSPost2010PropOp34
 70
     0
102
RTVSPost2010Prop35
280
     0
102
RTVSPost2010PropOp35
 70
     0
102
RTVSPost2010Prop36
280
     0
102
RTVSPost2010PropOp36
 70
     0
102
RTVSPost2010Prop37
 90
       50
102
RTVSPost2010PropOp37
 70
     0
102
RTVSPost2010Prop38
140
0.0
102
RTVSPost2010PropOp38
 70
     0
102
RTVSPost2010Prop39
140
1.0
102
RTVSPost2010PropOp39
 70
     0
102
RTVSPost2010Prop40
 90
        0
102
RTVSPost2010PropOp40
 70
     0
102
RTVSPost2010Prop41ColorIndex
 90
       18
102
RTVSPost2010Prop41ColorRGB
 90
        0
102
RTVSPost2010PropOp41
 70
     0
102
RTVSPost2010Prop42
 90
       50
102
RTVSPost2010PropOp42
 70
     0
102
RTVSPost2010Prop43
 90
        3
102
RTVSPost2010PropOp43
 70
     0
102
RTVSPost2010Prop44ColorIndex
 90
        5
102
RTVSPost2010Prop44ColorRGB
 90
      255
102
RTVSPost2010PropOp44
 70
     0
102
RTVSPost2010Prop45
280
     0
102
RTVSPost2010PropOp45
 70
     0
102
RTVSPost2010Prop46
 90
       50
102
RTVSPost2010PropOp46
 70
     0
102
RTVSPost2010Prop47
 90
       50
102
RTVSPost2010PropOp47
 70
     0
102
RTVSPost2010Prop48
 90
       50
102
RTVSPost2010PropOp48
 70
     0
102
RTVSPost2010Prop49
280
     0
102
RTVSPost2010PropOp49
 70
     0
102
RTVSPost2010Prop50
 90
       50
102
RTVSPost2010PropOp50
 70
     0
102
RTVSPost2010Prop51ColorIndex
 90
      256
102
RTVSPost2010Prop51ColorRGB
 90
-16777216
102
RTVSPost2010PropOp51
 70
     0
102
RTVSPost2010Prop52
140
1.0
102
RTVSPost2010PropOp52
 70
     0
102
RTVSPost2010Prop53
 90
        2
102
RTVSPost2010PropOp53
 70
     0
102
RTVSPost2010Prop54
  1
strokes_ogs.tif
102
RTVSPost2010PropOp54
 70
     0
102
RTVSPost2010Prop55
280
     0
102
RTVSPost2010PropOp55
 70
     0
102
RTVSPost2010Prop56
140
1.0
102
RTVSPost2010PropOp56
 70
     0
102
RTVSPost2010Prop57
140
1.0
102
RTVSPost2010PropOp57
 70
     0
  0
XRECORD
  5
F6
102
{ACAD_REACTORS
330
F5
102
}
330
F5
100
AcDbXrecord
280
     1
102
RTVSPost2010Prop28
280
     0
102
RTVSPost2010PropOp28
 70
     1
102
RTVSPost2010Prop29
280
     1
102
RTVSPost2010PropOp29
 70
     1
102
RTVSPost2010Prop30
280
     1
102
RTVSPost2010PropOp30
 70
     1
102
RTVSPost2010Prop31
280
     0
102
RTVSPost2010PropOp31
 70
     1
102
RTVSPost2010Prop32
280
     0
102
RTVSPost2010PropOp32
 70
     1
102
RTVSPost2010Prop33
280
     0
102
RTVSPost2010PropOp33
 70
     1
102
RTVSPost2010Prop34
280
     0
102
RTVSPost2010PropOp34
 70
     1
102
RTVSPost2010Prop35
280
     0
102
RTVSPost2010PropOp35
 70
     1
102
RTVSPost2010Prop36
280
     0
102
RTVSPost2010PropOp36
 70
     1
102
RTVSPost2010Prop37
 90
       50
102
RTVSPost2010PropOp37
 70
     1
102
RTVSPost2010Prop38
140
0.0
102
RTVSPost2010PropOp38
 70
     1
102
RTVSPost2010Prop39
140
1.0
102
RTVSPost2010PropOp39
 70
     1
102
RTVSPost2010Prop40
 90
        0
102
RTVSPost2010PropOp40
 70
     1
102
RTVSPost2010Prop41ColorIndex
 90
       18
102
RTVSPost2010Prop41ColorRGB
 90
        0
102
RTVSPost2010PropOp41
 70
     1
102
RTVSPost2010Prop42
 90
       50
102
RTVSPost2010PropOp42
 70
     1
102
RTVSPost2010Prop43
 90
        3
102
RTVSPost2010PropOp43
 70
     1
102
RTVSPost2010Prop44ColorIndex
 90
        5
102
RTVSPost2010Prop44ColorRGB
 90
      255
102
RTVSPost2010PropOp44
 70
     1
102
RTVSPost2010Prop45
280
     0
102
RTVSPost2010PropOp45
 70
     1
102
RTVSPost2010Prop46
 90
       50
102
RTVSPost2010PropOp46
 70
     1
102
RTVSPost2010Prop47
 90
       50
102
RTVSPost2010PropOp47
 70
     1
102
RTVSPost2010Prop48
 90
       50
102
RTVSPost2010PropOp48
 70
     1
102
RTVSPost2010Prop49
280
     0
102
RTVSPost2010PropOp49
 70
     1
102
RTVSPost2010Prop50
 90
       50
102
RTVSPost2010PropOp50
 70
     1
102
RTVSPost2010Prop51ColorIndex
 90
      256
102
RTVSPost2010Prop51ColorRGB
 90
-16777216
102
RTVSPost2010PropOp51
 70
     0
102
RTVSPost2010Prop52
140
1.0
102
RTVSPost2010PropOp52
 70
     0
102
RTVSPost2010Prop53
 90
        2
102
RTVSPost2010PropOp53
 70
     1
102
RTVSPost2010Prop54
  1
strokes_ogs.tif
102
RTVSPost2010PropOp54
 70
     1
102
RTVSPost2010Prop55
280
     0
102
RTVSPost2010PropOp55
 70
     1
102
RTVSPost2010Prop56
140
1.0
102
RTVSPost2010PropOp56
 70
     1
102
RTVSPost2010Prop57
140
1.0
102
RTVSPost2010PropOp57
 70
     1
  0
XRECORD
  5
FE
102
{ACAD_REACTORS
330
FD
102
}
330
FD
100
AcDbXrecord
280
     1
102
RTVSPost2010Prop28
280
     0
102
RTVSPost2010PropOp28
 70
     0
102
RTVSPost2010Prop29
280
     1
102
RTVSPost2010PropOp29
 70
     0
102
RTVSPost2010Prop30
280
     1
102
RTVSPost2010PropOp30
 70
     0
102
RTVSPost2010Prop31
280
     0
102
RTVSPost2010PropOp31
 70
     0
102
RTVSPost2010Prop32
280
     0
102
RTVSPost2010PropOp32
 70
     0
102
RTVSPost2010Prop33
280
     0
102
RTVSPost2010PropOp33
 70
     0
102
RTVSPost2010Prop34
280
     0
102
RTVSPost2010PropOp34
 70
     0
102
RTVSPost2010Prop35
280
     0
102
RTVSPost2010PropOp35
 70
     0
102
RTVSPost2010Prop36
280
     0
102
RTVSPost2010PropOp36
 70
     0
102
RTVSPost2010Prop37
 90
       50
102
RTVSPost2010PropOp37
 70
     0
102
RTVSPost2010Prop38
140
0.0
102
RTVSPost2010PropOp38
 70
     0
102
RTVSPost2010Prop39
140
1.0
102
RTVSPost2010PropOp39
 70
     0
102
RTVSPost2010Prop40
 90
        0
102
RTVSPost2010PropOp40
 70
     0
102
RTVSPost2010Prop41ColorIndex
 90
       18
102
RTVSPost2010Prop41ColorRGB
 90
        0
102
RTVSPost2010PropOp41
 70
     0
102
RTVSPost2010Prop42
 90
       50
102
RTVSPost2010PropOp42
 70
     0
102
RTVSPost2010Prop43
 90
        3
102
RTVSPost2010PropOp43
 70
     0
102
RTVSPost2010Prop44ColorIndex
 90
        5
102
RTVSPost2010Prop44ColorRGB
 90
      255
102
RTVSPost2010PropOp44
 70
     0
102
RTVSPost2010Prop45
280
     0
102
RTVSPost2010PropOp45
 70
     0
102
RTVSPost2010Prop46
 90
       50
102
RTVSPost2010PropOp46
 70
     0
102
RTVSPost2010Prop47
 90
       50
102
RTVSPost2010PropOp47
 70
     0
102
RTVSPost2010Prop48
 90
       50
102
RTVSPost2010PropOp48
 70
     0
102
RTVSPost2010Prop49
280
     0
102
RTVSPost2010PropOp49
 70
     0
102
RTVSPost2010Prop50
 90
       50
102
RTVSPost2010PropOp50
 70
     0
102
RTVSPost2010Prop51ColorIndex
 90
      256
102
RTVSPost2010Prop51ColorRGB
 90
-16777216
102
RTVSPost2010PropOp51
 70
     0
102
RTVSPost2010Prop52
140
1.0
102
RTVSPost2010PropOp52
 70
     0
102
RTVSPost2010Prop53
 90
        2
102
RTVSPost2010PropOp53
 70
     0
102
RTVSPost2010Prop54
  1
strokes_ogs.tif
102
RTVSPost2010PropOp54
 70
     0
102
RTVSPost2010Prop55
280
     0
102
RTVSPost2010PropOp55
 70
     0
102
RTVSPost2010Prop56
140
1.0
102
RTVSPost2010PropOp56
 70
     0
102
RTVSPost2010Prop57
140
1.0
102
RTVSPost2010PropOp57
 70
     0
  0
XRECORD
  5
EC
102
{ACAD_REACTORS
330
EB
102
}
330
EB
100
AcDbXrecord
280
     1
102
RTVSPost2010Prop28
280
     0
102
RTVSPost2010PropOp28
 70
     1
102
RTVSPost2010Prop29
280
     1
102
RTVSPost2010PropOp29
 70
     1
102
RTVSPost2010Prop30
280
     1
102
RTVSPost2010PropOp30
 70
     1
102
RTVSPost2010Prop31
280
     0
102
RTVSPost2010PropOp31
 70
     1
102
RTVSPost2010Prop32
280
     0
102
RTVSPost2010PropOp32
 70
     1
102
RTVSPost2010Prop33
280
     0
102
RTVSPost2010PropOp33
 70
     1
102
RTVSPost2010Prop34
280
     0
102
RTVSPost2010PropOp34
 70
     1
102
RTVSPost2010Prop35
280
     0
102
RTVSPost2010PropOp35
 70
     1
102
RTVSPost2010Prop36
280
     0
102
RTVSPost2010PropOp36
 70
     1
102
RTVSPost2010Prop37
 90
       50
102
RTVSPost2010PropOp37
 70
     1
102
RTVSPost2010Prop38
140
0.0
102
RTVSPost2010PropOp38
 70
     1
102
RTVSPost2010Prop39
140
1.0
102
RTVSPost2010PropOp39
 70
     1
102
RTVSPost2010Prop40
 90
        0
102
RTVSPost2010PropOp40
 70
     1
102
RTVSPost2010Prop41ColorIndex
 90
       18
102
RTVSPost2010Prop41ColorRGB
 90
        0
102
RTVSPost2010PropOp41
 70
     1
102
RTVSPost2010Prop42
 90
       50
102
RTVSPost2010PropOp42
 70
     1
102
RTVSPost2010Prop43
 90
        3
102
RTVSPost2010PropOp43
 70
     1
102
RTVSPost2010Prop44ColorIndex
 90
        5
102
RTVSPost2010Prop44ColorRGB
 90
      255
102
RTVSPost2010PropOp44
 70
     1
102
RTVSPost2010Prop45
280
     0
102
RTVSPost2010PropOp45
 70
     1
102
RTVSPost2010Prop46
 90
       50
102
RTVSPost2010PropOp46
 70
     1
102
RTVSPost2010Prop47
 90
       50
102
RTVSPost2010PropOp47
 70
     1
102
RTVSPost2010Prop48
 90
       50
102
RTVSPost2010PropOp48
 70
     1
102
RTVSPost2010Prop49
280
     0
102
RTVSPost2010PropOp49
 70
     1
102
RTVSPost2010Prop50
 90
       50
102
RTVSPost2010PropOp50
 70
     1
102
RTVSPost2010Prop51ColorIndex
 90
      256
102
RTVSPost2010Prop51ColorRGB
 90
-16777216
102
RTVSPost2010PropOp51
 70
     0
102
RTVSPost2010Prop52
140
1.0
102
RTVSPost2010PropOp52
 70
     0
102
RTVSPost2010Prop53
 90
        2
102
RTVSPost2010PropOp53
 70
     1
102
RTVSPost2010Prop54
  1
strokes_ogs.tif
102
RTVSPost2010PropOp54
 70
     1
102
RTVSPost2010Prop55
280
     0
102
RTVSPost2010PropOp55
 70
     1
102
RTVSPost2010Prop56
140
1.0
102
RTVSPost2010PropOp56
 70
     1
102
RTVSPost2010Prop57
140
1.0
102
RTVSPost2010PropOp57
 70
     1
  0
XRECORD
  5
10A
102
{ACAD_REACTORS
330
109
102
}
330
109
100
AcDbXrecord
280
     1
102
RTVSPost2010Prop28
280
     0
102
RTVSPost2010PropOp28
 70
     1
102
RTVSPost2010Prop29
280
     1
102
RTVSPost2010PropOp29
 70
     1
102
RTVSPost2010Prop30
280
     1
102
RTVSPost2010PropOp30
 70
     1
102
RTVSPost2010Prop31
280
     0
102
RTVSPost2010PropOp31
 70
     1
102
RTVSPost2010Prop32
280
     0
102
RTVSPost2010PropOp32
 70
     1
102
RTVSPost2010Prop33
280
     0
102
RTVSPost2010PropOp33
 70
     1
102
RTVSPost2010Prop34
280
     0
102
RTVSPost2010PropOp34
 70
     1
102
RTVSPost2010Prop35
280
     0
102
RTVSPost2010PropOp35
 70
     1
102
RTVSPost2010Prop36
280
     0
102
RTVSPost2010PropOp36
 70
     1
102
RTVSPost2010Prop37
 90
       50
102
RTVSPost2010PropOp37
 70
     1
102
RTVSPost2010Prop38
140
0.0
102
RTVSPost2010PropOp38
 70
     1
102
RTVSPost2010Prop39
140
1.0
102
RTVSPost2010PropOp39
 70
     1
102
RTVSPost2010Prop40
 90
        0
102
RTVSPost2010PropOp40
 70
     1
102
RTVSPost2010Prop41ColorIndex
 90
       18
102
RTVSPost2010Prop41ColorRGB
 90
        0
102
RTVSPost2010PropOp41
 70
     1
102
RTVSPost2010Prop42
 90
       50
102
RTVSPost2010PropOp42
 70
     1
102
RTVSPost2010Prop43
 90
        3
102
RTVSPost2010PropOp43
 70
     1
102
RTVSPost2010Prop44ColorIndex
 90
        5
102
RTVSPost2010Prop44ColorRGB
 90
      255
102
RTVSPost2010PropOp44
 70
     1
102
RTVSPost2010Prop45
280
     0
102
RTVSPost2010PropOp45
 70
     1
102
RTVSPost2010Prop46
 90
       50
102
RTVSPost2010PropOp46
 70
     1
102
RTVSPost2010Prop47
 90
       50
102
RTVSPost2010PropOp47
 70
     1
102
RTVSPost2010Prop48
 90
       50
102
RTVSPost2010PropOp48
 70
     1
102
RTVSPost2010Prop49
280
     0
102
RTVSPost2010PropOp49
 70
     1
102
RTVSPost2010Prop50
 90
       50
102
RTVSPost2010PropOp50
 70
     1
102
RTVSPost2010Prop51ColorIndex
 90
      256
102
RTVSPost2010Prop51ColorRGB
 90
-16777216
102
RTVSPost2010PropOp51
 70
     0
102
RTVSPost2010Prop52
140
1.0
102
RTVSPost2010PropOp52
 70
     0
102
RTVSPost2010Prop53
 90
        2
102
RTVSPost2010PropOp53
 70
     1
102
RTVSPost2010Prop54
  1
strokes_ogs.tif
102
RTVSPost2010PropOp54
 70
     1
102
RTVSPost2010Prop55
280
     0
102
RTVSPost2010PropOp55
 70
     1
102
RTVSPost2010Prop56
140
1.0
102
RTVSPost2010PropOp56
 70
     1
102
RTVSPost2010Prop57
140
1.0
102
RTVSPost2010PropOp57
 70
     1
  0
XRECORD
  5
108
102
{ACAD_REACTORS
330
107
102
}
330
107
100
AcDbXrecord
280
     1
102
RTVSPost2010Prop28
280
     0
102
RTVSPost2010PropOp28
 70
     1
102
RTVSPost2010Prop29
280
     1
102
RTVSPost2010PropOp29
 70
     1
102
RTVSPost2010Prop30
280
     1
102
RTVSPost2010PropOp30
 70
     1
102
RTVSPost2010Prop31
280
     0
102
RTVSPost2010PropOp31
 70
     1
102
RTVSPost2010Prop32
280
     0
102
RTVSPost2010PropOp32
 70
     1
102
RTVSPost2010Prop33
280
     0
102
RTVSPost2010PropOp33
 70
     1
102
RTVSPost2010Prop34
280
     0
102
RTVSPost2010PropOp34
 70
     1
102
RTVSPost2010Prop35
280
     0
102
RTVSPost2010PropOp35
 70
     1
102
RTVSPost2010Prop36
280
     0
102
RTVSPost2010PropOp36
 70
     1
102
RTVSPost2010Prop37
 90
       50
102
RTVSPost2010PropOp37
 70
     1
102
RTVSPost2010Prop38
140
0.0
102
RTVSPost2010PropOp38
 70
     1
102
RTVSPost2010Prop39
140
1.0
102
RTVSPost2010PropOp39
 70
     1
102
RTVSPost2010Prop40
 90
        0
102
RTVSPost2010PropOp40
 70
     1
102
RTVSPost2010Prop41ColorIndex
 90
       18
102
RTVSPost2010Prop41ColorRGB
 90
        0
102
RTVSPost2010PropOp41
 70
     1
102
RTVSPost2010Prop42
 90
       50
102
RTVSPost2010PropOp42
 70
     1
102
RTVSPost2010Prop43
 90
        3
102
RTVSPost2010PropOp43
 70
     1
102
RTVSPost2010Prop44ColorIndex
 90
        5
102
RTVSPost2010Prop44ColorRGB
 90
      255
102
RTVSPost2010PropOp44
 70
     1
102
RTVSPost2010Prop45
280
     0
102
RTVSPost2010PropOp45
 70
     1
102
RTVSPost2010Prop46
 90
       50
102
RTVSPost2010PropOp46
 70
     1
102
RTVSPost2010Prop47
 90
       50
102
RTVSPost2010PropOp47
 70
     1
102
RTVSPost2010Prop48
 90
       50
102
RTVSPost2010PropOp48
 70
     1
102
RTVSPost2010Prop49
280
     0
102
RTVSPost2010PropOp49
 70
     1
102
RTVSPost2010Prop50
 90
       50
102
RTVSPost2010PropOp50
 70
     1
102
RTVSPost2010Prop51ColorIndex
 90
      256
102
RTVSPost2010Prop51ColorRGB
 90
-16777216
102
RTVSPost2010PropOp51
 70
     0
102
RTVSPost2010Prop52
140
1.0
102
RTVSPost2010PropOp52
 70
     0
102
RTVSPost2010Prop53
 90
        2
102
RTVSPost2010PropOp53
 70
     1
102
RTVSPost2010Prop54
  1
strokes_ogs.tif
102
RTVSPost2010PropOp54
 70
     1
102
RTVSPost2010Prop55
280
     0
102
RTVSPost2010PropOp55
 70
     1
102
RTVSPost2010Prop56
140
1.0
102
RTVSPost2010PropOp56
 70
     1
102
RTVSPost2010Prop57
140
1.0
102
RTVSPost2010PropOp57
 70
     1
  0
XRECORD
  5
102
102
{ACAD_REACTORS
330
101
102
}
330
101
100
AcDbXrecord
280
     1
102
RTVSPost2010Prop28
280
     0
102
RTVSPost2010PropOp28
 70
     1
102
RTVSPost2010Prop29
280
     1
102
RTVSPost2010PropOp29
 70
     1
102
RTVSPost2010Prop30
280
     1
102
RTVSPost2010PropOp30
 70
     1
102
RTVSPost2010Prop31
280
     0
102
RTVSPost2010PropOp31
 70
     1
102
RTVSPost2010Prop32
280
     0
102
RTVSPost2010PropOp32
 70
     1
102
RTVSPost2010Prop33
280
     0
102
RTVSPost2010PropOp33
 70
     1
102
RTVSPost2010Prop34
280
     0
102
RTVSPost2010PropOp34
 70
     1
102
RTVSPost2010Prop35
280
     0
102
RTVSPost2010PropOp35
 70
     1
102
RTVSPost2010Prop36
280
     0
102
RTVSPost2010PropOp36
 70
     1
102
RTVSPost2010Prop37
 90
       50
102
RTVSPost2010PropOp37
 70
     1
102
RTVSPost2010Prop38
140
0.0
102
RTVSPost2010PropOp38
 70
     1
102
RTVSPost2010Prop39
140
1.0
102
RTVSPost2010PropOp39
 70
     1
102
RTVSPost2010Prop40
 90
        0
102
RTVSPost2010PropOp40
 70
     1
102
RTVSPost2010Prop41ColorIndex
 90
       18
102
RTVSPost2010Prop41ColorRGB
 90
        0
102
RTVSPost2010PropOp41
 70
     1
102
RTVSPost2010Prop42
 90
       50
102
RTVSPost2010PropOp42
 70
     1
102
RTVSPost2010Prop43
 90
        3
102
RTVSPost2010PropOp43
 70
     1
102
RTVSPost2010Prop44ColorIndex
 90
        5
102
RTVSPost2010Prop44ColorRGB
 90
      255
102
RTVSPost2010PropOp44
 70
     1
102
RTVSPost2010Prop45
280
     0
102
RTVSPost2010PropOp45
 70
     1
102
RTVSPost2010Prop46
 90
       50
102
RTVSPost2010PropOp46
 70
     1
102
RTVSPost2010Prop47
 90
       50
102
RTVSPost2010PropOp47
 70
     1
102
RTVSPost2010Prop48
 90
       50
102
RTVSPost2010PropOp48
 70
     1
102
RTVSPost2010Prop49
280
     0
102
RTVSPost2010PropOp49
 70
     1
102
RTVSPost2010Prop50
 90
       50
102
RTVSPost2010PropOp50
 70
     1
102
RTVSPost2010Prop51ColorIndex
 90
      256
102
RTVSPost2010Prop51ColorRGB
 90
-16777216
102
RTVSPost2010PropOp51
 70
     0
102
RTVSPost2010Prop52
140
1.0
102
RTVSPost2010PropOp52
 70
     0
102
RTVSPost2010Prop53
 90
        2
102
RTVSPost2010PropOp53
 70
     1
102
RTVSPost2010Prop54
  1
strokes_ogs.tif
102
RTVSPost2010PropOp54
 70
     1
102
RTVSPost2010Prop55
280
     0
102
RTVSPost2010PropOp55
 70
     1
102
RTVSPost2010Prop56
140
1.0
102
RTVSPost2010PropOp56
 70
     1
102
RTVSPost2010Prop57
140
1.0
102
RTVSPost2010PropOp57
 70
     1
  0
XRECORD
  5
104
102
{ACAD_REACTORS
330
103
102
}
330
103
100
AcDbXrecord
280
     1
102
RTVSPost2010Prop28
280
     0
102
RTVSPost2010PropOp28
 70
     1
102
RTVSPost2010Prop29
280
     1
102
RTVSPost2010PropOp29
 70
     1
102
RTVSPost2010Prop30
280
     1
102
RTVSPost2010PropOp30
 70
     1
102
RTVSPost2010Prop31
280
     0
102
RTVSPost2010PropOp31
 70
     1
102
RTVSPost2010Prop32
280
     0
102
RTVSPost2010PropOp32
 70
     1
102
RTVSPost2010Prop33
280
     0
102
RTVSPost2010PropOp33
 70
     1
102
RTVSPost2010Prop34
280
     0
102
RTVSPost2010PropOp34
 70
     1
102
RTVSPost2010Prop35
280
     0
102
RTVSPost2010PropOp35
 70
     1
102
RTVSPost2010Prop36
280
     0
102
RTVSPost2010PropOp36
 70
     1
102
RTVSPost2010Prop37
 90
       50
102
RTVSPost2010PropOp37
 70
     1
102
RTVSPost2010Prop38
140
0.0
102
RTVSPost2010PropOp38
 70
     1
102
RTVSPost2010Prop39
140
1.0
102
RTVSPost2010PropOp39
 70
     1
102
RTVSPost2010Prop40
 90
        0
102
RTVSPost2010PropOp40
 70
     1
102
RTVSPost2010Prop41ColorIndex
 90
       18
102
RTVSPost2010Prop41ColorRGB
 90
        0
102
RTVSPost2010PropOp41
 70
     1
102
RTVSPost2010Prop42
 90
       50
102
RTVSPost2010PropOp42
 70
     1
102
RTVSPost2010Prop43
 90
        3
102
RTVSPost2010PropOp43
 70
     1
102
RTVSPost2010Prop44ColorIndex
 90
        5
102
RTVSPost2010Prop44ColorRGB
 90
      255
102
RTVSPost2010PropOp44
 70
     1
102
RTVSPost2010Prop45
280
     0
102
RTVSPost2010PropOp45
 70
     1
102
RTVSPost2010Prop46
 90
       50
102
RTVSPost2010PropOp46
 70
     1
102
RTVSPost2010Prop47
 90
       50
102
RTVSPost2010PropOp47
 70
     1
102
RTVSPost2010Prop48
 90
       50
102
RTVSPost2010PropOp48
 70
     1
102
RTVSPost2010Prop49
280
     0
102
RTVSPost2010PropOp49
 70
     1
102
RTVSPost2010Prop50
 90
       50
102
RTVSPost2010PropOp50
 70
     1
102
RTVSPost2010Prop51ColorIndex
 90
      256
102
RTVSPost2010Prop51ColorRGB
 90
-16777216
102
RTVSPost2010PropOp51
 70
     0
102
RTVSPost2010Prop52
140
1.0
102
RTVSPost2010PropOp52
 70
     0
102
RTVSPost2010Prop53
 90
        2
102
RTVSPost2010PropOp53
 70
     1
102
RTVSPost2010Prop54
  1
strokes_ogs.tif
102
RTVSPost2010PropOp54
 70
     1
102
RTVSPost2010Prop55
280
     0
102
RTVSPost2010PropOp55
 70
     1
102
RTVSPost2010Prop56
140
1.0
102
RTVSPost2010PropOp56
 70
     1
102
RTVSPost2010Prop57
140
1.0
102
RTVSPost2010PropOp57
 70
     1
  0
XRECORD
  5
F4
102
{ACAD_REACTORS
330
F3
102
}
330
F3
100
AcDbXrecord
280
     1
102
RTVSPost2010Prop28
280
     0
102
RTVSPost2010PropOp28
 70
     1
102
RTVSPost2010Prop29
280
     1
102
RTVSPost2010PropOp29
 70
     1
102
RTVSPost2010Prop30
280
     1
102
RTVSPost2010PropOp30
 70
     1
102
RTVSPost2010Prop31
280
     0
102
RTVSPost2010PropOp31
 70
     1
102
RTVSPost2010Prop32
280
     0
102
RTVSPost2010PropOp32
 70
     1
102
RTVSPost2010Prop33
280
     0
102
RTVSPost2010PropOp33
 70
     1
102
RTVSPost2010Prop34
280
     0
102
RTVSPost2010PropOp34
 70
     1
102
RTVSPost2010Prop35
280
     0
102
RTVSPost2010PropOp35
 70
     1
102
RTVSPost2010Prop36
280
     0
102
RTVSPost2010PropOp36
 70
     1
102
RTVSPost2010Prop37
 90
       50
102
RTVSPost2010PropOp37
 70
     1
102
RTVSPost2010Prop38
140
0.0
102
RTVSPost2010PropOp38
 70
     1
102
RTVSPost2010Prop39
140
1.0
102
RTVSPost2010PropOp39
 70
     1
102
RTVSPost2010Prop40
 90
        0
102
RTVSPost2010PropOp40
 70
     1
102
RTVSPost2010Prop41ColorIndex
 90
       18
102
RTVSPost2010Prop41ColorRGB
 90
        0
102
RTVSPost2010PropOp41
 70
     1
102
RTVSPost2010Prop42
 90
       50
102
RTVSPost2010PropOp42
 70
     1
102
RTVSPost2010Prop43
 90
        3
102
RTVSPost2010PropOp43
 70
     1
102
RTVSPost2010Prop44ColorIndex
 90
        5
102
RTVSPost2010Prop44ColorRGB
 90
      255
102
RTVSPost2010PropOp44
 70
     1
102
RTVSPost2010Prop45
280
     0
102
RTVSPost2010PropOp45
 70
     1
102
RTVSPost2010Prop46
 90
       50
102
RTVSPost2010PropOp46
 70
     1
102
RTVSPost2010Prop47
 90
       50
102
RTVSPost2010PropOp47
 70
     1
102
RTVSPost2010Prop48
 90
       50
102
RTVSPost2010PropOp48
 70
     1
102
RTVSPost2010Prop49
280
     0
102
RTVSPost2010PropOp49
 70
     1
102
RTVSPost2010Prop50
 90
       50
102
RTVSPost2010PropOp50
 70
     1
102
RTVSPost2010Prop51ColorIndex
 90
      256
102
RTVSPost2010Prop51ColorRGB
 90
-16777216
102
RTVSPost2010PropOp51
 70
     0
102
RTVSPost2010Prop52
140
1.0
102
RTVSPost2010PropOp52
 70
     0
102
RTVSPost2010Prop53
 90
        2
102
RTVSPost2010PropOp53
 70
     1
102
RTVSPost2010Prop54
  1
strokes_ogs.tif
102
RTVSPost2010PropOp54
 70
     1
102
RTVSPost2010Prop55
280
     0
102
RTVSPost2010PropOp55
 70
     1
102
RTVSPost2010Prop56
140
1.0
102
RTVSPost2010PropOp56
 70
     1
102
RTVSPost2010Prop57
140
1.0
102
RTVSPost2010PropOp57
 70
     1
  0
XRECORD
  5
E6
102
{ACAD_REACTORS
330
E5
102
}
330
E5
100
AcDbXrecord
280
     1
102
RTVSPost2010Prop28
280
     0
102
RTVSPost2010PropOp28
 70
     1
102
RTVSPost2010Prop29
280
     1
102
RTVSPost2010PropOp29
 70
     1
102
RTVSPost2010Prop30
280
     1
102
RTVSPost2010PropOp30
 70
     1
102
RTVSPost2010Prop31
280
     0
102
RTVSPost2010PropOp31
 70
     1
102
RTVSPost2010Prop32
280
     0
102
RTVSPost2010PropOp32
 70
     1
102
RTVSPost2010Prop33
280
     0
102
RTVSPost2010PropOp33
 70
     1
102
RTVSPost2010Prop34
280
     0
102
RTVSPost2010PropOp34
 70
     1
102
RTVSPost2010Prop35
280
     0
102
RTVSPost2010PropOp35
 70
     1
102
RTVSPost2010Prop36
280
     0
102
RTVSPost2010PropOp36
 70
     1
102
RTVSPost2010Prop37
 90
       50
102
RTVSPost2010PropOp37
 70
     1
102
RTVSPost2010Prop38
140
0.0
102
RTVSPost2010PropOp38
 70
     1
102
RTVSPost2010Prop39
140
1.0
102
RTVSPost2010PropOp39
 70
     1
102
RTVSPost2010Prop40
 90
        0
102
RTVSPost2010PropOp40
 70
     1
102
RTVSPost2010Prop41ColorIndex
 90
       18
102
RTVSPost2010Prop41ColorRGB
 90
        0
102
RTVSPost2010PropOp41
 70
     1
102
RTVSPost2010Prop42
 90
       50
102
RTVSPost2010PropOp42
 70
     1
102
RTVSPost2010Prop43
 90
        3
102
RTVSPost2010PropOp43
 70
     1
102
RTVSPost2010Prop44ColorIndex
 90
        5
102
RTVSPost2010Prop44ColorRGB
 90
      255
102
RTVSPost2010PropOp44
 70
     1
102
RTVSPost2010Prop45
280
     0
102
RTVSPost2010PropOp45
 70
     1
102
RTVSPost2010Prop46
 90
       50
102
RTVSPost2010PropOp46
 70
     1
102
RTVSPost2010Prop47
 90
       50
102
RTVSPost2010PropOp47
 70
     1
102
RTVSPost2010Prop48
 90
       50
102
RTVSPost2010PropOp48
 70
     1
102
RTVSPost2010Prop49
280
     0
102
RTVSPost2010PropOp49
 70
     1
102
RTVSPost2010Prop50
 90
       50
102
RTVSPost2010PropOp50
 70
     1
102
RTVSPost2010Prop51ColorIndex
 90
      256
102
RTVSPost2010Prop51ColorRGB
 90
-16777216
102
RTVSPost2010PropOp51
 70
     0
102
RTVSPost2010Prop52
140
1.0
102
RTVSPost2010PropOp52
 70
     0
102
RTVSPost2010Prop53
 90
        2
102
RTVSPost2010PropOp53
 70
     1
102
RTVSPost2010Prop54
  1
strokes_ogs.tif
102
RTVSPost2010PropOp54
 70
     1
102
RTVSPost2010Prop55
280
     0
102
RTVSPost2010PropOp55
 70
     1
102
RTVSPost2010Prop56
140
1.0
102
RTVSPost2010PropOp56
 70
     1
102
RTVSPost2010Prop57
140
1.0
102
RTVSPost2010PropOp57
 70
     1
  0
XRECORD
  5
106
102
{ACAD_REACTORS
330
105
102
}
330
105
100
AcDbXrecord
280
     1
102
RTVSPost2010Prop28
280
     0
102
RTVSPost2010PropOp28
 70
     1
102
RTVSPost2010Prop29
280
     1
102
RTVSPost2010PropOp29
 70
     1
102
RTVSPost2010Prop30
280
     1
102
RTVSPost2010PropOp30
 70
     1
102
RTVSPost2010Prop31
280
     0
102
RTVSPost2010PropOp31
 70
     1
102
RTVSPost2010Prop32
280
     0
102
RTVSPost2010PropOp32
 70
     1
102
RTVSPost2010Prop33
280
     0
102
RTVSPost2010PropOp33
 70
     1
102
RTVSPost2010Prop34
280
     0
102
RTVSPost2010PropOp34
 70
     1
102
RTVSPost2010Prop35
280
     0
102
RTVSPost2010PropOp35
 70
     1
102
RTVSPost2010Prop36
280
     0
102
RTVSPost2010PropOp36
 70
     1
102
RTVSPost2010Prop37
 90
       50
102
RTVSPost2010PropOp37
 70
     1
102
RTVSPost2010Prop38
140
0.0
102
RTVSPost2010PropOp38
 70
     1
102
RTVSPost2010Prop39
140
1.0
102
RTVSPost2010PropOp39
 70
     1
102
RTVSPost2010Prop40
 90
        0
102
RTVSPost2010PropOp40
 70
     1
102
RTVSPost2010Prop41ColorIndex
 90
       18
102
RTVSPost2010Prop41ColorRGB
 90
        0
102
RTVSPost2010PropOp41
 70
     1
102
RTVSPost2010Prop42
 90
       50
102
RTVSPost2010PropOp42
 70
     1
102
RTVSPost2010Prop43
 90
        3
102
RTVSPost2010PropOp43
 70
     1
102
RTVSPost2010Prop44ColorIndex
 90
        5
102
RTVSPost2010Prop44ColorRGB
 90
      255
102
RTVSPost2010PropOp44
 70
     1
102
RTVSPost2010Prop45
280
     0
102
RTVSPost2010PropOp45
 70
     1
102
RTVSPost2010Prop46
 90
       50
102
RTVSPost2010PropOp46
 70
     1
102
RTVSPost2010Prop47
 90
       50
102
RTVSPost2010PropOp47
 70
     1
102
RTVSPost2010Prop48
 90
       50
102
RTVSPost2010PropOp48
 70
     1
102
RTVSPost2010Prop49
280
     0
102
RTVSPost2010PropOp49
 70
     1
102
RTVSPost2010Prop50
 90
       50
102
RTVSPost2010PropOp50
 70
     1
102
RTVSPost2010Prop51ColorIndex
 90
      256
102
RTVSPost2010Prop51ColorRGB
 90
-16777216
102
RTVSPost2010PropOp51
 70
     0
102
RTVSPost2010Prop52
140
1.0
102
RTVSPost2010PropOp52
 70
     0
102
RTVSPost2010Prop53
 90
        2
102
RTVSPost2010PropOp53
 70
     1
102
RTVSPost2010Prop54
  1
strokes_ogs.tif
102
RTVSPost2010PropOp54
 70
     1
102
RTVSPost2010Prop55
280
     0
102
RTVSPost2010PropOp55
 70
     1
102
RTVSPost2010Prop56
140
1.0
102
RTVSPost2010PropOp56
 70
     1
102
RTVSPost2010Prop57
140
1.0
102
RTVSPost2010PropOp57
 70
     1
  0
ENDSEC
  0
EOF
