  0
SECTION
  2
HEADER
  9
$ACADVER
  1
AC1024
  9
$ACADMAINTVER
 70
     6
  9
$DWGCODEPAGE
  3
ANSI_1252
  9
$LASTSAVEDBY
  1
BirnerR
  9
$INSBASE
 10
0.0
 20
0.0
 30
0.0
  9
$EXTMIN
 10
8.334494
 20
-0.939177
 30
8.334494
  9
$EXTMAX
 10
9.384526
 20
0.545808
 30
9.384526
  9
$LIMMIN
 10
8.334494
 20
-0.939177
  9
$LIMMAX
 10
9.384526
 20
0.545808
  9
$ORTHOMODE
 70
     0
  9
$REGENMODE
 70
     1
  9
$FILLMODE
 70
     1
  9
$QTEXTMODE
 70
     0
  9
$MIRRTEXT
 70
     1
  9
$LTSCALE
 40
1.0
  9
$ATTMODE
 70
     1
  9
$TEXTSIZE
 40
0.2
  9
$TRACEWID
 40
0.05
  9
$TEXTSTYLE
  7
Standard
  9
$CLAYER
  8
0
  9
$CELTYPE
  6
ByLayer
  9
$CECOLOR
 62
   256
  9
$CELTSCALE
 40
1.0
  9
$DISPSILH
 70
     0
  9
$DIMSCALE
 40
1.0
  9
$DIMASZ
 40
0.18
  9
$DIMEXO
 40
0.0625
  9
$DIMDLI
 40
0.38
  9
$DIMRND
 40
0.0
  9
$DIMDLE
 40
0.0
  9
$DIMEXE
 40
0.18
  9
$DIMTP
 40
0.0
  9
$DIMTM
 40
0.0
  9
$DIMTXT
 40
0.18
  9
$DIMCEN
 40
0.09
  9
$DIMTSZ
 40
0.0
  9
$DIMTOL
 70
     0
  9
$DIMLIM
 70
     0
  9
$DIMTIH
 70
     1
  9
$DIMTOH
 70
     1
  9
$DIMSE1
 70
     0
  9
$DIMSE2
 70
     0
  9
$DIMTAD
 70
     0
  9
$DIMZIN
 70
     0
  9
$DIMBLK
  1

  9
$DIMASO
 70
     1
  9
$DIMSHO
 70
     1
  9
$DIMPOST
  1

  9
$DIMAPOST
  1

  9
$DIMALT
 70
     0
  9
$DIMALTD
 70
     2
  9
$DIMALTF
 40
25.4
  9
$DIMLFAC
 40
1.0
  9
$DIMTOFL
 70
     0
  9
$DIMTVP
 40
0.0
  9
$DIMTIX
 70
     0
  9
$DIMSOXD
 70
     0
  9
$DIMSAH
 70
     0
  9
$DIMBLK1
  1

  9
$DIMBLK2
  1

  9
$DIMSTYLE
  2
Standard
  9
$DIMCLRD
 70
     0
  9
$DIMCLRE
 70
     0
  9
$DIMCLRT
 70
     0
  9
$DIMTFAC
 40
1.0
  9
$DIMGAP
 40
0.09
  9
$DIMJUST
 70
     0
  9
$DIMSD1
 70
     0
  9
$DIMSD2
 70
     0
  9
$DIMTOLJ
 70
     1
  9
$DIMTZIN
 70
     0
  9
$DIMALTZ
 70
     0
  9
$DIMALTTZ
 70
     0
  9
$DIMUPT
 70
     0
  9
$DIMDEC
 70
     4
  9
$DIMTDEC
 70
     4
  9
$DIMALTU
 70
     2
  9
$DIMALTTD
 70
     2
  9
$DIMTXSTY
  7
Standard
  9
$DIMAUNIT
 70
     0
  9
$DIMADEC
 70
     0
  9
$DIMALTRND
 40
0.0
  9
$DIMAZIN
 70
     0
  9
$DIMDSEP
 70
    46
  9
$DIMATFIT
 70
     3
  9
$DIMFRAC
 70
     0
  9
$DIMLDRBLK
  1

  9
$DIMLUNIT
 70
     2
  9
$DIMLWD
 70
    -2
  9
$DIMLWE
 70
    -2
  9
$DIMTMOVE
 70
     0
  9
$DIMFXL
 40
1.0
  9
$DIMFXLON
 70
     0
  9
$DIMJOGANG
 40
0.785398
  9
$DIMTFILL
 70
     0
  9
$DIMTFILLCLR
 70
     0
  9
$DIMARCSYM
 70
     0
  9
$DIMLTYPE
  6

  9
$DIMLTEX1
  6

  9
$DIMLTEX2
  6

  9
$DIMTXTDIRECTION
 70
     0
  9
$LUNITS
 70
     2
  9
$LUPREC
 70
     4
  9
$SKETCHINC
 40
0.1
  9
$FILLETRAD
 40
0.5
  9
$AUNITS
 70
     0
  9
$AUPREC
 70
     0
  9
$MENU
  1
.
  9
$ELEVATION
 40
0.0
  9
$PELEVATION
 40
0.0
  9
$THICKNESS
 40
0.0
  9
$LIMCHECK
 70
     0
  9
$CHAMFERA
 40
0.0
  9
$CHAMFERB
 40
0.0
  9
$CHAMFERC
 40
0.0
  9
$CHAMFERD
 40
0.0
  9
$SKPOLY
 70
     0
  9
$TDCREATE
 40
2459143.703951829
  9
$TDUCREATE
 40
2459143.620618495
  9
$TDUPDATE
 40
2459143.703962141
  9
$TDUUPDATE
 40
2459143.620628808
  9
$TDINDWG
 40
0.0000000116
  9
$TDUSRTIMER
 40
0.0000000116
  9
$USRTIMER
 70
     1
  9
$ANGBASE
 50
0.0
  9
$ANGDIR
 70
     0
  9
$PDMODE
 70
    65
  9
$PDSIZE
 40
0.0
  9
$PLINEWID
 40
0.0
  9
$SPLFRAME
 70
     0
  9
$SPLINETYPE
 70
     6
  9
$SPLINESEGS
 70
     8
  9
$HANDSEED
  5
270
  9
$SURFTAB1
 70
     6
  9
$SURFTAB2
 70
     6
  9
$SURFTYPE
 70
     6
  9
$SURFU
 70
     6
  9
$SURFV
 70
     6
  9
$UCSBASE
  2

  9
$UCSNAME
  2

  9
$UCSORG
 10
0.0
 20
0.0
 30
0.0
  9
$UCSXDIR
 10
1.0
 20
0.0
 30
0.0
  9
$UCSYDIR
 10
0.0
 20
1.0
 30
0.0
  9
$UCSORTHOREF
  2

  9
$UCSORTHOVIEW
 70
     0
  9
$UCSORGTOP
 10
0.0
 20
0.0
 30
0.0
  9
$UCSORGBOTTOM
 10
0.0
 20
0.0
 30
0.0
  9
$UCSORGLEFT
 10
0.0
 20
0.0
 30
0.0
  9
$UCSORGRIGHT
 10
0.0
 20
0.0
 30
0.0
  9
$UCSORGFRONT
 10
0.0
 20
0.0
 30
0.0
  9
$UCSORGBACK
 10
0.0
 20
0.0
 30
0.0
  9
$PUCSBASE
  2

  9
$PUCSNAME
  2

  9
$PUCSORG
 10
0.0
 20
0.0
 30
0.0
  9
$PUCSXDIR
 10
1.0
 20
0.0
 30
0.0
  9
$PUCSYDIR
 10
0.0
 20
1.0
 30
0.0
  9
$PUCSORTHOREF
  2

  9
$PUCSORTHOVIEW
 70
     0
  9
$PUCSORGTOP
 10
0.0
 20
0.0
 30
0.0
  9
$PUCSORGBOTTOM
 10
0.0
 20
0.0
 30
0.0
  9
$PUCSORGLEFT
 10
0.0
 20
0.0
 30
0.0
  9
$PUCSORGRIGHT
 10
0.0
 20
0.0
 30
0.0
  9
$PUCSORGFRONT
 10
0.0
 20
0.0
 30
0.0
  9
$PUCSORGBACK
 10
0.0
 20
0.0
 30
0.0
  9
$USERI1
 70
     0
  9
$USERI2
 70
     0
  9
$USERI3
 70
     0
  9
$USERI4
 70
     0
  9
$USERI5
 70
     0
  9
$USERR1
 40
0.0
  9
$USERR2
 40
0.0
  9
$USERR3
 40
0.0
  9
$USERR4
 40
0.0
  9
$USERR5
 40
0.0
  9
$WORLDVIEW
 70
     1
  9
$SHADEDGE
 70
     3
  9
$SHADEDIF
 70
    70
  9
$TILEMODE
 70
     0
  9
$MAXACTVP
 70
    64
  9
$PINSBASE
 10
0.0
 20
0.0
 30
0.0
  9
$PLIMCHECK
 70
     0
  9
$PEXTMIN
 10
-0.0001
 20
-0.0001
 30
0.0
  9
$PEXTMAX
 10
0.210106
 20
0.297097
 30
0.0
  9
$PLIMMIN
 10
-0.0001
 20
-0.0001
  9
$PLIMMAX
 10
0.210106
 20
0.297097
  9
$UNITMODE
 70
     0
  9
$VISRETAIN
 70
     1
  9
$PLINEGEN
 70
     0
  9
$PSLTSCALE
 70
     0
  9
$TREEDEPTH
 70
  3020
  9
$CMLSTYLE
  2
Standard
  9
$CMLJUST
 70
     0
  9
$CMLSCALE
 40
1.0
  9
$PROXYGRAPHICS
 70
     1
  9
$MEASUREMENT
 70
     1
  9
$CELWEIGHT
370
    -1
  9
$ENDCAPS
280
     0
  9
$JOINSTYLE
280
     0
  9
$LWDISPLAY
290
     0
  9
$INSUNITS
 70
     6
  9
$HYPERLINKBASE
  1

  9
$STYLESHEET
  1

  9
$XEDIT
290
     1
  9
$CEPSNTYPE
380
     0
  9
$PSTYLEMODE
290
     1
  9
$FINGERPRINTGUID
  2
{9c84a5c7-5110-4503-af18-70b3540f67b7}
  9
$VERSIONGUID
  2
{FAEB1C32-E019-11D5-929B-00C0DF256EC4}
  9
$EXTNAMES
290
     1
  9
$PSVPSCALE
 40
0.0
  9
$OLESTARTUP
290
     0
  9
$SORTENTS
280
   127
  9
$INDEXCTL
280
     0
  9
$HIDETEXT
280
     1
  9
$XCLIPFRAME
280
     2
  9
$HALOGAP
280
     0
  9
$OBSCOLOR
 70
   257
  9
$OBSLTYPE
280
     0
  9
$INTERSECTIONDISPLAY
280
     0
  9
$INTERSECTIONCOLOR
 70
   257
  9
$DIMASSOC
280
     2
  9
$PROJECTNAME
  1

  9
$CAMERADISPLAY
290
     0
  9
$LENSLENGTH
 40
50.0
  9
$CAMERAHEIGHT
 40
0.0
  9
$STEPSPERSEC
 40
2.0
  9
$STEPSIZE
 40
6.0
  9
$3DDWFPREC
 40
2.0
  9
$PSOLWIDTH
 40
0.25
  9
$PSOLHEIGHT
 40
4.0
  9
$LOFTANG1
 40
1.570796
  9
$LOFTANG2
 40
1.570796
  9
$LOFTMAG1
 40
0.0
  9
$LOFTMAG2
 40
0.0
  9
$LOFTPARAM
 70
     7
  9
$LOFTNORMALS
280
     1
  9
$LATITUDE
 40
37.795
  9
$LONGITUDE
 40
-122.394
  9
$NORTHDIRECTION
 40
0.0
  9
$TIMEZONE
 70
 -8000
  9
$LIGHTGLYPHDISPLAY
280
     1
  9
$TILEMODELIGHTSYNCH
280
     1
  9
$CMATERIAL
347
44
  9
$SOLIDHIST
280
     0
  9
$SHOWHIST
280
     1
  9
$DWFFRAME
280
     2
  9
$DGNFRAME
280
     2
  9
$REALWORLDSCALE
290
     1
  9
$INTERFERECOLOR
 62
   256
  9
$CSHADOW
280
     0
  9
$SHADOWPLANELOCATION
 40
0.0
  0
ENDSEC
  0
SECTION
  2
CLASSES
  0
CLASS
  1
ACDBDICTIONARYWDFLT
  2
AcDbDictionaryWithDefault
  3
ObjectDBX Classes
 90
        0
 91
        3
280
     0
281
     0
  0
CLASS
  1
VISUALSTYLE
  2
AcDbVisualStyle
  3
ObjectDBX Classes
 90
     4095
 91
        3
280
     0
281
     0
  0
CLASS
  1
MATERIAL
  2
AcDbMaterial
  3
ObjectDBX Classes
 90
     1153
 91
        3
280
     0
281
     0
  0
CLASS
  1
SCALE
  2
AcDbScale
  3
ObjectDBX Classes
 90
     1153
 91
        3
280
     0
281
     0
  0
CLASS
  1
TABLESTYLE
  2
AcDbTableStyle
  3
ObjectDBX Classes
 90
     4095
 91
        3
280
     0
281
     0
  0
CLASS
  1
MLEADERSTYLE
  2
AcDbMLeaderStyle
  3
ACDB_MLEADERSTYLE_CLASS
 90
     4095
 91
        3
280
     0
281
     0
  0
CLASS
  1
SUN
  2
AcDbSun
  3
SCENEOE
 90
     1153
 91
        3
280
     0
281
     0
  0
CLASS
  1
SORTENTSTABLE
  2
AcDbSortentsTable
  3
ObjectDBX Classes
 90
        0
 91
        3
280
     0
281
     0
  0
CLASS
  1
DICTIONARYVAR
  2
AcDbDictionaryVar
  3
ObjectDBX Classes
 90
        0
 91
        3
280
     0
281
     0
  0
CLASS
  1
CELLSTYLEMAP
  2
AcDbCellStyleMap
  3
ObjectDBX Classes
 90
     1152
 91
        3
280
     0
281
     0
  0
ENDSEC
  0
SECTION
  2
TABLES
  0
TABLE
  2
VPORT
  5
8
330
0
100
AcDbSymbolTable
 70
     1
  0
VPORT
  5
29
330
8
100
AcDbSymbolTableRecord
100
AcDbViewportTableRecord
  2
*Active
 70
     0
 10
0.0
 20
0.0
 11
1.0
 21
1.0
 12
8.85951
 22
-0.196685
 13
0.0
 23
0.0
 14
0.5
 24
0.5
 15
0.5
 25
0.5
 16
0.0
 26
0.0
 36
1.0
 17
0.0
 27
0.0
 37
0.0
 40
1.781982
 41
0.848519
 42
50.0
 43
0.0
 44
0.0
 50
0.0
 51
0.0
 71
     0
 72
   100
 73
     1
 74
     3
 75
     0
 76
     0
 77
     0
 78
     0
281
     0
 65
     1
110
0.0
120
0.0
130
0.0
111
1.0
121
0.0
131
0.0
112
0.0
122
1.0
132
0.0
 79
     0
146
0.0
348
2F
 60
     3
 61
     5
292
     1
282
     1
141
0.0
142
0.0
 63
   250
361
6D
  0
ENDTAB
  0
TABLE
  2
LTYPE
  5
5
330
0
100
AcDbSymbolTable
 70
     4
  0
LTYPE
  5
14
330
5
100
AcDbSymbolTableRecord
100
AcDbLinetypeTableRecord
  2
ByBlock
 70
     0
  3

 72
    65
 73
     0
 40
0.0
  0
LTYPE
  5
15
330
5
100
AcDbSymbolTableRecord
100
AcDbLinetypeTableRecord
  2
ByLayer
 70
     0
  3

 72
    65
 73
     0
 40
0.0
  0
LTYPE
  5
16
330
5
100
AcDbSymbolTableRecord
100
AcDbLinetypeTableRecord
  2
Continuous
 70
     0
  3
Solid line
 72
    65
 73
     0
 40
0.0
  0
LTYPE
  5
74
330
5
100
AcDbSymbolTableRecord
100
AcDbLinetypeTableRecord
  2
AUSGEZOGEN
 70
     0
  3
durchgezogene Linie
 72
    65
 73
     0
 40
0.0
  0
LTYPE
  5
7A
330
5
100
AcDbSymbolTableRecord
100
AcDbLinetypeTableRecord
  2
STRICHPUNKT2_S5
 70
     0
  3
Lang eng gestrichelt bzw. punktiert
 72
    65
 73
     4
 40
0.05
 49
0.035
 74
     0
 49
-0.005
 74
     0
 49
0.005
 74
     0
 49
-0.005
 74
     0
  0
LTYPE
  5
7B
330
5
100
AcDbSymbolTableRecord
100
AcDbLinetypeTableRecord
  2
VERDECKT2_S2
 70
     0
  3
Kurzgestrichelt
 72
    65
 73
     2
 40
0.015
 49
0.01
 74
     0
 49
-0.005
 74
     0
  0
ENDTAB
  0
TABLE
  2
LAYER
  5
2
330
0
100
AcDbSymbolTable
 70
     4
  0
LAYER
  5
10
330
2
100
AcDbSymbolTableRecord
100
AcDbLayerTableRecord
  2
0
 70
     0
 62
     7
  6
Continuous
370
    -3
390
F
347
46
  0
LAYER
  5
76
330
2
100
AcDbSymbolTableRecord
100
AcDbLayerTableRecord
  2
PLAN_712
 70
     0
 62
     7
  6
AUSGEZOGEN
370
    -3
390
F
347
46
1001
AcCmTransparency
1071
 33554687
1001
AcAecLayerStandard
1000

1000
Dokument-Layer
  0
LAYER
  5
78
330
2
100
AcDbSymbolTableRecord
100
AcDbLayerTableRecord
  2
TB_712
 70
     0
 62
     7
  6
AUSGEZOGEN
370
    -3
390
F
347
46
1001
AcCmTransparency
1071
 33554687
1001
AcAecLayerStandard
1000

1000
Dokument-Layer
  0
LAYER
  5
7C
330
2
100
AcDbSymbolTableRecord
100
AcDbLayerTableRecord
  2
XR$1$TB_712_1
 70
     0
 62
     7
  6
AUSGEZOGEN
370
    -3
390
F
347
46
1001
AcCmTransparency
1071
 33554687
1001
AcAecLayerStandard
1000

1000
Dokument-Layer
  0
ENDTAB
  0
TABLE
  2
STYLE
  5
3
330
0
100
AcDbSymbolTable
 70
     2
  0
STYLE
  5
11
330
3
100
AcDbSymbolTableRecord
100
AcDbTextStyleTableRecord
  2
Standard
 70
     0
 40
0.0
 41
1.0
 50
0.0
 71
     0
 42
0.2
  3
txt
  4

  0
STYLE
  5
79
330
3
100
AcDbSymbolTableRecord
100
AcDbTextStyleTableRecord
  2
ARIAL
 70
     0
 40
0.0
 41
1.0
 50
0.0
 71
     0
 42
0.2
  3
ARIAL.TTF
  4

1001
ACAD
1000
Arial
1071
       34
  0
ENDTAB
  0
TABLE
  2
VIEW
  5
6
330
0
100
AcDbSymbolTable
 70
     0
  0
ENDTAB
  0
TABLE
  2
UCS
  5
7
330
0
100
AcDbSymbolTable
 70
     0
  0
ENDTAB
  0
TABLE
  2
APPID
  5
9
330
0
100
AcDbSymbolTable
 70
     4
  0
APPID
  5
12
330
9
100
AcDbSymbolTableRecord
100
AcDbRegAppTableRecord
  2
ACAD
 70
     0
  0
APPID
  5
75
330
9
100
AcDbSymbolTableRecord
100
AcDbRegAppTableRecord
  2
AcCmTransparency
 70
     0
  0
APPID
  5
77
330
9
100
AcDbSymbolTableRecord
100
AcDbRegAppTableRecord
  2
AcAecLayerStandard
 70
     0
  0
APPID
  5
90
330
9
100
AcDbSymbolTableRecord
100
AcDbRegAppTableRecord
  2
NEM_ODX
 70
     0
  0
ENDTAB
  0
TABLE
  2
DIMSTYLE
  5
A
330
0
100
AcDbSymbolTable
 70
     1
100
AcDbDimStyleTable
  0
DIMSTYLE
105
27
330
A
100
AcDbSymbolTableRecord
100
AcDbDimStyleTableRecord
  2
Standard
 70
     0
178
     0
340
11
  0
ENDTAB
  0
TABLE
  2
BLOCK_RECORD
  5
1
330
0
100
AcDbSymbolTable
 70
     0
  0
BLOCK_RECORD
  5
1F
102
{ACAD_XDICTIONARY
360
233
102
}
330
1
100
AcDbSymbolTableRecord
100
AcDbBlockTableRecord
  2
*Model_Space
340
22
 70
     0
280
     1
281
     0
  0
BLOCK_RECORD
  5
6E
330
1
100
AcDbSymbolTableRecord
100
AcDbBlockTableRecord
  2
*Paper_Space
340
6F
 70
     0
280
     1
281
     0
  0
ENDTAB
  0
ENDSEC
  0
SECTION
  2
BLOCKS
  0
BLOCK
  5
20
330
1F
100
AcDbEntity
  8
0
100
AcDbBlockBegin
  2
*Model_Space
 70
     0
 10
0.0
 20
0.0
 30
0.0
  3
*Model_Space
  1

  0
ENDBLK
  5
21
330
1F
100
AcDbEntity
  8
0
100
AcDbBlockEnd
  0
BLOCK
  5
70
330
6E
100
AcDbEntity
 67
     1
  8
0
100
AcDbBlockBegin
  2
*Paper_Space
 70
     0
 10
0.0
 20
0.0
 30
0.0
  3
*Paper_Space
  1

  0
ENDBLK
  5
71
330
6E
100
AcDbEntity
 67
     1
  8
0
100
AcDbBlockEnd
  0
ENDSEC
  0
SECTION
  2
ENTITIES
  0
HATCH
  5
7D
330
1F
100
AcDbEntity
  8
XR$1$TB_712_1
  6
AUSGEZOGEN
 62
    18
420
        0
440
 33554687
370
    35
100
AcDbHatch
 10
0.0
 20
0.0
 30
0.0
210
0.0
220
0.0
230
1.0
  2
SOLID
 70
     1
 71
     0
 91
       18
 92
        3
 72
     0
 73
     1
 93
       27
 10
8.453750551794437
 20
-0.8011609230774079
 10
8.45774429525538
 20
-0.8011609230774079
 10
8.45832142164593
 20
-0.8011335266965959
 10
8.45885240676354
 20
-0.8010509770754619
 10
8.459347344011654
 20
-0.8009226466600738
 10
8.459796139986818
 20
-0.8007395234830549
 10
8.460208167135104
 20
-0.800519631479156
 10
8.460574413489136
 20
-0.8002449467136339
 10
8.46120669312001
 20
-0.799594643148019
 10
8.461453981504725
 20
-0.7992190243479158
 10
8.46167387350861
 20
-0.7988069971996339
 10
8.462012723481832
 20
-0.797909044770608
 10
8.46220485862622
 20
-0.7969108792643869
 10
8.462269023833914
 20
-0.7958391761044169
 10
8.46220485862622
 20
-0.7946939352906769
 10
8.462012723481832
 20
-0.7936590009575849
 10
8.461856996685635
 20
-0.7931918205689799
 10
8.46167387350861
 20
-0.7927523970398779
 10
8.461453981504725
 20
-0.7923490213802719
 10
8.46120669312001
 20
-0.7919827750262449
 10
8.460574413489136
 20
-0.7913598678414349
 10
8.460208167135104
 20
-0.7911125794567269
 10
8.459796139986818
 20
-0.7909020598989049
 10
8.459347344011654
 20
-0.7907369606566239
 10
8.45885240676354
 20
-0.790618002687303
 10
8.45774429525538
 20
-0.7905170686527249
 10
8.453750551794437
 20
-0.7905170686527249
 97
        0
 92
        3
 72
     0
 73
     1
 93
       12
 10
8.46545673693303
 20
-0.8011609230774079
 10
8.473178551056742
 20
-0.8011609230774079
 10
8.473178551056742
 20
-0.799832559086655
 10
8.467059785689301
 20
-0.799832559086655
 10
8.467059785689301
 20
-0.7963701612220209
 10
8.472106847896768
 20
-0.7963701612220209
 10
8.472106847896768
 20
-0.7950421577099638
 10
8.467059785689301
 20
-0.7950421577099638
 10
8.467059785689301
 20
-0.7918454326434838
 10
8.47291287825859
 20
-0.7918454326434838
 10
8.47291287825859
 20
-0.7905170686527249
 10
8.46545673693303
 20
-0.7905170686527249
 97
        0
 92
        3
 72
     0
 73
     1
 93
       38
 10
8.482750341842754
 20
-0.7905170686527249
 10
8.482750341842754
 20
-0.7974328524146258
 10
8.48271357301587
 20
-0.7980831559802428
 10
8.482603987492626
 20
-0.7986328859899878
 10
8.482402119423474
 20
-0.7991000663785939
 10
8.482118422690569
 20
-0.7994663127326309
 10
8.481751815857846
 20
-0.7997409974981529
 10
8.481294007915306
 20
-0.799942505088606
 10
8.480744277905567
 20
-0.8000618235366248
 10
8.480093974339947
 20
-0.8000982318848069
 10
8.479443670774323
 20
-0.8000618235366248
 10
8.478893940764586
 20
-0.799942505088606
 10
8.47843613282204
 20
-0.7997409974981529
 10
8.478060514021944
 20
-0.7994663127326309
 10
8.477785829256415
 20
-0.7991000663785939
 10
8.477584321665963
 20
-0.7986328859899878
 10
8.477474375664016
 20
-0.7980831559802428
 10
8.477428594869762
 20
-0.7974328524146258
 10
8.477428594869762
 20
-0.7905170686527249
 10
8.476100230879016
 20
-0.7905170686527249
 10
8.476100230879016
 20
-0.7976985252127718
 10
8.476173768532783
 20
-0.7985503363688509
 10
8.476384288090605
 20
-0.7992922015229799
 10
8.476732510509883
 20
-0.7999334931212289
 10
8.477199690898491
 20
-0.8004648387175368
 10
8.477776456810348
 20
-0.800876865865815
 10
8.478463529202854
 20
-0.8011793074908449
 10
8.479233151216496
 20
-0.8013624306678648
 10
8.480093974339947
 20
-0.8014265958755599
 10
8.480955157942095
 20
-0.8013624306678648
 10
8.481724419477029
 20
-0.8011793074908449
 10
8.482411491869538
 20
-0.800876865865815
 10
8.482988618260089
 20
-0.8004648387175368
 10
8.483455798648702
 20
-0.7999334931212289
 10
8.483794648621922
 20
-0.7992922015229799
 10
8.484014540625813
 20
-0.7985503363688509
 10
8.484087717800877
 20
-0.7976985252127718
 10
8.484087717800877
 20
-0.7905170686527249
 97
        0
 92
        3
 72
     0
 73
     1
 93
        8
 10
8.48674408530369
 20
-0.7905170686527249
 10
8.48674408530369
 20
-0.7918454326434838
 10
8.489940810370172
 20
-0.7918454326434838
 10
8.489940810370172
 20
-0.8011609230774079
 10
8.491268813882227
 20
-0.8011609230774079
 10
8.491268813882227
 20
-0.7918454326434838
 10
8.49445652698134
 20
-0.7918454326434838
 10
8.49445652698134
 20
-0.7905170686527249
 97
        0
 92
        3
 72
     0
 73
     1
 93
       96
 10
8.497461116903432
 20
-0.7940804005519329
 10
8.497671636461256
 20
-0.7946023737021709
 10
8.498001474467102
 20
-0.7950147613291539
 10
8.498422874061463
 20
-0.7953536113023689
 10
8.498926462798252
 20
-0.7956192841005139
 10
8.499494577221437
 20
-0.7958207916909759
 10
8.50071263473155
 20
-0.7961412572507538
 10
8.501931052720346
 20
-0.7964163024949629
 10
8.502498806664834
 20
-0.7965716688124809
 10
8.503002755880328
 20
-0.7967731764029359
 10
8.503423794995978
 20
-0.7970208252663359
 10
8.503753633001827
 20
-0.7973412908261139
 10
8.503964513038351
 20
-0.7977352940396588
 10
8.50403769021342
 20
-0.7982298708090779
 10
8.50398253697309
 20
-0.7986970511976829
 10
8.50380878624215
 20
-0.7990816819651538
 10
8.503543113443989
 20
-0.7994115199709988
 10
8.503204263470783
 20
-0.7996678203230798
 10
8.502801248289867
 20
-0.7998603159461669
 10
8.50235209183601
 20
-0.7999882858828599
 10
8.501875899480027
 20
-0.8000708355039909
 10
8.50138132271061
 20
-0.8000982318848069
 10
8.50071263473155
 20
-0.8000618235366248
 10
8.500126496373618
 20
-0.799942505088606
 10
8.49962254715813
 20
-0.7997409974981529
 10
8.499183123629031
 20
-0.7994663127326309
 10
8.498825889242372
 20
-0.7991000663785939
 10
8.498532459584716
 20
-0.7986328859899878
 10
8.498321940026887
 20
-0.7980831559802428
 10
8.498184597644123
 20
-0.7974328524146258
 10
8.496856233653373
 20
-0.7976985252127718
 10
8.496948155720572
 20
-0.7986235135439218
 10
8.497067113689903
 20
-0.7990359011708968
 10
8.497222840486101
 20
-0.7994021475249319
 10
8.497424348076555
 20
-0.7997409974981529
 10
8.497653252047822
 20
-0.8000524510905539
 10
8.498221366471007
 20
-0.8005654122734158
 10
8.498889693971378
 20
-0.8009500430408819
 10
8.499659315985017
 20
-0.8012157158390348
 10
8.500492742727653
 20
-0.8013714426352379
 10
8.50138132271061
 20
-0.8014265958755599
 10
8.502159956691616
 20
-0.8013714426352379
 10
8.502901821845754
 20
-0.8012250882851019
 10
8.503579521792188
 20
-0.8009594154869559
 10
8.50417503259618
 20
-0.8005928086542279
 10
8.504669609365596
 20
-0.8001166162982479
 10
8.505045228165699
 20
-0.7995211054942539
 10
8.505182570548467
 20
-0.7991732435536609
 10
8.505283504583028
 20
-0.7988069971996339
 10
8.505365693725478
 20
-0.7979641980109239
 10
8.505292516550414
 20
-0.7972403567915429
 10
8.505081996992583
 20
-0.7966452064662409
 10
8.504752158986737
 20
-0.796168653631561
 10
8.504330759392374
 20
-0.7957933953101599
 10
8.503826810176896
 20
-0.7955003261311958
 10
8.50326806819978
 20
-0.7952710616812398
 10
8.502040998722292
 20
-0.7949412236753869
 10
8.500822580733493
 20
-0.7946759113559329
 10
8.500263838756386
 20
-0.794520184559733
 10
8.499759889540895
 20
-0.7943367009040189
 10
8.499329477979169
 20
-0.7940987849653759
 10
8.498999639973329
 20
-0.7937963433403469
 10
8.498789120415491
 20
-0.7934027006055038
 10
8.49871594324043
 20
-0.7929077633573889
 10
8.498780108448122
 20
-0.7925505289707309
 10
8.498944847211689
 20
-0.7922574597917659
 10
8.499192135596404
 20
-0.7920195438531249
 10
8.49951260115618
 20
-0.7918454326434838
 10
8.499888219956283
 20
-0.7917264746741569
 10
8.500291235137189
 20
-0.7916439250530238
 10
8.501115649912458
 20
-0.7915797598453298
 10
8.501683764335642
 20
-0.791607156226142
 10
8.502196365039806
 20
-0.7916897058472768
 10
8.502654533461042
 20
-0.7918364206761029
 10
8.503039164228504
 20
-0.7920469402339398
 10
8.503350617820914
 20
-0.7923400094129028
 10
8.503579521792188
 20
-0.792706255766932
 10
8.50372623662101
 20
-0.7931644241881679
 10
8.503772017415267
 20
-0.7937141541979049
 10
8.505365693725478
 20
-0.7937141541979049
 10
8.505118405340763
 20
-0.7928713550091999
 10
8.50477955536755
 20
-0.792156886235884
 10
8.504349143805815
 20
-0.7915613754318909
 10
8.50383618262296
 20
-0.7910851830759089
 10
8.503250044265034
 20
-0.7907185762431839
 10
8.502599740699411
 20
-0.7904532639237299
 10
8.501885271926097
 20
-0.7903065490949049
 10
8.501115649912458
 20
-0.7902517563332749
 10
8.500419565552587
 20
-0.7902975371275238
 10
8.499741865606145
 20
-0.7904532639237299
 10
8.499118958421336
 20
-0.7907005523084428
 10
8.498550843998153
 20
-0.7910484142490288
 10
8.49807465164218
 20
-0.791497210224197
 10
8.49770840528814
 20
-0.7920469402339398
 10
8.497470128870809
 20
-0.7926972437995659
 10
8.49738757924967
 20
-0.7934484813997589
 97
        0
 92
        3
 72
     0
 73
     1
 93
       78
 10
8.509689275192256
 20
-0.7949689805348948
 10
8.50987239836927
 20
-0.7941629501730729
 10
8.510183851961676
 20
-0.7934391089536859
 10
8.510623635969466
 20
-0.7928162017688769
 10
8.511182377946586
 20
-0.7922942286186478
 10
8.511869089860388
 20
-0.79190959785118
 10
8.512684492668287
 20
-0.7916713214338359
 10
8.513618853445497
 20
-0.7915797598453298
 10
8.514122442182284
 20
-0.7916165286722129
 10
8.514635403365151
 20
-0.7917354866415349
 10
8.515139352580638
 20
-0.7919186098185449
 10
8.515615544936608
 20
-0.7921842826167049
 10
8.51603694453097
 20
-0.7925141206225449
 10
8.516385166950258
 20
-0.7929261477708309
 10
8.516650479269712
 20
-0.7934117125728768
 10
8.516806206065917
 20
-0.793979466517369
 10
8.518143582024033
 20
-0.7937141541979049
 10
8.517877909225884
 20
-0.7928713550091999
 10
8.517511662871854
 20
-0.792156886235884
 10
8.517035470515872
 20
-0.7915613754318909
 10
8.516476728538757
 20
-0.7910851830759089
 10
8.515844448907883
 20
-0.7907185762431839
 10
8.515148364548004
 20
-0.7904532639237299
 10
8.5143974874265
 20
-0.7903065490949049
 10
8.513618853445497
 20
-0.7902517563332749
 10
8.512986573814626
 20
-0.7902791527140819
 10
8.512391423489325
 20
-0.7903613418565238
 10
8.511841693479578
 20
-0.7904896722719088
 10
8.511328732296711
 20
-0.7906727954489289
 10
8.510852539940744
 20
-0.7909020598989049
 10
8.510412755932933
 20
-0.7911767446644228
 10
8.510019113198098
 20
-0.791497210224197
 10
8.509661878811446
 20
-0.7918454326434838
 10
8.509341052772973
 20
-0.7922394358570238
 10
8.509066368007447
 20
-0.7926698474187429
 10
8.508837464036176
 20
-0.7931276553612879
 10
8.508644968413094
 20
-0.7936222321307049
 10
8.508379295614953
 20
-0.7946849233233109
 10
8.508297106472506
 20
-0.7958391761044169
 10
8.508379295614953
 20
-0.7969930684068279
 10
8.508644968413094
 20
-0.7980557595994359
 10
8.508837464036176
 20
-0.7985503363688509
 10
8.509066368007447
 20
-0.7990085047900829
 10
8.509341052772973
 20
-0.799438916351815
 10
8.509661878811446
 20
-0.799832559086655
 10
8.510019113198098
 20
-0.8001807815059349
 10
8.510412755932933
 20
-0.8005012470657239
 10
8.510852539940744
 20
-0.8007762923099339
 10
8.511328732296711
 20
-0.8010051962812069
 10
8.511841693479578
 20
-0.8011883194582219
 10
8.512391423489325
 20
-0.8013166498736078
 10
8.512986573814626
 20
-0.8013991994947448
 10
8.513618853445497
 20
-0.8014265958755599
 10
8.514415511361246
 20
-0.8013530582218009
 10
8.515185133374889
 20
-0.8011335266965959
 10
8.51592699852902
 20
-0.8007853042773129
 10
8.516614070921518
 20
-0.8002997394752689
 10
8.517218593692883
 20
-0.7996862047365209
 10
8.51773155487575
 20
-0.7989533515497589
 10
8.518134570056663
 20
-0.7981199248071258
 10
8.518409254822181
 20
-0.7971671796164739
 10
8.516806206065917
 20
-0.7971671796164739
 10
8.516659851715776
 20
-0.7978268556281648
 10
8.516421575298443
 20
-0.7984129939860899
 10
8.516101109738665
 20
-0.7989165827228859
 10
8.515716478971196
 20
-0.799328970349859
 10
8.515258310549955
 20
-0.7996588083557139
 10
8.514754721813162
 20
-0.7998967242943579
 10
8.514204991803425
 20
-0.8000434391231759
 10
8.513618853445497
 20
-0.8000982318848069
 10
8.512684492668287
 20
-0.8000160427423649
 10
8.511869089860388
 20
-0.7997687543576538
 10
8.511182377946586
 20
-0.799383763111491
 10
8.510623635969466
 20
-0.7988617899612579
 10
8.510183851961676
 20
-0.798238882776444
 10
8.50987239836927
 20
-0.7975154020357569
 10
8.509689275192256
 20
-0.7967093716739378
 10
8.509625109984562
 20
-0.7958391761044169
 97
        0
 92
        3
 72
     0
 73
     1
 93
       12
 10
8.521596967921301
 20
-0.8011609230774079
 10
8.52292497143336
 20
-0.8011609230774079
 10
8.52292497143336
 20
-0.7963701612220209
 10
8.528512391204499
 20
-0.7963701612220209
 10
8.528512391204499
 20
-0.8011609230774079
 10
8.530115439960777
 20
-0.8011609230774079
 10
8.530115439960777
 20
-0.7905170686527249
 10
8.528512391204499
 20
-0.7905170686527249
 10
8.528512391204499
 20
-0.7950421577099638
 10
8.52292497143336
 20
-0.7950421577099638
 10
8.52292497143336
 20
-0.7905170686527249
 10
8.521596967921301
 20
-0.7905170686527249
 97
        0
 92
        3
 72
     0
 73
     1
 93
       12
 10
8.533568825858039
 20
-0.8011609230774079
 10
8.541024606704909
 20
-0.8011609230774079
 10
8.541024606704909
 20
-0.799832559086655
 10
8.534906201816149
 20
-0.799832559086655
 10
8.534906201816149
 20
-0.7963701612220209
 10
8.54021857634308
 20
-0.7963701612220209
 10
8.54021857634308
 20
-0.7950421577099638
 10
8.534906201816149
 20
-0.7950421577099638
 10
8.534906201816149
 20
-0.7918454326434838
 10
8.541024606704909
 20
-0.7918454326434838
 10
8.541024606704909
 20
-0.7905170686527249
 10
8.533568825858039
 20
-0.7905170686527249
 97
        0
 92
        3
 72
     0
 73
     1
 93
       90
 10
8.456278588881865
 20
-0.8087270104049259
 10
8.45597650773552
 20
-0.8084335807472688
 10
8.455902970081763
 20
-0.8082688419836939
 10
8.455884946147012
 20
-0.8080763463606109
 10
8.455930726941268
 20
-0.8078016615950838
 10
8.456058696877967
 20
-0.8075727576238149
 10
8.456242180533671
 20
-0.8073896344468029
 10
8.456480096472315
 20
-0.8072429196179669
 10
8.457002430101246
 20
-0.807068808408334
 10
8.45747862245722
 20
-0.8070140156466948
 10
8.458266268405605
 20
-0.8071055772352008
 10
8.458650899173081
 20
-0.8072245352045359
 10
8.459008133559742
 20
-0.8073802620007299
 10
8.459649425157982
 20
-0.8078016615950838
 10
8.460134989960029
 20
-0.8083420191587569
 10
8.462269023833914
 20
-0.8070140156466948
 10
8.461756062651057
 20
-0.806537823290722
 10
8.46122507753345
 20
-0.8061164236963668
 10
8.46067534752371
 20
-0.8057591893097159
 10
8.460107593579226
 20
-0.8054477357173049
 10
8.459521094742595
 20
-0.8052094592999689
 10
8.458934956384674
 20
-0.8050263361229539
 10
8.45833944558068
 20
-0.8049254020883749
 10
8.45774429525538
 20
-0.8048889937401909
 10
8.456874099685866
 20
-0.8049347745344488
 10
8.456068069324036
 20
-0.8050905013306529
 10
8.455344228104652
 20
-0.8053468016827339
 10
8.454721320919834
 20
-0.8057134085154579
 10
8.454199347769613
 20
-0.8061986128388089
 10
8.45381471700214
 20
-0.8067941236428088
 10
8.45367737461938
 20
-0.8071329736160199
 10
8.453567428617426
 20
-0.8075085924161188
 10
8.4534848789963
 20
-0.8083420191587569
 10
8.453540032236615
 20
-0.8089191455493199
 10
8.453695759032817
 20
-0.8094414791782399
 10
8.453943047417532
 20
-0.8099082990881539
 10
8.454281897390734
 20
-0.8103206867151308
 10
8.454703296985095
 20
-0.8106685486557228
 10
8.455206885721884
 20
-0.8109435938999389
 10
8.455793024079815
 20
-0.8111541134577749
 10
8.45643431567806
 20
-0.811291455840534
 10
8.458568710030638
 20
-0.8117312398483228
 10
8.459035890419244
 20
-0.8118411858502729
 10
8.459356355979024
 20
-0.8120152970599139
 10
8.459548851602108
 20
-0.8122532129985609
 10
8.459603644363735
 20
-0.8126014354178439
 10
8.459557863569477
 20
-0.8128854926294329
 10
8.459429533154097
 20
-0.8131417929815159
 10
8.459228025563629
 20
-0.813370696952781
 10
8.458971725211548
 20
-0.813563192575873
 10
8.458687667999959
 20
-0.8137189193720769
 10
8.458367202440183
 20
-0.8138378773413899
 10
8.45774429525538
 20
-0.8139294389299049
 10
8.456837330858972
 20
-0.8138378773413899
 10
8.456443688124134
 20
-0.8137189193720769
 10
8.456077081291406
 20
-0.813563192575873
 10
8.455426777725792
 20
-0.8131417929815159
 10
8.454813242987042
 20
-0.8126014354178439
 10
8.45268786060184
 20
-0.813664126610445
 10
8.45327435943846
 20
-0.8142134961414899
 10
8.453851485829007
 20
-0.8146716645627219
 10
8.454410227806129
 20
-0.8150379109167588
 10
8.454986993717982
 20
-0.8153309800957269
 10
8.455564120108543
 20
-0.8155418601322468
 10
8.456168642879911
 20
-0.8156882144823788
 10
8.456800922510789
 20
-0.8157707641035119
 10
8.45747862245722
 20
-0.8157981604843279
 10
8.458220487611362
 20
-0.815761391657448
 10
8.459008133559742
 20
-0.8156608181015649
 10
8.459814163921557
 20
-0.8154593105111069
 10
8.460574413489136
 20
-0.8151294725052649
 10
8.460922635908421
 20
-0.8149095805013659
 10
8.461243101468197
 20
-0.814653280149285
 10
8.461527158679786
 20
-0.8143508385242528
 10
8.461783819510565
 20
-0.8139936041375999
 10
8.461985327101019
 20
-0.8135999614027509
 10
8.462141053897216
 20
-0.8131417929815159
 10
8.462232615485734
 20
-0.8126382042447239
 10
8.462269023833914
 20
-0.8120700898215439
 10
8.462232615485734
 20
-0.8116396782598189
 10
8.462131681451153
 20
-0.8112550474923409
 10
8.461975954654942
 20
-0.8109252094864969
 10
8.461774447064494
 20
-0.8106321403075418
 10
8.461518146712406
 20
-0.8103754794767589
 10
8.461234089500824
 20
-0.8101559479515579
 10
8.46055638955439
 20
-0.8098077255322709
 10
8.459796139986818
 20
-0.8095694491149328
 10
8.458990109624985
 20
-0.8093953379052868
 10
8.45747862245722
 20
-0.8091390375532059
 10
8.456782538097352
 20
-0.8089559143761939
 97
        0
 92
        3
 72
     0
 73
     1
 93
        8
 10
8.468653461999507
 20
-0.8072796884448509
 10
8.471309829502315
 20
-0.8072796884448509
 10
8.471309829502315
 20
-0.8051546665383389
 10
8.463331715026522
 20
-0.8051546665383389
 10
8.463331715026522
 20
-0.8072796884448509
 10
8.465988082529321
 20
-0.8072796884448509
 10
8.465988082529321
 20
-0.8155234757188049
 10
8.468653461999507
 20
-0.8155234757188049
 97
        0
 92
        3
 72
     0
 73
     1
 93
       12
 10
8.473178551056742
 20
-0.8155234757188049
 10
8.481156665532545
 20
-0.8155234757188049
 10
8.481156665532545
 20
-0.813664126610445
 10
8.475569245761406
 20
-0.813664126610445
 10
8.475569245761406
 20
-0.8112734319057819
 10
8.480359647138096
 20
-0.8112734319057819
 10
8.480359647138096
 20
-0.8091390375532059
 10
8.475569245761406
 20
-0.8091390375532059
 10
8.475569245761406
 20
-0.8072796884448509
 10
8.480625319936248
 20
-0.8072796884448509
 10
8.480625319936248
 20
-0.8051546665383389
 10
8.473178551056742
 20
-0.8051546665383389
 97
        0
 92
        3
 72
     0
 73
     1
 93
        4
 10
8.483016014640903
 20
-0.8155234757188049
 10
8.485681394111085
 20
-0.8155234757188049
 10
8.485681394111085
 20
-0.8051546665383389
 10
8.483016014640903
 20
-0.8051546665383389
 97
        0
 92
        3
 72
     0
 73
     1
 93
       10
 10
8.490472155966476
 20
-0.8155234757188049
 10
8.490472155966476
 20
-0.8091390375532059
 10
8.494190854183188
 20
-0.8155234757188049
 10
8.496856233653373
 20
-0.8155234757188049
 10
8.496856233653373
 20
-0.8051546665383389
 10
8.49445652698134
 20
-0.8051546665383389
 10
8.49445652698134
 20
-0.8118044170233968
 10
8.490737828764628
 20
-0.8051546665383389
 10
8.488072088815748
 20
-0.8051546665383389
 10
8.488072088815748
 20
-0.8155234757188049
 97
        0
 92
        3
 72
     0
 73
     1
 93
       10
 10
8.507765760876206
 20
-0.8072796884448509
 10
8.507765760876206
 20
-0.8051546665383389
 10
8.499246928358035
 20
-0.8051546665383389
 10
8.499246928358035
 20
-0.8072796884448509
 10
8.504569035809716
 20
-0.8072796884448509
 10
8.498981616038575
 20
-0.813664126610445
 10
8.498981616038575
 20
-0.8155234757188049
 10
8.507765760876206
 20
-0.8155234757188049
 10
8.507765760876206
 20
-0.813664126610445
 10
8.502178341105052
 20
-0.813664126610445
 97
        0
 92
        3
 72
     0
 73
     1
 93
       12
 10
8.50989078278271
 20
-0.8155234757188049
 10
8.517877909225884
 20
-0.8155234757188049
 10
8.517877909225884
 20
-0.813664126610445
 10
8.5125561622529
 20
-0.813664126610445
 10
8.5125561622529
 20
-0.8112734319057819
 10
8.517071878864058
 20
-0.8112734319057819
 10
8.517071878864058
 20
-0.8091390375532059
 10
8.5125561622529
 20
-0.8091390375532059
 10
8.5125561622529
 20
-0.8072796884448509
 10
8.517603224460363
 20
-0.8072796884448509
 10
8.517603224460363
 20
-0.8051546665383389
 10
8.50989078278271
 20
-0.8051546665383389
 97
        0
 92
        3
 72
     0
 73
     1
 93
       42
 10
8.522393986315754
 20
-0.8051546665383389
 10
8.519737618812945
 20
-0.8051546665383389
 10
8.519737618812945
 20
-0.8120700898215439
 10
8.519765015193748
 20
-0.8125466426562139
 10
8.519847564814881
 20
-0.8129954386313818
 10
8.519975534751582
 20
-0.8133984538122969
 10
8.520140633993847
 20
-0.8137737121337009
 10
8.520607814382453
 20
-0.814415003731949
 10
8.521202964707761
 20
-0.8149279649148069
 10
8.521890037100267
 20
-0.8153125956822769
 10
8.522650286667835
 20
-0.8155876409264998
 10
8.523456317029654
 20
-0.815743367722696
 10
8.52426234739148
 20
-0.8157981604843279
 10
8.524976816164788
 20
-0.815743367722696
 10
8.525709669351556
 20
-0.8155876409264998
 10
8.526424138124872
 20
-0.8153125956822769
 10
8.527083453657859
 20
-0.8149279649148069
 10
8.527660580048424
 20
-0.814415003731949
 10
8.528109376023586
 20
-0.8137737121337009
 10
8.528283487233232
 20
-0.8133984538122969
 10
8.528411817648612
 20
-0.8129954386313818
 10
8.528484994823692
 20
-0.8125466426562139
 10
8.528512391204499
 20
-0.8120700898215439
 10
8.528512391204499
 20
-0.8051546665383389
 10
8.526121696499835
 20
-0.8051546665383389
 10
8.526121696499835
 20
-0.8118044170233968
 10
8.526094300119025
 20
-0.8121984202369308
 10
8.526021122943956
 20
-0.812583051004407
 10
8.525883780561195
 20
-0.8129402853910579
 10
8.525691284938116
 20
-0.813270123396902
 10
8.525434984586028
 20
-0.8135357961950539
 10
8.525114158547556
 20
-0.8137463157528869
 10
8.524720515812714
 20
-0.8138836581356439
 10
8.52426234739148
 20
-0.8139294389299049
 10
8.52379516700287
 20
-0.8138836581356439
 10
8.523410536235406
 20
-0.8137463157528869
 10
8.523090070675622
 20
-0.8135357961950539
 10
8.522833409844846
 20
-0.813270123396902
 10
8.522631902254394
 20
-0.8129402853910579
 10
8.522503571839
 20
-0.812583051004407
 10
8.522421382696557
 20
-0.8121984202369308
 10
8.522393986315754
 20
-0.8118044170233968
 97
        0
 92
        3
 72
     0
 73
     1
 93
       75
 10
8.530719962732142
 20
-0.8116212938463759
 10
8.53093985473604
 20
-0.8126472162120949
 10
8.531113965945679
 20
-0.813123408568077
 10
8.531315473536136
 20
-0.813563192575873
 10
8.53156276192085
 20
-0.8139662077567809
 10
8.531846819132436
 20
-0.8143324541108119
 10
8.532515507111505
 20
-0.814955361295619
 10
8.532909149846345
 20
-0.815202649680328
 10
8.533339561408074
 20
-0.8154135297168539
 10
8.53380674179667
 20
-0.8155782684804289
 10
8.534310691012164
 20
-0.815697586928449
 10
8.535437186933759
 20
-0.8157981604843279
 10
8.53638092015704
 20
-0.815743367722696
 10
8.537195962486235
 20
-0.8155598840669859
 10
8.537553196872905
 20
-0.8154135297168539
 10
8.537864650465304
 20
-0.8152304065398329
 10
8.538139335230829
 20
-0.815001142089877
 10
8.53835922723473
 20
-0.8147264573243519
 10
8.53835922723473
 20
-0.8155234757188049
 10
8.540493621587299
 20
-0.8155234757188049
 10
8.540493621587299
 20
-0.8099360559476588
 10
8.535968532530067
 20
-0.8099360559476588
 10
8.535968532530067
 20
-0.8118044170233968
 10
8.538093554436571
 20
-0.8118044170233968
 10
8.538038761674947
 20
-0.8122625854446288
 10
8.537873662432677
 20
-0.8126562281794688
 10
8.537635746494027
 20
-0.8129770542179389
 10
8.537333304869007
 20
-0.8132333545700279
 10
8.536994454895787
 20
-0.8134258501931039
 10
8.536637220509135
 20
-0.813563192575873
 10
8.535968532530067
 20
-0.813664126610445
 10
8.535318228964439
 20
-0.8136089733701228
 10
8.534768498954698
 20
-0.8134258501931039
 10
8.534301679044795
 20
-0.8131417929815159
 10
8.533935072212069
 20
-0.8127661741814208
 10
8.533660387446544
 20
-0.8122989937928098
 10
8.53345887985608
 20
-0.8117586362291398
 10
8.533339561408074
 20
-0.8111451014903939
 10
8.533303153059881
 20
-0.8104764135113379
 10
8.53335794582151
 20
-0.8096336143226289
 10
8.533495288204271
 20
-0.8089191455493199
 10
8.533724552654247
 20
-0.8083239952240149
 10
8.53403600624664
 20
-0.8078474423893349
 10
8.534420637014112
 20
-0.8074811960353089
 10
8.534878444956648
 20
-0.8072155232371568
 10
8.535391406139505
 20
-0.8070597964409549
 10
8.535968532530067
 20
-0.8070140156466948
 10
8.536710397684194
 20
-0.8071055772352008
 10
8.537049608136114
 20
-0.8072245352045359
 10
8.537360701249819
 20
-0.8073802620007299
 10
8.537910431259556
 20
-0.8078016615950838
 10
8.53835922723473
 20
-0.8083420191587569
 10
8.540493621587299
 20
-0.8075453612430029
 10
8.540062849546885
 20
-0.8068950576773799
 10
8.539586657190899
 20
-0.8063453276676348
 10
8.539064684040666
 20
-0.8058871592464039
 10
8.53849656961748
 20
-0.8055209128923739
 10
8.537873662432677
 20
-0.8052368556807888
 10
8.537195962486235
 20
-0.8050353480903288
 10
8.53647248174556
 20
-0.8049254020883749
 10
8.535702859731918
 20
-0.8048889937401909
 10
8.535070940579732
 20
-0.8049163901210069
 10
8.534493814189176
 20
-0.8049989397421469
 10
8.533953456625506
 20
-0.8051269096788349
 10
8.533449507410015
 20
-0.8053103933345389
 10
8.532991699467475
 20
-0.8055392973058169
 10
8.532579311840498
 20
-0.8058139820713349
 10
8.5322040535191
 20
-0.806125435663747
 10
8.53187421551326
 20
-0.8064826700503979
 10
8.531581146334288
 20
-0.8068766732639379
 10
8.531333857949573
 20
-0.8072980728582878
 10
8.531122977913052
 20
-0.8077648927682058
 10
8.53094886670341
 20
-0.8082504575702509
 10
8.530719962732142
 20
-0.8093131487628519
 10
8.530646785557074
 20
-0.8104764135113379
 97
        0
 92
       18
 72
     0
 73
     1
 93
       19
 10
8.45747862245722
 20
-0.7918454326434838
 10
8.45831204919986
 20
-0.7919186098185449
 10
8.45902651797318
 20
-0.7921385018224458
 10
8.45962202877718
 20
-0.7924773517956638
 10
8.460107593579226
 20
-0.792944532184272
 10
8.460473839933256
 20
-0.7935216585748199
 10
8.46073014028533
 20
-0.7942087309673299
 10
8.460885867081535
 20
-0.7949779925022669
 10
8.460931647875794
 20
-0.7958391761044169
 10
8.460885867081535
 20
-0.7966999992278619
 10
8.46073014028533
 20
-0.7974696212415109
 10
8.460473839933256
 20
-0.7981563331553189
 10
8.460107593579226
 20
-0.7987334595458668
 10
8.45962202877718
 20
-0.7992006399344739
 10
8.45902651797318
 20
-0.7995394899076929
 10
8.45831204919986
 20
-0.7997593819115858
 10
8.45747862245722
 20
-0.799832559086655
 10
8.455078555306503
 20
-0.799832559086655
 10
8.455078555306503
 20
-0.7918454326434838
 97
        0
 75
     0
 76
     1
 98
        0
  0
HATCH
  5
7E
330
1F
100
AcDbEntity
  8
XR$1$TB_712_1
  6
AUSGEZOGEN
 62
    18
420
        0
440
 33554687
370
    35
100
AcDbHatch
 10
0.0
 20
0.0
 30
0.0
210
0.0
220
0.0
230
1.0
  2
SOLID
 70
     1
 71
     0
 91
       20
 92
        3
 72
     0
 73
     1
 93
        8
 10
8.586787016545346
 20
-0.7907827414508829
 10
8.576940180515114
 20
-0.8155234757188049
 10
8.579330875219771
 20
-0.8155234757188049
 10
8.582261927488107
 20
-0.8080763463606109
 10
8.593171454710937
 20
-0.8080763463606109
 10
8.595827822213746
 20
-0.8155234757188049
 10
8.598493201683931
 20
-0.8155234757188049
 10
8.58891203845185
 20
-0.7907827414508829
 97
        0
 92
        3
 72
     0
 73
     1
 93
      116
 10
8.601415241984894
 20
-0.8032859449839119
 10
8.601451650333079
 20
-0.8023331997932619
 10
8.601543211921587
 20
-0.8013714426352379
 10
8.601698938717785
 20
-0.8004006735098339
 10
8.601928203167747
 20
-0.7994479283191809
 10
8.602221272346712
 20
-0.7985229399880369
 10
8.602578506733371
 20
-0.7976159755916379
 10
8.603008918295098
 20
-0.7967551524681838
 10
8.603512867510592
 20
-0.7959397496602939
 10
8.604089633422442
 20
-0.7951888725387999
 10
8.604730925020693
 20
-0.7945018001462938
 10
8.605445393794001
 20
-0.793887904928859
 10
8.606242412188465
 20
-0.7933749437459988
 10
8.607112607757983
 20
-0.7929539046303399
 10
8.608064992469943
 20
-0.7926424510379348
 10
8.609090914835658
 20
-0.7924499554148509
 10
8.610199386822519
 20
-0.7923767782397829
 10
8.611518378367197
 20
-0.7924589673822249
 10
8.61270002752912
 20
-0.7926882318321908
 10
8.613240385092798
 20
-0.7928619825631319
 10
8.613743973829594
 20
-0.7930818745670328
 10
8.614211154218193
 20
-0.7933385353978079
 10
8.61465093822599
 20
-0.7936406165441439
 10
8.61543858417438
 20
-0.7943824816982739
 10
8.61610727215343
 20
-0.7952984580620449
 10
8.616666014130551
 20
-0.7964069300488988
 10
8.617114810105715
 20
-0.7976985252127718
 10
8.619505504810371
 20
-0.7963701612220209
 10
8.61876363965625
 20
-0.7949596080888278
 10
8.61790281653279
 20
-0.7937321781326538
 10
8.616941059374767
 20
-0.7926788593861158
 10
8.616409713778463
 20
-0.7922210514435789
 10
8.615850971801345
 20
-0.7918180362626629
 10
8.615264833443431
 20
-0.7914514294299408
 10
8.61464192625861
 20
-0.7911399758375449
 10
8.613982250246922
 20
-0.7908652910720119
 10
8.61329517785442
 20
-0.7906453990681178
 10
8.611820459513536
 20
-0.7903523298891558
 10
8.610199386822519
 20
-0.7902517563332749
 10
8.608797845656692
 20
-0.7903249335083419
 10
8.607506250492825
 20
-0.7905354530661679
 10
8.606297204950087
 20
-0.7908836754854549
 10
8.605198105409306
 20
-0.7913508558740608
 10
8.604190567457023
 20
-0.7919369942319919
 10
8.603274591093246
 20
-0.7926240666244919
 10
8.602450176317987
 20
-0.7934027006055038
 10
8.601717323131226
 20
-0.7942728961750218
 10
8.601076031532973
 20
-0.7952252808869819
 10
8.600526662001933
 20
-0.7962421912853308
 10
8.600059481613323
 20
-0.7973138944453039
 10
8.599683862813228
 20
-0.7984497628129679
 10
8.599390793634273
 20
-0.7996130275614519
 10
8.599189286043806
 20
-0.8008220731041948
 10
8.599060955628426
 20
-0.8020495030603708
 10
8.599024547280232
 20
-0.8032859449839119
 10
8.599060955628426
 20
-0.8046233209420388
 10
8.599189286043806
 20
-0.8059149161059068
 10
8.599390793634273
 20
-0.8071603699968358
 10
8.599674850845847
 20
-0.8083604035721978
 10
8.60004109719988
 20
-0.8094962719398678
 10
8.600499265621119
 20
-0.8105679750998439
 10
8.601030250738717
 20
-0.8115755130521188
 10
8.601653157923534
 20
-0.8125005013832709
 10
8.60234924228341
 20
-0.8133433005719779
 10
8.603137248710482
 20
-0.8140945381721718
 10
8.604016456247377
 20
-0.8147448417377958
 10
8.604969201438028
 20
-0.8153035837149039
 10
8.606013147738492
 20
-0.8157339952766339
 10
8.607149016106167
 20
-0.8160638332824749
 10
8.608358061648902
 20
-0.8162563289055599
 10
8.609668041226222
 20
-0.8163295060806268
 10
8.610767140767006
 20
-0.8162653408729309
 10
8.611875612753858
 20
-0.8160728452498509
 10
8.612956327881205
 20
-0.8157523796900709
 10
8.61399162269299
 20
-0.8152945717475409
 10
8.614944007404949
 20
-0.8146990609435419
 10
8.615805191007102
 20
-0.8139662077567809
 10
8.616538044193858
 20
-0.8130960121872698
 10
8.616840125340197
 20
-0.8126014354178439
 10
8.617114810105715
 20
-0.8120700898215439
 10
8.617114810105715
 20
-0.8155234757188049
 10
8.61923983201223
 20
-0.8155234757188049
 10
8.61923983201223
 20
-0.8027545993876158
 10
8.608064992469943
 20
-0.8027545993876158
 10
8.608064992469943
 20
-0.8048889937401909
 10
8.617114810105715
 20
-0.8048889937401909
 10
8.617114810105715
 20
-0.8062169972522458
 10
8.617014236549837
 20
-0.8075543732103758
 10
8.616702782957429
 20
-0.8089191455493199
 10
8.616455494572717
 20
-0.809596845495749
 10
8.616162425393759
 20
-0.8102565215074389
 10
8.615805191007102
 20
-0.8108978131056859
 10
8.615383791412746
 20
-0.8115023358770519
 10
8.614907599056762
 20
-0.8120700898215439
 10
8.614357869047028
 20
-0.812583051004407
 10
8.613753346275654
 20
-0.8130412194256388
 10
8.613075646329223
 20
-0.8134348621604799
 10
8.612333420696396
 20
-0.8137556881989509
 10
8.611509005921128
 20
-0.8139936041375999
 10
8.610629798384238
 20
-0.8141493309337968
 10
8.609668041226222
 20
-0.8141951117280508
 10
8.608605350033617
 20
-0.8141309465203589
 10
8.607634580908217
 20
-0.8139388113759689
 10
8.606727616511806
 20
-0.8136273577835639
 10
8.605903562215245
 20
-0.8132059581892148
 10
8.605161336582427
 20
-0.8126839850389769
 10
8.604483636635978
 20
-0.8120794622676079
 10
8.60387911386462
 20
-0.8113923898751089
 10
8.60334776826832
 20
-0.8106411522749128
 10
8.60288058787971
 20
-0.8098261099457119
 10
8.602486945144864
 20
-0.8089649263435639
 10
8.602147734692947
 20
-0.808058322425857
 10
8.601882422373492
 20
-0.8071239616486449
 10
8.601680914783046
 20
-0.8061712164580018
 10
8.601534199954214
 20
-0.8052094592999689
 10
8.601442638365697
 20
-0.8042477021419439
 97
        0
 92
        3
 72
     0
 73
     1
 93
       37
 10
8.622702229876857
 20
-0.8155234757188049
 10
8.625092924581521
 20
-0.8155234757188049
 10
8.625092924581521
 20
-0.8046233209420388
 10
8.630680704831358
 20
-0.8046233209420388
 10
8.638667831274525
 20
-0.8155234757188049
 10
8.641589871575496
 20
-0.8155234757188049
 10
8.63361175709969
 20
-0.8046233209420388
 10
8.635214805855961
 20
-0.8044218133515839
 10
8.635956671010096
 20
-0.8042477021419439
 10
8.636643382923904
 20
-0.8040278101380459
 10
8.637284674522151
 20
-0.803753125372521
 10
8.637870812880086
 20
-0.8034326598127439
 10
8.63841153092245
 20
-0.803066052980021
 10
8.638896735245796
 20
-0.802654025831736
 10
8.63933651925359
 20
-0.8021958574105029
 10
8.639712138053692
 20
-0.8016922686737089
 10
8.640041976059539
 20
-0.8011425386639659
 10
8.640307288378994
 20
-0.8005380158925979
 10
8.640518168415515
 20
-0.7998967242943579
 10
8.640673895211716
 20
-0.7992100123805409
 10
8.640765456800223
 20
-0.7984771591937839
 10
8.640792853181033
 20
-0.7976985252127718
 10
8.640692279625153
 20
-0.7964069300488988
 10
8.640380826032754
 20
-0.7951611156792859
 10
8.640142549615419
 20
-0.7945659653539809
 10
8.639858492403823
 20
-0.7939888389634319
 10
8.639501258017168
 20
-0.7934484813997589
 10
8.639098242836258
 20
-0.792944532184272
 10
8.638631062447654
 20
-0.7924773517956638
 10
8.638109089297414
 20
-0.7920653246473779
 10
8.63751357849342
 20
-0.7916897058472768
 10
8.636863274927796
 20
-0.7913782522548769
 10
8.63614880615448
 20
-0.7911219519027909
 10
8.635370172173472
 20
-0.7909384682470828
 10
8.634527733463466
 20
-0.7908195102777639
 10
8.63361175709969
 20
-0.7907827414508829
 10
8.622702229876857
 20
-0.7907827414508829
 97
        0
 92
        3
 72
     0
 73
     1
 93
       64
 10
8.64255162873352
 20
-0.8057591893097159
 10
8.642762148291341
 20
-0.8069588624063779
 10
8.643046205502943
 20
-0.8081314996009309
 10
8.64342182430303
 20
-0.8092579955225279
 10
8.643879632245572
 20
-0.810339071128574
 10
8.644420350287943
 20
-0.8113556210482289
 10
8.64505226944012
 20
-0.8122989937928098
 10
8.645766738213439
 20
-0.8131691893623278
 10
8.646572768575265
 20
-0.8139571957894088
 10
8.647470360525594
 20
-0.8146439077032169
 10
8.648450502097065
 20
-0.8152210340937709
 10
8.64953121722442
 20
-0.8156882144823788
 10
8.650694481972893
 20
-0.8160364369016608
 10
8.651949668788577
 20
-0.8162563289055599
 10
8.653286323789315
 20
-0.8163295060806268
 10
8.654596303366624
 20
-0.8162563289055599
 10
8.655814721355426
 20
-0.8160364369016608
 10
8.656941217277032
 20
-0.8156882144823788
 10
8.657985524056189
 20
-0.8152210340937709
 10
8.658937908768156
 20
-0.8146439077032169
 10
8.659817476783735
 20
-0.8139571957894088
 10
8.660605122732122
 20
-0.8131691893623278
 10
8.661301207091999
 20
-0.8122989937928098
 10
8.661924114276797
 20
-0.8113556210482289
 10
8.662455459873108
 20
-0.810339071128574
 10
8.662913267815647
 20
-0.8092579955225279
 10
8.66327987464837
 20
-0.8081314996009309
 10
8.663563571381266
 20
-0.8069588624063779
 10
8.663774451417787
 20
-0.8057591893097159
 10
8.663893409387107
 20
-0.8045317593535399
 10
8.663930178213988
 20
-0.8032859449839119
 10
8.663893409387107
 20
-0.8020495030603708
 10
8.663774451417787
 20
-0.8008220731041948
 10
8.663563571381266
 20
-0.7996130275614519
 10
8.66327987464837
 20
-0.7984497628129679
 10
8.662913267815647
 20
-0.7973138944453039
 10
8.662455459873108
 20
-0.7962421912853308
 10
8.661924114276797
 20
-0.7952252808869819
 10
8.661301207091999
 20
-0.7942728961750218
 10
8.660605122732122
 20
-0.7934027006055038
 10
8.659817476783735
 20
-0.7926240666244919
 10
8.658937908768156
 20
-0.7919369942319919
 10
8.657985524056189
 20
-0.7913508558740608
 10
8.656941217277032
 20
-0.7908836754854549
 10
8.655814721355426
 20
-0.7905354530661679
 10
8.654596303366624
 20
-0.7903249335083419
 10
8.653286323789315
 20
-0.7902517563332749
 10
8.651949668788577
 20
-0.7903249335083419
 10
8.650694481972893
 20
-0.7905354530661679
 10
8.64953121722442
 20
-0.7908836754854549
 10
8.648450502097065
 20
-0.7913508558740608
 10
8.647470360525594
 20
-0.7919369942319919
 10
8.646572768575265
 20
-0.7926240666244919
 10
8.645766738213439
 20
-0.7934027006055038
 10
8.64505226944012
 20
-0.7942728961750218
 10
8.644420350287943
 20
-0.7952252808869819
 10
8.643879632245572
 20
-0.7962421912853308
 10
8.64342182430303
 20
-0.7973138944453039
 10
8.643046205502943
 20
-0.7984497628129679
 10
8.642762148291341
 20
-0.7996130275614519
 10
8.64255162873352
 20
-0.8008220731041948
 10
8.642432670764196
 20
-0.8020495030603708
 10
8.642395901937311
 20
-0.8032859449839119
 10
8.642432670764196
 20
-0.8045317593535399
 97
        0
 92
        3
 72
     0
 73
     1
 93
       57
 10
8.677770397226457
 20
-0.8155234757188049
 10
8.678777935178736
 20
-0.8154867068919228
 10
8.67971229595595
 20
-0.8153861333360438
 10
8.68058249152547
 20
-0.8152120221263979
 10
8.681370497952557
 20
-0.8149737457090598
 10
8.682093978693237
 20
-0.8146806765300969
 10
8.682753294226236
 20
-0.8143324541108119
 10
8.683339793062853
 20
-0.8139388113759689
 10
8.68385275424572
 20
-0.8134990273681779
 10
8.684310562188257
 20
-0.8130134625661299
 10
8.684695192955733
 20
-0.8125005013832709
 10
8.685025030961572
 20
-0.8119511318522199
 10
8.68529070375973
 20
-0.8113740054616699
 10
8.685492211350178
 20
-0.8107784946576719
 10
8.685638926179006
 20
-0.8101559479515579
 10
8.685721115321442
 20
-0.8095236683206839
 10
8.685748511702267
 20
-0.8088733647550619
 10
8.685675334527193
 20
-0.8076185384180679
 10
8.685446430555924
 20
-0.8064552736695879
 10
8.685263307378914
 20
-0.8059055436598409
 10
8.68505242734238
 20
-0.805392582476981
 10
8.684786754544232
 20
-0.8049073781536349
 10
8.684484673397899
 20
-0.8044492097323999
 10
8.684136450978619
 20
-0.8040371825841158
 10
8.683751820211146
 20
-0.8036521913379508
 10
8.683312036203349
 20
-0.8033043293973569
 10
8.68283584384737
 20
-0.803001887772323
 10
8.682304498251062
 20
-0.8027362149741779
 10
8.68172737186051
 20
-0.8025256954163409
 10
8.681104825154401
 20
-0.8023515842067079
 10
8.680426764729265
 20
-0.8022232537913109
 10
8.681544248683494
 20
-0.801966953439231
 10
8.68202981348554
 20
-0.8017838302622129
 10
8.682478609460707
 20
-0.8015729502256869
 10
8.68326625540909
 20
-0.801069361488902
 10
8.683889162593903
 20
-0.80042806989065
 10
8.684365715428573
 20
-0.7996678203230798
 10
8.684548838605592
 20
-0.7992374087613529
 10
8.684695192955733
 20
-0.7987792403401248
 10
8.684887688578817
 20
-0.7977717023878409
 10
8.684951853786508
 20
-0.7966358340201708
 10
8.684906072992254
 20
-0.7960039148679918
 10
8.68472294981524
 20
-0.7951611156792859
 10
8.684567223019032
 20
-0.7946939352906769
 10
8.68434733101513
 20
-0.7941993585212549
 10
8.684072285770922
 20
-0.7937047817518409
 10
8.683724423830322
 20
-0.7932102049824168
 10
8.683294012268602
 20
-0.7927340126264388
 10
8.682781051085742
 20
-0.7922852166512708
 10
8.682176528314379
 20
-0.7918728290242939
 10
8.68147107150843
 20
-0.7915155946376359
 10
8.680656029179238
 20
-0.7912135134912969
 10
8.679730680369394
 20
-0.7909842490413319
 10
8.67868637359023
 20
-0.7908378946912048
 10
8.677504724428312
 20
-0.7907827414508829
 10
8.666861230482326
 20
-0.7907827414508829
 10
8.666861230482326
 20
-0.8155234757188049
 97
        0
 92
        3
 72
     0
 73
     1
 93
       56
 10
8.693735998624131
 20
-0.8155234757188049
 10
8.704910838166413
 20
-0.8155234757188049
 10
8.707173202455689
 20
-0.8154409260976698
 10
8.708208497267481
 20
-0.8153219681283439
 10
8.709179266392864
 20
-0.8151568688860789
 10
8.710076858343204
 20
-0.8149373373608759
 10
8.710910645564539
 20
-0.8146716645627219
 10
8.711670895132105
 20
-0.8143508385242528
 10
8.712357967524607
 20
-0.8139662077567809
 10
8.712971502263354
 20
-0.8135264237489899
 10
8.713502847859655
 20
-0.8130228350121939
 10
8.713960655802191
 20
-0.8124547205890119
 10
8.71433627460229
 20
-0.8118228014368288
 10
8.714629343781253
 20
-0.8111267170769548
 10
8.714840223817784
 20
-0.8103574555420109
 10
8.714977566200542
 20
-0.8095236683206839
 10
8.715013974548722
 20
-0.808607691956906
 10
8.714986578167911
 20
-0.8079390039778459
 10
8.714895016579405
 20
-0.8073070848256608
 10
8.714748662229264
 20
-0.8067299584351129
 10
8.714547154638819
 20
-0.8061986128388089
 10
8.714299505775413
 20
-0.8057134085154579
 10
8.714006436596442
 20
-0.8052736245076678
 10
8.71366758662323
 20
-0.8048796212941269
 10
8.713291967823126
 20
-0.8045223869074649
 10
8.712870568228773
 20
-0.8042019213476939
 10
8.712421772253617
 20
-0.8039272365821629
 10
8.71193656793026
 20
-0.8036889601648308
 10
8.711423606747397
 20
-0.8034874525743728
 10
8.710333519173982
 20
-0.8031850109493458
 10
8.709160881979427
 20
-0.8030202721857639
 10
8.709160881979427
 20
-0.8027545993876158
 10
8.710296750347101
 20
-0.8024157494143979
 10
8.711304288299383
 20
-0.8019943498200498
 10
8.712165471901528
 20
-0.8014813886371869
 10
8.71288895264221
 20
-0.8008584814523758
 10
8.713457067065395
 20
-0.8001259887443118
 10
8.713685971036666
 20
-0.7997229735634048
 10
8.71387846665975
 20
-0.7992738171095439
 10
8.714134767011839
 20
-0.7982940360167669
 10
8.71421731663297
 20
-0.7971671796164739
 10
8.714180547806096
 20
-0.7963521372872758
 10
8.714061589836769
 20
-0.7956008996870798
 10
8.713869094213686
 20
-0.7949048153272008
 10
8.713603421415533
 20
-0.7942635237289538
 10
8.713273943888383
 20
-0.7936863973384009
 10
8.712870568228773
 20
-0.7931644241881679
 10
8.712412760286236
 20
-0.7926972437995659
 10
8.71189078713601
 20
-0.7922852166512708
 10
8.711313660745446
 20
-0.7919186098185449
 10
8.710681741593271
 20
-0.791607156226142
 10
8.710003681168136
 20
-0.7913508558740608
 10
8.709280200427452
 20
-0.7911493482836068
 10
8.707704548051993
 20
-0.7908743030393869
 10
8.705973529359014
 20
-0.7907827414508829
 10
8.693735998624131
 20
-0.7907827414508829
 97
        0
 92
        3
 72
     0
 73
     1
 93
       58
 10
8.719273390807809
 20
-0.8070140156466948
 10
8.719337556015503
 20
-0.8082140492220679
 10
8.719520679192524
 20
-0.8093221607302259
 10
8.71982312081755
 20
-0.810339071128574
 10
8.72022613599847
 20
-0.8112734319057819
 10
8.720720712767886
 20
-0.8121252430618618
 10
8.72129783915844
 20
-0.8128854926294329
 10
8.721948142724065
 20
-0.813563192575873
 10
8.722662611497377
 20
-0.8141677153472339
 10
8.723441245478389
 20
-0.8146896884974739
 10
8.724265660253652
 20
-0.8151294725052649
 10
8.725117471409721
 20
-0.8155050913053669
 10
8.726005690913993
 20
-0.8158071724516939
 10
8.7269126553104
 20
-0.8160364369016608
 10
8.727828631674173
 20
-0.816201175665239
 10
8.72874460803794
 20
-0.816292737253745
 10
8.72965157243434
 20
-0.8163295060806268
 10
8.730558176352043
 20
-0.816292737253745
 10
8.731474152715819
 20
-0.816201175665239
 10
8.732390129079588
 20
-0.8160364369016608
 10
8.73328772102992
 20
-0.8158071724516939
 10
8.734176301012878
 20
-0.8155050913053669
 10
8.73503748461503
 20
-0.8151294725052649
 10
8.7358618993903
 20
-0.8146896884974739
 10
8.73663116092523
 20
-0.8141677153472339
 10
8.737354641665927
 20
-0.813563192575873
 10
8.738005305710246
 20
-0.8128854926294329
 10
8.7385820716221
 20
-0.8121252430618618
 10
8.739077008870213
 20
-0.8112734319057819
 10
8.73948002405113
 20
-0.810339071128574
 10
8.739782105197468
 20
-0.8093221607302259
 10
8.73996522837448
 20
-0.8082140492220679
 10
8.740029393582173
 20
-0.8070140156466948
 10
8.740029393582173
 20
-0.7907827414508829
 10
8.733910628214733
 20
-0.7907827414508829
 10
8.733910628214733
 20
-0.8064826700503979
 10
8.733855835453102
 20
-0.8074537996544899
 10
8.733690736210836
 20
-0.8083513916048289
 10
8.73340703947793
 20
-0.809166433934026
 10
8.732976267437516
 20
-0.8098718907399719
 10
8.732399501525656
 20
-0.8104580290978919
 10
8.732051279106367
 20
-0.8106963055152279
 10
8.731666648338905
 20
-0.8108978131056859
 10
8.731226864331111
 20
-0.8110535399018879
 10
8.730750671975125
 20
-0.8111724978712118
 10
8.72965157243434
 20
-0.8112734319057819
 10
8.728552112414858
 20
-0.8111724978712118
 10
8.728075920058872
 20
-0.8110535399018879
 10
8.727636136051085
 20
-0.8108978131056859
 10
8.72725150528361
 20
-0.8106963055152279
 10
8.726903643343016
 20
-0.8104580290978919
 10
8.726326516952467
 20
-0.8098718907399719
 10
8.725896105390747
 20
-0.809166433934026
 10
8.725612048179148
 20
-0.8083513916048289
 10
8.72544694893689
 20
-0.8074537996544899
 10
8.725392156175259
 20
-0.8064826700503979
 10
8.725392156175259
 20
-0.7907827414508829
 10
8.719273390807809
 20
-0.7907827414508829
 97
        0
 92
        3
 72
     0
 73
     1
 93
      105
 10
8.750407575208705
 20
-0.8032859449839119
 10
8.750434971589518
 20
-0.8022784070316359
 10
8.750526533178018
 20
-0.8013440462544279
 10
8.75067324800685
 20
-0.8004738506849098
 10
8.750874755597307
 20
-0.7996862047365209
 10
8.75112204398202
 20
-0.7989623635171369
 10
8.751424125128361
 20
-0.7983120599515199
 10
8.751772347547645
 20
-0.7977259215935919
 10
8.75216599028249
 20
-0.797203948443352
 10
8.752596762322915
 20
-0.7967457800221199
 10
8.753063942711513
 20
-0.7963611492546459
 10
8.7535675314483
 20
-0.7960313112487999
 10
8.75410788901198
 20
-0.7957656384506518
 10
8.754676003435161
 20
-0.795564130860193
 10
8.75527115376047
 20
-0.7954177765100648
 10
8.755885048977897
 20
-0.7953352268889279
 10
8.756526340576144
 20
-0.7953078305081109
 10
8.757322998491901
 20
-0.7953810076831849
 10
8.758101632472917
 20
-0.7955918877197108
 10
8.758843497627037
 20
-0.7959213652468549
 10
8.759548954432987
 20
-0.7963701612220209
 10
8.76019024603123
 20
-0.7969198912317619
 10
8.760748988008352
 20
-0.797551810383949
 10
8.761215807918255
 20
-0.7982572671898849
 10
8.761582414750984
 20
-0.7990359011708968
 10
8.766629476958464
 20
-0.7966358340201708
 10
8.765695116181247
 20
-0.7952162689196028
 10
8.764678205782893
 20
-0.7939520701365469
 10
8.763560721828672
 20
-0.7928619825631319
 10
8.76296557150337
 20
-0.7923857902071519
 10
8.76234266431856
 20
-0.7919460061993628
 10
8.761692360752935
 20
-0.7915613754318909
 10
8.761014300327803
 20
-0.7912225254586699
 10
8.760299831554484
 20
-0.7909294562797079
 10
8.759557966400367
 20
-0.7906911798623698
 10
8.758788704865411
 20
-0.7904990447179839
 10
8.757982674503586
 20
-0.7903613418565238
 10
8.757139875314893
 20
-0.7902791527140819
 10
8.756260667778
 20
-0.7902517563332749
 10
8.754850114644803
 20
-0.7903249335083419
 10
8.75353076262142
 20
-0.7905264410987969
 10
8.752285308730505
 20
-0.7908652910720119
 10
8.751131055949394
 20
-0.791314087047176
 10
8.750059352789423
 20
-0.7918822014703619
 10
8.749079211217952
 20
-0.7925505289707309
 10
8.748181619267616
 20
-0.7933201509843639
 10
8.747375588905786
 20
-0.7941719621404438
 10
8.74666112013247
 20
-0.7951153348850348
 10
8.746038212947667
 20
-0.796122872837313
 10
8.745506867351367
 20
-0.797203948443352
 10
8.745067443822274
 20
-0.7983304443649579
 10
8.74472823337036
 20
-0.7995211054942539
 10
8.744480944985645
 20
-0.8007395234830549
 10
8.74433459063551
 20
-0.8020037222661118
 10
8.744279437395187
 20
-0.8032859449839119
 10
8.74433459063551
 20
-0.8045775401477858
 10
8.744490317431712
 20
-0.805832366484781
 10
8.744755990229867
 20
-0.8070597964409549
 10
8.745113224616526
 20
-0.8082414456028779
 10
8.745580405005127
 20
-0.8093773139705479
 10
8.746139146982252
 20
-0.8104580290978919
 10
8.746789450547872
 20
-0.8114655670501719
 10
8.74754032766937
 20
-0.8123999278273909
 10
8.748392138825446
 20
-0.8132607509508339
 10
8.74932649960266
 20
-0.814021360997105
 10
8.750352421968378
 20
-0.8146990609435419
 10
8.751469905922608
 20
-0.8152578029206519
 10
8.752669939497974
 20
-0.8157156108631919
 10
8.753961534661846
 20
-0.8160454488690368
 10
8.755335318968152
 20
-0.8162563289055599
 10
8.756791652895606
 20
-0.8163295060806268
 10
8.757533878528426
 20
-0.8163021096998159
 10
8.758266371236488
 20
-0.8162195600786798
 10
8.759713693196561
 20
-0.8158897220728338
 10
8.760409777556442
 20
-0.8156518061341919
 10
8.761096849948943
 20
-0.8153583764765299
 10
8.761765537927998
 20
-0.8150195265033139
 10
8.76240682952625
 20
-0.8146258837684728
 10
8.763634259482435
 20
-0.8137189193720769
 10
8.764760755404033
 20
-0.812619819831287
 10
8.765759281388943
 20
-0.8113649934942948
 10
8.766217089331477
 20
-0.8106685486557228
 10
8.766629476958464
 20
-0.8099360559476588
 10
8.761848087549136
 20
-0.8075453612430029
 10
8.761389919127913
 20
-0.8083787879856369
 10
8.760831177150795
 20
-0.8090932567589568
 10
8.760199257998615
 20
-0.8096887675629529
 10
8.759512185606102
 20
-0.8101739718862989
 10
8.758807089278857
 20
-0.810540578719025
 10
8.758101632472917
 20
-0.8107968790711089
 10
8.757423932526475
 20
-0.8109526058673129
 10
8.756791652895606
 20
-0.8110077591076369
 10
8.755885048977897
 20
-0.8109526058673129
 10
8.755060634202634
 20
-0.8108152634845539
 10
8.7543187690485
 20
-0.8105863595132808
 10
8.753659093036815
 20
-0.8102839178882528
 10
8.753063942711513
 20
-0.8099082990881539
 10
8.75255098152865
 20
-0.8094778875264269
 10
8.752092813107419
 20
-0.8089833107570049
 10
8.75169880989388
 20
-0.8084429531933349
 10
8.751369332366732
 20
-0.8078658268027769
 10
8.751094287122513
 20
-0.8072522920640368
 10
8.750865383151242
 20
-0.8066110004657878
 10
8.750691271941596
 20
-0.8059513244541008
 10
8.750471740416398
 20
-0.8046139484959789
 97
        0
 92
        3
 72
     0
 73
     1
 93
       12
 10
8.770091874823091
 20
-0.8155234757188049
 10
8.776210640190532
 20
-0.8155234757188049
 10
8.776210640190532
 20
-0.8051546665383389
 10
8.785526130624461
 20
-0.8051546665383389
 10
8.785526130624461
 20
-0.8155234757188049
 10
8.791644535513205
 20
-0.8155234757188049
 10
8.791644535513205
 20
-0.7907827414508829
 10
8.785526130624461
 20
-0.7907827414508829
 10
8.785526130624461
 20
-0.799832559086655
 10
8.776210640190532
 20
-0.799832559086655
 10
8.776210640190532
 20
-0.7907827414508829
 10
8.770091874823091
 20
-0.7907827414508829
 97
        0
 92
        3
 72
     0
 73
     1
 93
        8
 10
8.807610136910888
 20
-0.7955735033062659
 10
8.813994575076471
 20
-0.7955735033062659
 10
8.813994575076471
 20
-0.7907827414508829
 10
8.794832248612321
 20
-0.7907827414508829
 10
8.794832248612321
 20
-0.7955735033062659
 10
8.801491371543438
 20
-0.7955735033062659
 10
8.801491371543438
 20
-0.8155234757188049
 10
8.807610136910888
 20
-0.8155234757188049
 97
        0
 92
        3
 72
     0
 73
     1
 93
        8
 10
8.812125853522048
 20
-0.8155234757188049
 10
8.818784976453168
 20
-0.8155234757188049
 10
8.82011334044391
 20
-0.8118044170233968
 10
8.829153785633626
 20
-0.8118044170233968
 10
8.830491161591748
 20
-0.8155234757188049
 10
8.837141272555492
 20
-0.8155234757188049
 10
8.827825782121574
 20
-0.7907827414508829
 10
8.82144134395598
 20
-0.7907827414508829
 97
        0
 92
        3
 72
     0
 73
     1
 93
        6
 10
8.839797640058302
 20
-0.8155234757188049
 10
8.855762880977283
 20
-0.8155234757188049
 10
8.855762880977283
 20
-0.8104764135113379
 10
8.846182078223901
 20
-0.8104764135113379
 10
8.846182078223901
 20
-0.7907827414508829
 10
8.839797640058302
 20
-0.7907827414508829
 97
        0
 92
       18
 72
     0
 73
     1
 93
        3
 10
8.587849347259256
 20
-0.793979466517369
 10
8.592374436316481
 20
-0.8062169972522458
 10
8.583058945882556
 20
-0.8062169972522458
 97
        0
 92
       18
 72
     0
 73
     1
 93
       29
 10
8.63281473870524
 20
-0.7931828086016048
 10
8.63428945704612
 20
-0.7932559857766738
 10
8.63552589896967
 20
-0.7934758777805648
 10
8.63605724456597
 20
-0.7936406165441439
 10
8.636533797400647
 20
-0.7938421241345969
 10
8.636964208962373
 20
-0.7940713885845669
 10
8.637339827762473
 20
-0.7943460733500909
 10
8.63766029332225
 20
-0.7946481544964189
 10
8.637934978087767
 20
-0.7949873649483419
 10
8.638164242537735
 20
-0.7953536113023689
 10
8.638347365714752
 20
-0.7957566264832768
 10
8.638585281653398
 20
-0.7966635908796779
 10
8.638667831274525
 20
-0.7976985252127718
 10
8.63860366606684
 20
-0.7985961171631059
 10
8.63838377406294
 20
-0.7994573007652519
 10
8.638210023331991
 20
-0.7998693279135389
 10
8.637990131328097
 20
-0.800272343094446
 10
8.637724458529945
 20
-0.8006479618945489
 10
8.637403992970166
 20
-0.8009961843138369
 10
8.637028374170077
 20
-0.8013166498736078
 10
8.63658859016227
 20
-0.801609719052572
 10
8.636084640946782
 20
-0.8018660194046529
 10
8.63552589896967
 20
-0.8020768994411769
 10
8.634893979817488
 20
-0.8022510106508229
 10
8.634188883490243
 20
-0.8023789805875169
 10
8.633400877063163
 20
-0.802461530208653
 10
8.632549065907082
 20
-0.8024889265894709
 10
8.625092924581521
 20
-0.8024889265894709
 10
8.625092924581521
 20
-0.7931828086016048
 97
        0
 92
       18
 72
     0
 73
     1
 93
       64
 10
8.644813993022785
 20
-0.8023331997932619
 10
8.644914927057366
 20
-0.8013714426352379
 10
8.645070653853567
 20
-0.8004006735098339
 10
8.645290545857462
 20
-0.7994479283191809
 10
8.645583615036427
 20
-0.7985229399880369
 10
8.645940849423088
 20
-0.7976159755916379
 10
8.64636188853874
 20
-0.7967551524681838
 10
8.646847453340783
 20
-0.7959397496602939
 10
8.6474061953179
 20
-0.7951888725387999
 10
8.648038474948782
 20
-0.7945018001462938
 10
8.64873455930865
 20
-0.793887904928859
 10
8.649503820843595
 20
-0.7933749437459988
 10
8.650337247586235
 20
-0.7929539046303399
 10
8.651253223950008
 20
-0.7926424510379348
 10
8.652233005042774
 20
-0.7924499554148509
 10
8.653286323789315
 20
-0.7923767782397829
 10
8.654349014981912
 20
-0.7924499554148509
 10
8.65532915655338
 20
-0.7926424510379348
 10
8.656226748503709
 20
-0.7929539046303399
 10
8.657051163278979
 20
-0.7933749437459988
 10
8.657793028433105
 20
-0.793887904928859
 10
8.658471088858235
 20
-0.7945018001462938
 10
8.659075611629607
 20
-0.7951888725387999
 10
8.659606596747217
 20
-0.7959397496602939
 10
8.660073777135814
 20
-0.7967551524681838
 10
8.660467780349354
 20
-0.7976159755916379
 10
8.660806630322572
 20
-0.7985229399880369
 10
8.661072303120731
 20
-0.7994479283191809
 10
8.661282822678553
 20
-0.8004006735098339
 10
8.66142052554001
 20
-0.8013714426352379
 10
8.661512087128518
 20
-0.8023331997932619
 10
8.661539483509332
 20
-0.8032859449839119
 10
8.661512087128518
 20
-0.8042477021419439
 10
8.66142052554001
 20
-0.8052094592999689
 10
8.661282822678553
 20
-0.8061712164580018
 10
8.661072303120731
 20
-0.8071239616486449
 10
8.660806630322572
 20
-0.808058322425857
 10
8.660467780349354
 20
-0.8089649263435639
 10
8.660073777135814
 20
-0.8098261099457119
 10
8.659606596747217
 20
-0.8106411522749128
 10
8.659075611629607
 20
-0.8113923898751089
 10
8.658471088858235
 20
-0.8120794622676079
 10
8.657793028433105
 20
-0.8126839850389769
 10
8.657051163278979
 20
-0.8132059581892148
 10
8.656226748503709
 20
-0.8136273577835639
 10
8.65532915655338
 20
-0.8139388113759689
 10
8.654349014981912
 20
-0.8141309465203589
 10
8.653286323789315
 20
-0.8141951117280508
 10
8.652233005042774
 20
-0.8141309465203589
 10
8.651253223950008
 20
-0.8139388113759689
 10
8.650337247586235
 20
-0.8136273577835639
 10
8.649503820843595
 20
-0.8132059581892148
 10
8.64873455930865
 20
-0.8126839850389769
 10
8.648038474948782
 20
-0.8120794622676079
 10
8.6474061953179
 20
-0.8113923898751089
 10
8.646847453340783
 20
-0.8106411522749128
 10
8.64636188853874
 20
-0.8098261099457119
 10
8.645940849423088
 20
-0.8089649263435639
 10
8.645583615036427
 20
-0.808058322425857
 10
8.645290545857462
 20
-0.8071239616486449
 10
8.645070653853567
 20
-0.8061712164580018
 10
8.644914927057366
 20
-0.8052094592999689
 10
8.644813993022785
 20
-0.8042477021419439
 10
8.644786596641975
 20
-0.8032859449839119
 97
        0
 92
       18
 72
     0
 73
     1
 93
       26
 10
8.676973739310695
 20
-0.7931828086016048
 10
8.67828335840932
 20
-0.7932192169497939
 10
8.679410214809614
 20
-0.7933569198112529
 10
8.680371971967649
 20
-0.7935948357498889
 10
8.680793371562002
 20
-0.7937689469595349
 10
8.681159617916027
 20
-0.793979466517369
 10
8.681489455921874
 20
-0.7942177429347049
 10
8.681773513133455
 20
-0.7945018001462938
 10
8.682011429072103
 20
-0.7948316381521359
 10
8.682203924695182
 20
-0.7951978845061659
 10
8.682359651491389
 20
-0.7956192841005139
 10
8.682469597493347
 20
-0.7960770920430569
 10
8.682561159081851
 20
-0.7971671796164739
 10
8.682460225047267
 20
-0.7981199248071258
 10
8.68234126707795
 20
-0.7985503363688509
 10
8.682167155868301
 20
-0.7989533515497589
 10
8.681956636310476
 20
-0.799337982317233
 10
8.681699975479697
 20
-0.7996862047365209
 10
8.681059044360147
 20
-0.8002997394752689
 10
8.680262025965687
 20
-0.8007853042773129
 10
8.67979484557709
 20
-0.8009777999003959
 10
8.67930026880766
 20
-0.8011335266965959
 10
8.67820116926688
 20
-0.8013530582218009
 10
8.676973739310695
 20
-0.8014265958755599
 10
8.669251925186979
 20
-0.8014265958755599
 10
8.669251925186979
 20
-0.7931828086016048
 97
        0
 92
       18
 72
     0
 73
     1
 93
       28
 10
8.676973739310695
 20
-0.8035516177820718
 10
8.678466842065035
 20
-0.8036521913379508
 10
8.679767449196275
 20
-0.8039362485495399
 10
8.680335203140755
 20
-0.804147128586064
 10
8.680857536769691
 20
-0.8043944169707739
 10
8.681333729125672
 20
-0.804687486149734
 10
8.681755128720019
 20
-0.8050169636768859
 10
8.682130747520114
 20
-0.8053835705096128
 10
8.682460225047267
 20
-0.8057865856905259
 10
8.682735270291486
 20
-0.8062263696983228
 10
8.68295480181669
 20
-0.8066935500869219
 10
8.683128913026335
 20
-0.8071971388237179
 10
8.683257243441723
 20
-0.8077284844200149
 10
8.683357816997596
 20
-0.8088733647550619
 10
8.683275627855165
 20
-0.8096793951168859
 10
8.683046723883894
 20
-0.8104764135113379
 10
8.68264334822428
 20
-0.8112456750462809
 10
8.682057209866358
 20
-0.8119327474387789
 10
8.681699975479697
 20
-0.8122442010311859
 10
8.681287948331418
 20
-0.8125282582427749
 10
8.680829779910185
 20
-0.8127755466274879
 10
8.68032619117339
 20
-0.8129954386313818
 10
8.679767449196275
 20
-0.8131601773949569
 10
8.679153553978846
 20
-0.8132885078103428
 10
8.678484865999774
 20
-0.813370696952781
 10
8.677770397226457
 20
-0.8133984538122969
 10
8.669251925186979
 20
-0.8133984538122969
 10
8.669251925186979
 20
-0.8035516177820718
 97
        0
 92
       18
 72
     0
 73
     1
 93
       19
 10
8.704910838166413
 20
-0.7955735033062659
 10
8.705579526145478
 20
-0.7956008996870798
 10
8.706193421362913
 20
-0.7956834493082129
 10
8.706733778926587
 20
-0.7958391761044169
 10
8.707200959315193
 20
-0.796068080075682
 10
8.707576578115296
 20
-0.7963885456354618
 10
8.707860274848194
 20
-0.7968099452298159
 10
8.708034386057836
 20
-0.7973322788587469
 10
8.708098551265529
 20
-0.7979641980109239
 10
8.708034386057836
 20
-0.7986145015765429
 10
8.707860274848194
 20
-0.7991732435536609
 10
8.707576578115296
 20
-0.7996310514962008
 10
8.707200959315193
 20
-0.7999976583289279
 10
8.706733778926587
 20
-0.800281715540514
 10
8.706193421362913
 20
-0.8004738506849098
 10
8.705579526145478
 20
-0.8005928086542279
 10
8.704910838166413
 20
-0.8006295774811079
 10
8.69958909119343
 20
-0.8006295774811079
 10
8.69958909119343
 20
-0.7955735033062659
 97
        0
 92
       18
 72
     0
 73
     1
 93
       19
 10
8.705973529359014
 20
-0.8051546665383389
 10
8.706706382545773
 20
-0.8052004473325959
 10
8.70732892925188
 20
-0.8053468016827339
 10
8.707832878467372
 20
-0.8055850781000659
 10
8.708235893648284
 20
-0.8059149161059068
 10
8.708528962827248
 20
-0.806336315700266
 10
8.708739842863778
 20
-0.8068308924696829
 10
8.708858800833088
 20
-0.807417030827615
 10
8.708895569659973
 20
-0.8080763463606109
 10
8.708858800833088
 20
-0.808662845197226
 10
8.70872145845033
 20
-0.8092122147282789
 10
8.708474170065626
 20
-0.8097067914976979
 10
8.708098551265529
 20
-0.8101375635381168
 10
8.707576578115296
 20
-0.8105038098921489
 10
8.706880133276728
 20
-0.8107694826903008
 10
8.705991913772458
 20
-0.8109435938999389
 10
8.704910838166413
 20
-0.8110077591076369
 10
8.699854763991578
 20
-0.8110077591076369
 10
8.699854763991578
 20
-0.8051546665383389
 97
        0
 92
       18
 72
     0
 73
     1
 93
        3
 10
8.824638069022457
 20
-0.796901506818322
 10
8.827560109323418
 20
-0.8072796884448509
 10
8.82144134395598
 20
-0.8072796884448509
 97
        0
 75
     0
 76
     1
 98
        0
  0
HATCH
  5
80
102
{ACAD_REACTORS
330
7F
102
}
330
1F
100
AcDbEntity
  8
XR$1$TB_712_1
  6
AUSGEZOGEN
 62
     3
440
 33554687
370
    35
100
AcDbHatch
 10
0.0
 20
0.0
 30
0.0
210
0.0
220
0.0
230
1.0
  2
SOLID
 70
     1
 71
     0
 91
        1
 92
        3
 72
     0
 73
     1
 93
       22
 10
8.547940390466804
 20
-0.8157981604843279
 10
8.563108973470023
 20
-0.8157981604843279
 10
8.561826750752218
 20
-0.814955361295619
 10
8.560580936382605
 20
-0.8140393849318499
 10
8.559380902807233
 20
-0.8130318469795709
 10
8.558245034439558
 20
-0.8119327474387789
 10
8.55719171569304
 20
-0.8107420863094849
 10
8.556220946567635
 20
-0.8094321067321729
 10
8.555350750998121
 20
-0.8080125416316079
 10
8.554590501430546
 20
-0.8064826700503979
 10
8.554123321041942
 20
-0.805484144065496
 10
8.55372030586103
 20
-0.8044766061132178
 10
8.553372083441733
 20
-0.8034690681609319
 10
8.553079014262781
 20
-0.802461530208653
 10
8.552675999081869
 20
-0.800437081858028
 10
8.552492875904841
 20
-0.7984313783995309
 10
8.55252928425304
 20
-0.7964527108431558
 10
8.552758548703002
 20
-0.7945108121136599
 10
8.553179948297355
 20
-0.7926146941784249
 10
8.553463645030257
 20
-0.7916897058472768
 10
8.553793483036094
 20
-0.7907827414508829
 10
8.547940390466804
 20
-0.7907827414508829
 97
        0
 75
     0
 76
     1
 98
        0
  0
HATCH
  5
81
102
{ACAD_REACTORS
330
7F
102
}
330
1F
100
AcDbEntity
  8
XR$1$TB_712_1
  6
AUSGEZOGEN
 62
     3
440
 33554687
370
    35
100
AcDbHatch
 10
0.0
 20
0.0
 30
0.0
210
0.0
220
0.0
230
1.0
  2
SOLID
 70
     1
 71
     0
 91
        1
 92
        3
 72
     0
 73
     1
 93
       24
 10
8.560507759207528
 20
-0.8120794622676079
 10
8.561716804750263
 20
-0.8131969462218368
 10
8.563044808262326
 20
-0.8142044841741188
 10
8.564482757776336
 20
-0.8150653072975659
 10
8.566031013770987
 20
-0.8157981604843279
 10
8.57294643705419
 20
-0.8157981604843279
 10
8.57294643705419
 20
-0.7907827414508829
 10
8.559380902807233
 20
-0.7907827414508829
 10
8.558822160830122
 20
-0.7914240330491299
 10
8.558345968474146
 20
-0.7921475137898198
 10
8.55752155369888
 20
-0.7937141541979049
 10
8.557145934898784
 20
-0.7945108121136599
 10
8.556816096892938
 20
-0.7953262149215589
 10
8.55654141212742
 20
-0.7961412572507538
 10
8.556312508156141
 20
-0.7969656720260139
 10
8.555991682117666
 20
-0.7986145015765429
 10
8.555854339734905
 20
-0.8002633311270748
 10
8.555891108561791
 20
-0.8019121606776118
 10
8.556092616152243
 20
-0.8035242214012519
 10
8.556458862506279
 20
-0.8051088857440899
 10
8.556981196135203
 20
-0.8066474088139729
 10
8.557658896081644
 20
-0.8081221271548639
 10
8.55847429888953
 20
-0.8095330407667518
 10
8.559426683601487
 20
-0.8108520323114329
 97
        0
 75
     0
 76
     1
 98
        0
  0
MTEXT
  5
82
330
1F
100
AcDbEntity
  8
XR$1$TB_712_1
  6
AUSGEZOGEN
 62
     7
440
 33554687
370
    -3
100
AcDbMText
 10
8.452303
 20
-0.871784
 30
0.0
 40
0.009
 41
0.89646
 46
0.0
 71
     7
 72
     5
  1
\W0.85;THESE ARE NOT BINDING CONSTRUCTION PROPOSALS WHICH HAVE TO BE VERIFIED FOR EACH INDIVIDUAL PROJECT AS REGARDS APPLICABILITY AND CORRECTNESS.
  7
ARIAL
 73
     1
 44
1.0
  0
MTEXT
  5
83
330
1F
100
AcDbEntity
  8
XR$1$TB_712_1
  6
AUSGEZOGEN
 62
     7
440
 33554687
370
    -3
100
AcDbMText
 10
8.452303
 20
-0.853784
 30
0.0
 40
0.009
 41
0.8975
 46
0.0
 71
     7
 72
     5
  1
\W0.91;DIES SIND UNVERBINDLICHE KONSTRUKTIONSVORSCHLÄGE, DIE FÜR JEDES PROJEKT AUF ANWENDBARKEIT UND RICHTIGKEIT GEPRÜFT WERDEN MÜSSEN.
  7
ARIAL
 73
     1
 44
1.0
  0
MTEXT
  5
84
330
1F
100
AcDbEntity
  8
XR$1$TB_712_1
  6
AUSGEZOGEN
 62
     7
440
 33554687
370
    -3
100
AcDbMText
 10
8.452303
 20
-0.889784
 30
0.0
 40
0.009
 41
0.895804
 46
0.0
 71
     7
 72
     5
  1
\W0.80;IL S' AGIT DE PROPOSITIONS DE CONSTRUCTION SANS ENGAGEMENT DE NOTRE PART QUI DOIVENT ETRE VERIFIEES POUR CHAQUE PROJET A LEUR EXACTITUDE ET FAISABILITE.
  7
ARIAL
 73
     1
 44
1.0
  0
MTEXT
  5
85
330
1F
100
AcDbEntity
  8
XR$1$TB_712_1
  6
AUSGEZOGEN
 62
     7
440
 33554687
370
    -3
100
AcDbMText
 10
8.866963
 20
-0.815856
 30
0.0
 40
0.009
 41
0.348436
 46
0.0
 71
     7
 72
     5
  1
\W0.92;Tel. 09435 / 391 3238   e-mail: as.fassade@deutsche-steinzeug.de
  7
ARIAL
 73
     1
 44
1.0
  0
MTEXT
  5
86
330
1F
100
AcDbEntity
  8
XR$1$TB_712_1
  6
AUSGEZOGEN
 62
     7
440
 33554687
370
    -3
100
AcDbMText
 10
8.452703
 20
0.46717
 30
0.0
 40
0.025
 41
0.593348
 46
0.0
 71
     7
 72
     5
  1
\W1.00;FENSTERLEIBUNG MIT KERATWIN
  7
ARIAL
 73
     1
 44
1.0
  0
MTEXT
  5
87
330
1F
100
AcDbEntity
  8
XR$1$TB_712_1
  6
AUSGEZOGEN
 62
     7
440
 33554687
370
    -3
100
AcDbMText
 10
8.452703
 20
0.432159
 30
0.0
 40
0.0175
 41
0.579549
 46
0.0
 71
     7
 72
     5
  1
\W1.00;EMBRASURE OF THE WINDOW WITH KERATWIN
  7
ARIAL
 73
     1
 44
1.0
  0
MTEXT
  5
88
330
1F
100
AcDbEntity
  8
XR$1$TB_712_1
  6
AUSGEZOGEN
 62
     7
440
 33554687
370
    -3
100
AcDbMText
 10
8.452703
 20
0.405909
 30
0.0
 40
0.0175
 41
0.53552
 46
0.0
 71
     7
 72
     5
  1
\W1.00;EMBRASURE DE FENETRE AVEC KERATWIN
  7
ARIAL
 73
     1
 44
1.0
  0
LINE
  5
89
330
1F
100
AcDbEntity
  8
XR$1$TB_712_1
  6
AUSGEZOGEN
 62
     1
440
 33554687
370
    70
100
AcDbLine
 10
8.334536
 20
0.545808
 30
0.0
 11
8.334536
 21
-0.939177
 31
0.0
  0
LINE
  5
8A
330
1F
100
AcDbEntity
  8
XR$1$TB_712_1
  6
AUSGEZOGEN
 62
     1
440
 33554687
370
    70
100
AcDbLine
 10
9.384526
 20
-0.939177
 30
0.0
 11
9.384526
 21
0.545808
 31
0.0
  0
LINE
  5
8B
330
1F
100
AcDbEntity
  8
XR$1$TB_712_1
  6
AUSGEZOGEN
 62
     1
440
 33554687
370
    70
100
AcDbLine
 10
9.384526
 20
0.545808
 30
0.0
 11
8.334536
 21
0.545808
 31
0.0
  0
MTEXT
  5
8C
330
1F
100
AcDbEntity
  8
XR$1$TB_712_1
  6
AUSGEZOGEN
 62
     7
440
 33554687
370
    -3
100
AcDbMText
 10
8.452703
 20
0.355909
 30
0.0
 40
0.0225
 41
0.381035
 46
0.0
 71
     7
 72
     5
  1
\W1.00;KeraTwin   K20 - Klammer
  7
ARIAL
 73
     1
 44
1.0
  0
MTEXT
  5
8D
330
1F
100
AcDbEntity
  8
XR$1$TB_712_1
  6
AUSGEZOGEN
 62
     7
440
 33554687
370
    -3
100
AcDbMText
 10
8.585325
 20
0.369144
 30
0.0
 40
0.01
 41
0.024254
 46
0.0
 71
     7
 72
     5
  1
\A1;{\fArial|i0|b0;\H0.017500;\W0.911111;\C7;®}\P
  7
ARIAL
 73
     1
 44
1.0
  0
MTEXT
  5
8E
330
1F
100
AcDbEntity
  8
XR$1$TB_712_1
  6
AUSGEZOGEN
 62
     7
440
 33554687
370
    -3
100
AcDbMText
 10
8.866512
 20
-0.799614
 30
0.0
 40
0.009
 41
0.418059
 46
0.0
 71
     7
 72
     5
  1
\W1.00;AGROB BUCHTAL GmbH   Architektenservice   D - 92521 Schwarzenfeld
  7
ARIAL
 73
     1
 44
1.0
  0
LINE
  5
8F
330
1F
100
AcDbEntity
  8
XR$1$TB_712_1
  6
AUSGEZOGEN
 62
     1
440
 33554687
370
    70
100
AcDbLine
 10
8.334494
 20
-0.939163
 30
0.0
 11
9.384494
 21
-0.939163
 31
0.0
  0
HATCH
  5
91
330
1F
100
AcDbEntity
  8
XR$1$TB_712_1
  6
AUSGEZOGEN
 62
     7
440
 33554687
370
    -3
100
AcDbHatch
 10
0.0
 20
0.0
 30
0.0
210
0.0
220
0.0
230
1.0
  2
SCHRAFFUR_3
 70
     0
 71
     0
 91
        1
 92
        0
 93
        4
 72
     1
 10
8.47651463513797
 20
-0.218514651514163
 11
9.014012367843156
 21
-0.218514651514163
 72
     1
 10
9.014012367843156
 20
-0.218514651514163
 11
9.014012367843156
 21
0.080485347985826
 72
     1
 10
9.014012367843156
 20
0.080485347985826
 11
8.47651463513797
 21
0.080485347985826
 72
     1
 10
8.47651463513797
 20
0.080485347985826
 11
8.47651463513797
 21
-0.218514651514163
 97
        0
 75
     0
 76
     2
 52
315.0
 41
0.005
 77
     0
 78
     2
 53
44.99999999999999
 43
0.0
 44
0.0
 45
-0.0353553390593274
 46
0.0353553390593274
 79
     0
 53
44.99999999999999
 43
-0.0176776695296637
 44
0.0176776695296637
 45
-0.0353553390593274
 46
0.0353553390593274
 79
     0
 98
        0
1001
ACAD
1010
0.0
1020
0.0
1030
0.0
1001
NEM_ODX
1002
{
1000
BZM_DEPEND
1070
     1
1000
BZM_SCALE
1040
5.0
1000
SCHRAFFUR_3
1002
}
  0
HATCH
  5
92
330
1F
100
AcDbEntity
  8
XR$1$TB_712_1
  6
AUSGEZOGEN
 62
     9
440
 33554687
370
    -3
100
AcDbHatch
 10
0.0
 20
0.0
 30
0.0
210
0.0
220
0.0
230
1.0
  2
SOLID
 70
     1
 71
     0
 91
        1
 92
        3
 72
     0
 73
     1
 93
      180
 10
9.047012367843156
 20
-0.115514652014174
 10
9.046785521114591
 20
-0.115516174946624
 10
9.046558950763822
 20
-0.115520741888524
 10
9.046332932831916
 20
-0.115528347275744
 10
9.046107742686916
 20
-0.115538981842314
 10
9.045883654688321
 20
-0.115552632631634
 10
9.045660941852843
 20
-0.115569283012334
 10
9.04543987552176
 20
-0.115588912698484
 10
9.045220725030347
 20
-0.115611497774324
 10
9.04500375737972
 20
-0.115637010723434
 10
9.04478923691154
 20
-0.115665420462204
 10
9.044577424985954
 20
-0.115696692377754
 10
9.044368579663166
 20
-0.115730788370064
 10
9.044162955389027
 20
-0.115767666898424
 10
9.043960802685048
 20
-0.115807283032024
 10
9.043762367843156
 20
-0.115849588504704
 10
9.04356789262564
 20
-0.115894531773774
 10
9.043377613970598
 20
-0.115942058082784
 10
9.043191763703257
 20
-0.115992109528234
 10
9.043010568253539
 20
-0.116044625130154
 10
9.042834248380194
 20
-0.116099540906374
 10
9.042663018901825
 20
-0.116156789950474
 10
9.042497088435175
 20
-0.116216302513324
 10
9.042336659140958
 20
-0.116278006088024
 10
9.042181926477555
 20
-0.116341825498274
 10
9.042033078962882
 20
-0.116407682989954
 10
9.041890297944713
 20
-0.116475498325854
 10
9.04175375737972
 20
-0.116545188883434
 10
9.041623623621549
 20
-0.116616669755494
 10
9.04150005521814
 20
-0.116689853853584
 10
9.04138320271856
 20
-0.116764652014174
 10
9.041273208489573
 20
-0.116840973107204
 10
9.04117020654221
 20
-0.116918724147194
 10
9.04107432236848
 20
-0.116997810406484
 10
9.040985672788473
 20
-0.117078135530634
 10
9.040904365808048
 20
-0.117159601655854
 10
9.040830500487239
 20
-0.117242109528234
 10
9.040764166819558
 20
-0.117325558624624
 10
9.040705445622363
 20
-0.117409847275174
 10
9.040654408438385
 20
-0.117494872787124
 10
9.040611117448577
 20
-0.117580531570004
 10
9.040575625396338
 20
-0.117666719261764
 10
9.040547975523262
 20
-0.117753330856004
 10
9.040528201516468
 20
-0.117840260829804
 10
9.040516327467532
 20
-0.117927403272414
 10
9.040512367843156
 20
-0.118014652014174
 10
9.040516327467532
 20
-0.118101900755924
 10
9.040528201516468
 20
-0.118189043198534
 10
9.040547975523262
 20
-0.118275973172334
 10
9.040575625396338
 20
-0.118362584766574
 10
9.040611117448577
 20
-0.118448772458334
 10
9.040654408438385
 20
-0.118534431241214
 10
9.040705445622363
 20
-0.118619456753164
 10
9.040764166819558
 20
-0.118703745403714
 10
9.040830500487239
 20
-0.118787194500104
 10
9.040904365808048
 20
-0.118869702372484
 10
9.040985672788473
 20
-0.118951168497704
 10
9.04107432236848
 20
-0.119031493621854
 10
9.04117020654221
 20
-0.119110579881144
 10
9.041273208489573
 20
-0.119188330921134
 10
9.04138320271856
 20
-0.119264652014174
 10
9.04150005521814
 20
-0.119339450174754
 10
9.041623623621549
 20
-0.119412634272844
 10
9.04175375737972
 20
-0.119484115144904
 10
9.041890297944713
 20
-0.119553805702484
 10
9.042033078962882
 20
-0.119621621038384
 10
9.042181926477555
 20
-0.119687478530064
 10
9.042336659140958
 20
-0.119751297940314
 10
9.042497088435175
 20
-0.119813001515014
 10
9.042663018901825
 20
-0.119872514077864
 10
9.042834248380194
 20
-0.119929763121964
 10
9.043010568253539
 20
-0.119984678898184
 10
9.043191763703257
 20
-0.120037194500104
 10
9.043377613970598
 20
-0.120087245945554
 10
9.04356789262564
 20
-0.120134772254564
 10
9.043762367843156
 20
-0.120179715523634
 10
9.043960802685048
 20
-0.120222020996314
 10
9.044162955389027
 20
-0.120261637129914
 10
9.044368579663166
 20
-0.120298515658274
 10
9.044577424985954
 20
-0.120332611650584
 10
9.04478923691154
 20
-0.120363883566134
 10
9.04500375737972
 20
-0.120392293304904
 10
9.045220725030347
 20
-0.120417806254014
 10
9.04543987552176
 20
-0.120440391329864
 10
9.045660941852843
 20
-0.120460021016004
 10
9.045883654688321
 20
-0.120476671396704
 10
9.046107742686916
 20
-0.120490322186024
 10
9.046332932831916
 20
-0.120500956752594
 10
9.046558950763822
 20
-0.120508562139814
 10
9.046785521114591
 20
-0.120513129081714
 10
9.047012367843156
 20
-0.120514652014174
 10
9.047239214571723
 20
-0.120513129081714
 10
9.047465784922494
 20
-0.120508562139814
 10
9.047691802854398
 20
-0.120500956752594
 10
9.047916992999399
 20
-0.120490322186024
 10
9.048141080997993
 20
-0.120476671396704
 10
9.048363793833472
 20
-0.120460021016004
 10
9.048584860164556
 20
-0.120440391329864
 10
9.048804010655967
 20
-0.120417806254014
 10
9.049020978306595
 20
-0.120392293304904
 10
9.049235498774776
 20
-0.120363883566134
 10
9.049447310700362
 20
-0.120332611650584
 10
9.049656156023149
 20
-0.120298515658274
 10
9.049861780297288
 20
-0.120261637129914
 10
9.050063933001264
 20
-0.120222020996314
 10
9.050262367843155
 20
-0.120179715523634
 10
9.050456843060674
 20
-0.120134772254564
 10
9.050647121715716
 20
-0.120087245945554
 10
9.05083297198306
 20
-0.120037194500104
 10
9.051014167432776
 20
-0.119984678898184
 10
9.05119048730612
 20
-0.119929763121964
 10
9.05136171678449
 20
-0.119872514077864
 10
9.05152764725114
 20
-0.119813001515014
 10
9.051688076545357
 20
-0.119751297940314
 10
9.05184280920876
 20
-0.119687478530064
 10
9.051991656723429
 20
-0.119621621038384
 10
9.052134437741604
 20
-0.119553805702484
 10
9.052270978306595
 20
-0.119484115144904
 10
9.052401112064766
 20
-0.119412634272844
 10
9.052524680468174
 20
-0.119339450174754
 10
9.052641532967755
 20
-0.119264652014174
 10
9.052751527196738
 20
-0.119188330921134
 10
9.052854529144101
 20
-0.119110579881144
 10
9.052950413317834
 20
-0.119031493621854
 10
9.053039062897842
 20
-0.118951168497704
 10
9.053120369878267
 20
-0.118869702372484
 10
9.053194235199078
 20
-0.118787194500104
 10
9.053260568866758
 20
-0.118703745403714
 10
9.053319290063952
 20
-0.118619456753164
 10
9.05337032724793
 20
-0.118534431241214
 10
9.053413618237737
 20
-0.118448772458334
 10
9.053449110289977
 20
-0.118362584766574
 10
9.053476760163052
 20
-0.118275973172334
 10
9.053496534169845
 20
-0.118189043198534
 10
9.053508408218782
 20
-0.118101900755924
 10
9.053512367843156
 20
-0.118014652014174
 10
9.053508408218782
 20
-0.117927403272414
 10
9.053496534169845
 20
-0.117840260829804
 10
9.053476760163052
 20
-0.117753330856004
 10
9.053449110289977
 20
-0.117666719261764
 10
9.053413618237737
 20
-0.117580531570004
 10
9.05337032724793
 20
-0.117494872787124
 10
9.053319290063952
 20
-0.117409847275174
 10
9.053260568866758
 20
-0.117325558624624
 10
9.053194235199078
 20
-0.117242109528234
 10
9.053120369878267
 20
-0.117159601655854
 10
9.053039062897842
 20
-0.117078135530634
 10
9.052950413317834
 20
-0.116997810406484
 10
9.052854529144101
 20
-0.116918724147194
 10
9.052751527196738
 20
-0.116840973107204
 10
9.052641532967755
 20
-0.116764652014174
 10
9.052524680468174
 20
-0.116689853853584
 10
9.052401112064766
 20
-0.116616669755494
 10
9.052270978306595
 20
-0.116545188883434
 10
9.052134437741604
 20
-0.116475498325854
 10
9.051991656723429
 20
-0.116407682989954
 10
9.05184280920876
 20
-0.116341825498274
 10
9.051688076545357
 20
-0.116278006088024
 10
9.05152764725114
 20
-0.116216302513324
 10
9.05136171678449
 20
-0.116156789950474
 10
9.05119048730612
 20
-0.116099540906374
 10
9.051014167432776
 20
-0.116044625130154
 10
9.05083297198306
 20
-0.115992109528234
 10
9.050647121715716
 20
-0.115942058082784
 10
9.050456843060674
 20
-0.115894531773774
 10
9.050262367843155
 20
-0.115849588504704
 10
9.050063933001264
 20
-0.115807283032024
 10
9.049861780297288
 20
-0.115767666898424
 10
9.049656156023149
 20
-0.115730788370064
 10
9.049447310700362
 20
-0.115696692377754
 10
9.049235498774776
 20
-0.115665420462204
 10
9.049020978306595
 20
-0.115637010723434
 10
9.048804010655967
 20
-0.115611497774324
 10
9.048584860164556
 20
-0.115588912698484
 10
9.048363793833472
 20
-0.115569283012334
 10
9.048141080997993
 20
-0.115552632631634
 10
9.047916992999399
 20
-0.115538981842314
 10
9.047691802854398
 20
-0.115528347275744
 10
9.047465784922494
 20
-0.115520741888524
 10
9.047239214571723
 20
-0.115516174946624
 97
        0
 75
     0
 76
     1
 98
        0
  0
HATCH
  5
93
330
1F
100
AcDbEntity
  8
XR$1$TB_712_1
  6
AUSGEZOGEN
 62
    18
420
        0
440
 33554687
370
    -3
100
AcDbHatch
 10
0.0
 20
0.0
 30
0.0
210
0.0
220
0.0
230
1.0
  2
SOLID
 70
     1
 71
     0
 91
        1
 92
        3
 72
     0
 73
     1
 93
        6
 10
9.023012367843156
 20
-0.123514652014174
 10
9.050012367843156
 20
-0.123514652014174
 10
9.050012367843156
 20
-0.170514652014174
 10
9.053012367843156
 20
-0.170514652014174
 10
9.053012367843156
 20
-0.120514652014174
 10
9.023012367843156
 20
-0.120514652014174
 97
        0
 75
     0
 76
     1
 98
        0
  0
HATCH
  5
94
330
1F
100
AcDbEntity
  8
XR$1$TB_712_1
  6
VERDECKT2_S2
 62
    18
420
        0
440
 33554687
370
    -3
100
AcDbHatch
 10
0.0
 20
0.0
 30
0.0
210
0.0
220
0.0
230
1.0
  2
SOLID
 70
     1
 71
     0
 91
        1
 92
        3
 72
     0
 73
     1
 93
        8
 10
8.501612335843157
 20
-0.351514651514161
 10
8.601612335843157
 20
-0.351514651514161
 10
8.601612335843157
 20
-0.349514651514161
 10
8.552612335843158
 20
-0.349514651514161
 10
8.552612335843158
 20
-0.299514651514164
 10
8.550612335843159
 20
-0.299514651514164
 10
8.550612335843159
 20
-0.349514651514161
 10
8.501612335843157
 20
-0.349514651514161
 97
        0
 75
     0
 76
     1
 98
        0
  0
HATCH
  5
95
330
1F
100
AcDbEntity
  8
XR$1$TB_712_1
  6
AUSGEZOGEN
 62
    18
420
        0
440
 33554687
370
    -3
100
AcDbHatch
 10
0.0
 20
0.0
 30
0.0
210
0.0
220
0.0
230
1.0
  2
SOLID
 70
     1
 71
     0
 91
        2
 92
        3
 72
     0
 73
     1
 93
        4
 10
8.983012360213761
 20
-0.281514652014164
 10
8.983012360213761
 20
-0.351514652014161
 10
9.053012367843156
 20
-0.351514652014161
 10
9.053012367843156
 20
-0.281514652014164
 97
        0
 92
       18
 72
     0
 73
     1
 93
        4
 10
9.050512367843156
 20
-0.349014652014161
 10
8.985512360213761
 20
-0.349014652014161
 10
8.985512360213761
 20
-0.284014652014164
 10
9.050512367843156
 20
-0.284014652014164
 97
        0
 75
     0
 76
     1
 98
        0
  0
HATCH
  5
97
102
{ACAD_REACTORS
330
96
102
}
330
1F
100
AcDbEntity
  8
XR$1$TB_712_1
  6
AUSGEZOGEN
 62
     9
440
 33554687
370
    -3
100
AcDbHatch
 10
0.0
 20
0.0
 30
0.0
210
0.0
220
0.0
230
1.0
  2
SOLID
 70
     1
 71
     0
 91
        1
 92
        3
 72
     0
 73
     1
 93
        7
 10
8.55013233584316
 20
-0.358259169653191
 10
8.55013233584316
 20
-0.378259169653121
 10
9.074635565138554
 20
-0.378259169653121
 10
9.074635565138554
 20
-0.375259169653121
 10
9.067635565138554
 20
-0.368259169653121
 10
9.043640116826591
 20
-0.368259169653121
 10
9.043640116826591
 20
-0.358259169653191
 97
        0
 75
     0
 76
     1
 98
        0
  0
HATCH
  5
98
102
{ACAD_REACTORS
330
96
102
}
330
1F
100
AcDbEntity
  8
XR$1$TB_712_1
  6
AUSGEZOGEN
 62
     9
440
 33554687
370
    -3
100
AcDbHatch
 10
0.0
 20
0.0
 30
0.0
210
0.0
220
0.0
230
1.0
  2
SOLID
 70
     1
 71
     0
 91
        1
 92
        3
 72
     0
 73
     1
 93
        4
 10
8.47651463513797
 20
-0.358259169653191
 10
8.47651463513797
 20
-0.378259169653121
 10
8.542132335843158
 20
-0.378259169653121
 10
8.542132335843158
 20
-0.358259169653191
 97
        0
 75
     0
 76
     1
 98
        0
  0
HATCH
  5
99
330
1F
100
AcDbEntity
  8
XR$1$TB_712_1
  6
AUSGEZOGEN
 62
     9
440
 33554687
370
    -3
100
AcDbHatch
 10
0.0
 20
0.0
 30
0.0
210
0.0
220
0.0
230
1.0
  2
SOLID
 70
     1
 71
     0
 91
        1
 92
        3
 72
     0
 73
     1
 93
        7
 10
9.07975688548211
 20
-0.373137849309561
 10
9.07975688548211
 20
-0.130686224889424
 10
9.059756885482184
 20
-0.130686224889424
 10
9.059756885482184
 20
-0.342142400997601
 10
9.06975688548211
 20
-0.342142400997601
 10
9.06975688548211
 20
-0.366137849309561
 10
9.076756885482112
 20
-0.373137849309561
 97
        0
 75
     0
 76
     1
 98
        0
  0
LINE
  5
9A
330
1F
100
AcDbEntity
  8
XR$1$TB_712_1
  6
AUSGEZOGEN
 62
     3
440
 33554687
370
    25
100
AcDbLine
 10
9.130012
 20
-0.055515
 30
0.0
 11
9.130012
 21
-0.115515
 31
0.0
  0
LINE
  5
9B
330
1F
100
AcDbEntity
  8
XR$1$TB_712_1
  6
AUSGEZOGEN
 62
     7
440
 33554687
370
    -3
100
AcDbLine
 10
9.274012
 20
-0.115515
 30
0.0
 11
9.130012
 21
-0.115515
 31
0.0
  0
LINE
  5
9C
330
1F
100
AcDbEntity
  8
XR$1$TB_712_1
  6
AUSGEZOGEN
 62
     3
440
 33554687
370
    25
100
AcDbLine
 10
9.130012
 20
-0.115515
 30
0.0
 11
9.014012
 21
-0.115515
 31
0.0
  0
LINE
  5
9D
330
1F
100
AcDbEntity
  8
XR$1$TB_712_1
  6
STRICHPUNKT2_S5
 62
     6
440
 33554687
370
    35
100
AcDbLine
 10
8.964012
 20
-0.138515
 30
0.0
 11
9.042012
 21
-0.138515
 31
0.0
  0
LINE
  5
9E
330
1F
100
AcDbEntity
  8
XR$1$TB_712_1
  6
AUSGEZOGEN
 62
     7
440
 33554687
370
    -3
100
AcDbLine
 10
9.014012
 20
-0.153515
 30
0.0
 11
9.017012
 21
-0.153515
 31
0.0
  0
LINE
  5
9F
330
1F
100
AcDbEntity
  8
XR$1$TB_712_1
  6
AUSGEZOGEN
 62
     7
440
 33554687
370
    -3
100
AcDbLine
 10
9.017012
 20
-0.153515
 30
0.0
 11
9.017012
 21
-0.126515
 31
0.0
  0
LINE
  5
A0
330
1F
100
AcDbEntity
  8
XR$1$TB_712_1
  6
AUSGEZOGEN
 62
     7
440
 33554687
370
    -3
100
AcDbLine
 10
9.017012
 20
-0.126515
 30
0.0
 11
9.044012
 21
-0.126515
 31
0.0
  0
LINE
  5
A1
330
1F
100
AcDbEntity
  8
XR$1$TB_712_1
  6
AUSGEZOGEN
 62
     7
440
 33554687
370
    -3
100
AcDbLine
 10
9.044012
 20
-0.126515
 30
0.0
 11
9.044012
 21
-0.123515
 31
0.0
  0
LINE
  5
A2
330
1F
100
AcDbEntity
  8
XR$1$TB_712_1
  6
AUSGEZOGEN
 62
     7
440
 33554687
370
    -3
100
AcDbLine
 10
9.014012
 20
-0.123515
 30
0.0
 11
9.044012
 21
-0.123515
 31
0.0
  0
LINE
  5
A3
330
1F
100
AcDbEntity
  8
XR$1$TB_712_1
  6
AUSGEZOGEN
 62
     7
440
 33554687
370
    -3
100
AcDbLine
 10
9.034512
 20
-0.118264
 30
0.0
 11
9.034512
 21
-0.131515
 31
0.0
  0
ELLIPSE
  5
A4
330
1F
100
AcDbEntity
  8
XR$1$TB_712_1
  6
AUSGEZOGEN
 62
     7
440
 33554687
370
    -3
100
AcDbEllipse
 10
9.047012
 20
-0.118015
 30
0.0
 11
-0.006500000000000001
 21
7.960204194457795E-19
 31
0.0
210
0.0
220
0.0
230
1.0
 40
0.384615
 41
0.0
 42
6.283185307179586
  0
LINE
  5
A5
330
1F
100
AcDbEntity
  8
XR$1$TB_712_1
  6
STRICHPUNKT2_S5
 62
     6
440
 33554687
370
    35
100
AcDbLine
 10
8.849012
 20
-0.237515
 30
0.0
 11
8.849012
 21
-0.137515
 31
0.0
  0
LINE
  5
A6
330
1F
100
AcDbEntity
  8
XR$1$TB_712_1
  6
AUSGEZOGEN
 62
     7
440
 33554687
370
    -3
100
AcDbLine
 10
8.515112
 20
-0.224515
 30
0.0
 11
8.515112
 21
-0.227515
 31
0.0
  0
LINE
  5
A7
330
1F
100
AcDbEntity
  8
XR$1$TB_712_1
  6
AUSGEZOGEN
 62
     7
440
 33554687
370
    -3
100
AcDbLine
 10
8.515112
 20
-0.227515
 30
0.0
 11
8.552612
 21
-0.227515
 31
0.0
  0
LINE
  5
A8
330
1F
100
AcDbEntity
  8
XR$1$TB_712_1
  6
AUSGEZOGEN
 62
     7
440
 33554687
370
    -3
100
AcDbLine
 10
8.515112
 20
-0.224515
 30
0.0
 11
8.555112
 21
-0.224515
 31
0.0
  0
LINE
  5
A9
330
1F
100
AcDbEntity
  8
XR$1$TB_712_1
  6
STRICHPUNKT2_S5
 62
     6
440
 33554687
370
    35
100
AcDbLine
 10
8.533012
 20
-0.237515
 30
0.0
 11
8.533012
 21
-0.119515
 31
0.0
  0
LINE
  5
AA
330
1F
100
AcDbEntity
  8
XR$1$TB_712_1
  6
AUSGEZOGEN
 62
    32
440
 33554687
370
    -3
100
AcDbLine
 10
9.014012
 20
0.080485
 30
0.0
 11
8.476515
 21
0.080485
 31
0.0
  0
LINE
  5
AB
330
1F
100
AcDbEntity
  8
XR$1$TB_712_1
  6
AUSGEZOGEN
 62
     7
440
 33554687
370
    -3
100
AcDbLine
 10
9.130012
 20
-0.115515
 30
0.0
 11
9.014012
 21
-0.115515
 31
0.0
  0
LINE
  5
AC
330
1F
100
AcDbEntity
  8
XR$1$TB_712_1
  6
AUSGEZOGEN
 62
     7
440
 33554687
370
    -3
100
AcDbLine
 10
9.044012
 20
-0.123515
 30
0.0
 11
9.050012
 21
-0.123515
 31
0.0
  0
LINE
  5
AD
330
1F
100
AcDbEntity
  8
XR$1$TB_712_1
  6
AUSGEZOGEN
 62
     7
440
 33554687
370
    -3
100
AcDbLine
 10
9.023012
 20
-0.123515
 30
0.0
 11
9.023012
 21
-0.120515
 31
0.0
  0
LINE
  5
AE
330
1F
100
AcDbEntity
  8
XR$1$TB_712_1
  6
AUSGEZOGEN
 62
     7
440
 33554687
370
    -3
100
AcDbLine
 10
9.023012
 20
-0.120515
 30
0.0
 11
9.053012
 21
-0.120515
 31
0.0
  0
LINE
  5
AF
330
1F
100
AcDbEntity
  8
XR$1$TB_712_1
  6
AUSGEZOGEN
 62
     7
440
 33554687
370
    -3
100
AcDbLine
 10
9.050012
 20
-0.123515
 30
0.0
 11
9.050012
 21
-0.170515
 31
0.0
  0
LINE
  5
B0
330
1F
100
AcDbEntity
  8
XR$1$TB_712_1
  6
AUSGEZOGEN
 62
     7
440
 33554687
370
    -3
100
AcDbLine
 10
9.053012
 20
-0.170515
 30
0.0
 11
9.050012
 21
-0.170515
 31
0.0
  0
LINE
  5
B1
330
1F
100
AcDbEntity
  8
XR$1$TB_712_1
  6
AUSGEZOGEN
 62
     7
440
 33554687
370
    -3
100
AcDbLine
 10
9.053012
 20
-0.1701
 30
0.0
 11
9.053012
 21
-0.1709
 31
0.0
  0
LINE
  5
B2
330
1F
100
AcDbEntity
  8
XR$1$TB_712_1
  6
AUSGEZOGEN
 62
    52
440
 33554687
370
    13
100
AcDbLine
 10
9.014012
 20
-0.239515
 30
0.0
 11
9.053012
 21
-0.229515
 31
0.0
  0
LINE
  5
B3
330
1F
100
AcDbEntity
  8
XR$1$TB_712_1
  6
AUSGEZOGEN
 62
    52
440
 33554687
370
    13
100
AcDbLine
 10
9.050012
 20
-0.148765
 30
0.0
 11
9.017012
 21
-0.140265
 31
0.0
  0
LINE
  5
B4
330
1F
100
AcDbEntity
  8
XR$1$TB_712_1
  6
AUSGEZOGEN
 62
    52
440
 33554687
370
    13
100
AcDbLine
 10
9.017012
 20
-0.138765
 30
0.0
 11
9.050012
 21
-0.130265
 31
0.0
  0
LINE
  5
B5
330
1F
100
AcDbEntity
  8
XR$1$TB_712_1
  6
AUSGEZOGEN
 62
    52
440
 33554687
370
    13
100
AcDbLine
 10
9.050012
 20
-0.128765
 30
0.0
 11
9.042012
 21
-0.126515
 31
0.0
  0
LINE
  5
B6
330
1F
100
AcDbEntity
  8
XR$1$TB_712_1
  6
AUSGEZOGEN
 62
    52
440
 33554687
370
    13
100
AcDbLine
 10
9.053012
 20
-0.209515
 30
0.0
 11
9.014012
 21
-0.199515
 31
0.0
  0
LINE
  5
B7
330
1F
100
AcDbEntity
  8
XR$1$TB_712_1
  6
AUSGEZOGEN
 62
    52
440
 33554687
370
    13
100
AcDbLine
 10
9.014012
 20
-0.199515
 30
0.0
 11
9.053012
 21
-0.189515
 31
0.0
  0
LINE
  5
B8
330
1F
100
AcDbEntity
  8
XR$1$TB_712_1
  6
AUSGEZOGEN
 62
    52
440
 33554687
370
    13
100
AcDbLine
 10
9.053012
 20
-0.189515
 30
0.0
 11
9.014012
 21
-0.179515
 31
0.0
  0
LINE
  5
B9
330
1F
100
AcDbEntity
  8
XR$1$TB_712_1
  6
AUSGEZOGEN
 62
    52
440
 33554687
370
    13
100
AcDbLine
 10
9.014012
 20
-0.159515
 30
0.0
 11
9.050012
 21
-0.150265
 31
0.0
  0
LINE
  5
BA
330
1F
100
AcDbEntity
  8
XR$1$TB_712_1
  6
AUSGEZOGEN
 62
    52
440
 33554687
370
    13
100
AcDbLine
 10
9.014012
 20
-0.179515
 30
0.0
 11
9.050012
 21
-0.170265
 31
0.0
  0
LINE
  5
BB
330
1F
100
AcDbEntity
  8
XR$1$TB_712_1
  6
AUSGEZOGEN
 62
    52
440
 33554687
370
    13
100
AcDbLine
 10
9.050012
 20
-0.168765
 30
0.0
 11
9.014012
 21
-0.159515
 31
0.0
  0
LINE
  5
BC
330
1F
100
AcDbEntity
  8
XR$1$TB_712_1
  6
AUSGEZOGEN
 62
     7
440
 33554687
370
    -3
100
AcDbLine
 10
9.053012
 20
-0.170515
 30
0.0
 11
9.053012
 21
-0.120515
 31
0.0
  0
LINE
  5
BD
330
1F
100
AcDbEntity
  8
XR$1$TB_712_1
  6
AUSGEZOGEN
 62
     7
440
 33554687
370
    -3
100
AcDbLine
 10
9.053012
 20
-0.125686
 30
0.0
 11
9.053012
 21
-0.123686
 31
0.0
  0
LINE
  5
BE
330
1F
100
AcDbEntity
  8
XR$1$TB_712_1
  6
AUSGEZOGEN
 62
     7
440
 33554687
370
    -3
100
AcDbLine
 10
9.056012
 20
-0.123686
 30
0.0
 11
9.056012
 21
-0.125686
 31
0.0
  0
LINE
  5
BF
330
1F
100
AcDbEntity
  8
XR$1$TB_712_1
  6
AUSGEZOGEN
 62
     7
440
 33554687
370
    -3
100
AcDbLine
 10
9.056012
 20
-0.123686
 30
0.0
 11
9.053012
 21
-0.123686
 31
0.0
  0
LINE
  5
C0
330
1F
100
AcDbEntity
  8
XR$1$TB_712_1
  6
AUSGEZOGEN
 62
     7
440
 33554687
370
    -3
100
AcDbLine
 10
9.053012
 20
-0.177186
 30
0.0
 11
9.053012
 21
-0.175186
 31
0.0
  0
LINE
  5
C1
330
1F
100
AcDbEntity
  8
XR$1$TB_712_1
  6
AUSGEZOGEN
 62
     7
440
 33554687
370
    -3
100
AcDbLine
 10
9.056012
 20
-0.175186
 30
0.0
 11
9.056012
 21
-0.177186
 31
0.0
  0
LINE
  5
C2
330
1F
100
AcDbEntity
  8
XR$1$TB_712_1
  6
AUSGEZOGEN
 62
     7
440
 33554687
370
    -3
100
AcDbLine
 10
9.053012
 20
-0.177186
 30
0.0
 11
9.056012
 21
-0.177186
 31
0.0
  0
LINE
  5
C3
330
1F
100
AcDbEntity
  8
XR$1$TB_712_1
  6
AUSGEZOGEN
 62
     7
440
 33554687
370
    -3
100
AcDbLine
 10
9.053012
 20
-0.125686
 30
0.0
 11
9.053012
 21
-0.175186
 31
0.0
  0
LINE
  5
C4
330
1F
100
AcDbEntity
  8
XR$1$TB_712_1
  6
AUSGEZOGEN
 62
     7
440
 33554687
370
    -3
100
AcDbLine
 10
9.056012
 20
-0.175186
 30
0.0
 11
9.056012
 21
-0.125686
 31
0.0
  0
ARC
  5
C5
330
1F
100
AcDbEntity
  8
XR$1$TB_712_1
  6
AUSGEZOGEN
 62
     7
440
 33554687
370
    -3
100
AcDbCircle
 10
9.055512
 20
-0.133743
 30
0.0
 40
0.0015
100
AcDbArc
 50
300.0
 51
0.0
  0
LINE
  5
C6
330
1F
100
AcDbEntity
  8
XR$1$TB_712_1
  6
AUSGEZOGEN
 62
     7
440
 33554687
370
    -3
100
AcDbLine
 10
9.057012
 20
-0.127186
 30
0.0
 11
9.057012
 21
-0.133743
 31
0.0
  0
LINE
  5
C7
330
1F
100
AcDbEntity
  8
XR$1$TB_712_1
  6
AUSGEZOGEN
 62
     7
440
 33554687
370
    -3
100
AcDbLine
 10
9.057012
 20
-0.12713
 30
0.0
 11
9.057012
 21
-0.127186
 31
0.0
  0
ARC
  5
C8
330
1F
100
AcDbEntity
  8
XR$1$TB_712_1
  6
AUSGEZOGEN
 62
     7
440
 33554687
370
    -3
100
AcDbCircle
 10
9.055512
 20
-0.12713
 30
0.0
 40
0.0015
100
AcDbArc
 50
0.0
 51
60.0
  0
LINE
  5
C9
330
1F
100
AcDbEntity
  8
XR$1$TB_712_1
  6
AUSGEZOGEN
 62
     7
440
 33554687
370
    -3
100
AcDbLine
 10
9.056012
 20
-0.135186
 30
0.0
 11
9.056262
 21
-0.135042
 31
0.0
  0
LINE
  5
CA
330
1F
100
AcDbEntity
  8
XR$1$TB_712_1
  6
AUSGEZOGEN
 62
     7
440
 33554687
370
    -3
100
AcDbLine
 10
9.056262
 20
-0.125831
 30
0.0
 11
9.056012
 21
-0.125686
 31
0.0
  0
LINE
  5
CB
330
1F
100
AcDbEntity
  8
XR$1$TB_712_1
  6
AUSGEZOGEN
 62
     7
440
 33554687
370
    -3
100
AcDbLine
 10
9.059012
 20
-0.123686
 30
0.0
 11
9.056012
 21
-0.123686
 31
0.0
  0
LINE
  5
CC
330
1F
100
AcDbEntity
  8
XR$1$TB_712_1
  6
AUSGEZOGEN
 62
     7
440
 33554687
370
    -3
100
AcDbLine
 10
9.068762
 20
-0.128686
 30
0.0
 11
9.063762
 21
-0.128686
 31
0.0
  0
ARC
  5
CD
330
1F
100
AcDbEntity
  8
XR$1$TB_712_1
  6
AUSGEZOGEN
 62
     7
440
 33554687
370
    -3
100
AcDbCircle
 10
9.063762
 20
-0.127186
 30
0.0
 40
0.0015
100
AcDbArc
 50
90.0
 51
270.0
  0
LINE
  5
CE
330
1F
100
AcDbEntity
  8
XR$1$TB_712_1
  6
AUSGEZOGEN
 62
     7
440
 33554687
370
    -3
100
AcDbLine
 10
9.056887
 20
-0.14682
 30
0.0
 11
9.058795
 21
-0.149772
 31
0.0
  0
ARC
  5
CF
330
1F
100
AcDbEntity
  8
XR$1$TB_712_1
  6
AUSGEZOGEN
 62
     7
440
 33554687
370
    -3
100
AcDbCircle
 10
9.053756
 20
-0.153029
 30
0.0
 40
0.003
100
AcDbArc
 50
347.877543
 51
3.880386
  0
ARC
  5
D0
330
1F
100
AcDbEntity
  8
XR$1$TB_712_1
  6
AUSGEZOGEN
 62
     7
440
 33554687
370
    -3
100
AcDbCircle
 10
9.053756
 20
-0.153029
 30
0.0
 40
0.003
100
AcDbArc
 50
3.880386
 51
32.877543
  0
ARC
  5
D1
330
1F
100
AcDbEntity
  8
XR$1$TB_712_1
  6
AUSGEZOGEN
 62
     7
440
 33554687
370
    -3
100
AcDbCircle
 10
9.053756
 20
-0.153029
 30
0.0
 40
0.006
100
AcDbArc
 50
3.880386
 51
32.877543
  0
ARC
  5
D2
330
1F
100
AcDbEntity
  8
XR$1$TB_712_1
  6
AUSGEZOGEN
 62
     7
440
 33554687
370
    -3
100
AcDbCircle
 10
9.053756
 20
-0.153029
 30
0.0
 40
0.0059999999999999
100
AcDbArc
 50
347.877543
 51
3.880386
  0
LINE
  5
D3
330
1F
100
AcDbEntity
  8
XR$1$TB_712_1
  6
AUSGEZOGEN
 62
     7
440
 33554687
370
    -3
100
AcDbLine
 10
9.059622
 20
-0.154289
 30
0.0
 11
9.056081
 21
-0.170775
 31
0.0
  0
ARC
  5
D4
330
1F
100
AcDbEntity
  8
XR$1$TB_712_1
  6
AUSGEZOGEN
 62
     7
440
 33554687
370
    -3
100
AcDbCircle
 10
9.059015
 20
-0.171405
 30
0.0
 40
0.0030000000000001
100
AcDbArc
 50
167.877543
 51
183.880386
  0
LINE
  5
D5
330
1F
100
AcDbEntity
  8
XR$1$TB_712_1
  6
AUSGEZOGEN
 62
     7
440
 33554687
370
    -3
100
AcDbLine
 10
9.056012
 20
-0.156811
 30
0.0
 11
9.056689
 21
-0.153659
 31
0.0
  0
LINE
  5
D6
330
1F
100
AcDbEntity
  8
XR$1$TB_712_1
  6
AUSGEZOGEN
 62
     7
440
 33554687
370
    -3
100
AcDbLine
 10
9.056276
 20
-0.1514
 30
0.0
 11
9.056012
 21
-0.150993
 31
0.0
  0
LINE
  5
D7
330
1F
100
AcDbEntity
  8
XR$1$TB_712_1
  6
AUSGEZOGEN
 62
     7
440
 33554687
370
    -3
100
AcDbLine
 10
9.056012
 20
-0.145466
 30
0.0
 11
9.056887
 21
-0.14682
 31
0.0
  0
LINE
  5
D8
330
1F
100
AcDbEntity
  8
XR$1$TB_712_1
  6
VERDECKT2_S2
 62
     7
440
 33554687
370
    13
100
AcDbLine
 10
9.071262
 20
-0.139936
 30
0.0
 11
9.066762
 21
-0.139936
 31
0.0
  0
ARC
  5
D9
330
1F
100
AcDbEntity
  8
XR$1$TB_712_1
  6
VERDECKT2_S2
 62
     7
440
 33554687
370
    13
100
AcDbCircle
 10
9.066262
 20
-0.138531
 30
0.0
 40
0.0004999999999999
100
AcDbArc
 50
158.583286
 51
180.0
  0
LINE
  5
DA
330
1F
100
AcDbEntity
  8
XR$1$TB_712_1
  6
VERDECKT2_S2
 62
     7
440
 33554687
370
    13
100
AcDbLine
 10
9.065762
 20
-0.138936
 30
0.0
 11
9.065762
 21
-0.138531
 31
0.0
  0
ARC
  5
DB
330
1F
100
AcDbEntity
  8
XR$1$TB_712_1
  6
VERDECKT2_S2
 62
     7
440
 33554687
370
    13
100
AcDbCircle
 10
9.066762
 20
-0.138936
 30
0.0
 40
0.001
100
AcDbArc
 50
180.0
 51
270.0
  0
LINE
  5
DC
330
1F
100
AcDbEntity
  8
XR$1$TB_712_1
  6
VERDECKT2_S2
 62
     7
440
 33554687
370
    13
100
AcDbLine
 10
9.066728
 20
-0.135975
 30
0.0
 11
9.065797
 21
-0.138348
 31
0.0
  0
ARC
  5
DD
330
1F
100
AcDbEntity
  8
XR$1$TB_712_1
  6
VERDECKT2_S2
 62
     7
440
 33554687
370
    13
100
AcDbCircle
 10
9.066262
 20
-0.135792
 30
0.0
 40
0.0004999999999999
100
AcDbArc
 50
338.583286
 51
0.0
  0
LINE
  5
DE
330
1F
100
AcDbEntity
  8
XR$1$TB_712_1
  6
VERDECKT2_S2
 62
     7
440
 33554687
370
    13
100
AcDbLine
 10
9.066762
 20
-0.130686
 30
0.0
 11
9.066762
 21
-0.135792
 31
0.0
  0
ARC
  5
DF
330
1F
100
AcDbEntity
  8
XR$1$TB_712_1
  6
VERDECKT2_S2
 62
     7
440
 33554687
370
    13
100
AcDbCircle
 10
9.071262
 20
-0.137936
 30
0.0
 40
0.002
100
AcDbArc
 50
270.0
 51
0.0
  0
LINE
  5
E0
330
1F
100
AcDbEntity
  8
XR$1$TB_712_1
  6
AUSGEZOGEN
 62
     7
440
 33554687
370
    -3
100
AcDbLine
 10
9.059757
 20
-0.130686
 30
0.0
 11
9.057012
 21
-0.130686
 31
0.0
  0
LINE
  5
E1
330
1F
100
AcDbEntity
  8
XR$1$TB_712_1
  6
VERDECKT2_S2
 62
     7
440
 33554687
370
    13
100
AcDbLine
 10
9.073262
 20
-0.130686
 30
0.0
 11
9.073262
 21
-0.137936
 31
0.0
  0
LINE
  5
E2
330
1F
100
AcDbEntity
  8
XR$1$TB_712_1
  6
AUSGEZOGEN
 62
     7
440
 33554687
370
    25
100
AcDbLine
 10
9.059757
 20
-0.130686
 30
0.0
 11
9.079757
 21
-0.130686
 31
0.0
  0
LINE
  5
E3
330
1F
100
AcDbEntity
  8
XR$1$TB_712_1
  6
AUSGEZOGEN
 62
     7
440
 33554687
370
    -3
100
AcDbLine
 10
9.071262
 20
-0.123686
 30
0.0
 11
9.059012
 21
-0.123686
 31
0.0
  0
LINE
  5
E4
330
1F
100
AcDbEntity
  8
XR$1$TB_712_1
  6
AUSGEZOGEN
 62
     7
440
 33554687
370
    -3
100
AcDbLine
 10
9.063762
 20
-0.125686
 30
0.0
 11
9.068762
 21
-0.125686
 31
0.0
  0
ARC
  5
E5
330
1F
100
AcDbEntity
  8
XR$1$TB_712_1
  6
AUSGEZOGEN
 62
     7
440
 33554687
370
    -3
100
AcDbCircle
 10
9.068762
 20
-0.127186
 30
0.0
 40
0.0015
100
AcDbArc
 50
270.0
 51
90.0
  0
LINE
  5
E6
330
1F
100
AcDbEntity
  8
XR$1$TB_712_1
  6
AUSGEZOGEN
 62
     7
440
 33554687
370
    -3
100
AcDbLine
 10
9.073262
 20
-0.125686
 30
0.0
 11
9.073262
 21
-0.130686
 31
0.0
  0
ARC
  5
E7
330
1F
100
AcDbEntity
  8
XR$1$TB_712_1
  6
AUSGEZOGEN
 62
     7
440
 33554687
370
    -3
100
AcDbCircle
 10
9.071262
 20
-0.125686
 30
0.0
 40
0.002
100
AcDbArc
 50
0.0
 51
90.0
  0
LINE
  5
E8
330
1F
100
AcDbEntity
  8
XR$1$TB_712_1
  6
AUSGEZOGEN
 62
     7
440
 33554687
370
    -3
100
AcDbLine
 10
8.552612
 20
-0.324515
 30
0.0
 11
8.555112
 21
-0.324515
 31
0.0
  0
LINE
  5
E9
330
1F
100
AcDbEntity
  8
XR$1$TB_712_1
  6
AUSGEZOGEN
 62
     7
440
 33554687
370
    -3
100
AcDbLine
 10
8.560112
 20
-0.312518
 30
0.0
 11
8.544612
 21
-0.312518
 31
0.0
  0
LINE
  5
EA
330
1F
100
AcDbEntity
  8
XR$1$TB_712_1
  6
AUSGEZOGEN
 62
     7
440
 33554687
370
    -3
100
AcDbLine
 10
8.552612
 20
-0.227515
 30
0.0
 11
8.552612
 21
-0.324515
 31
0.0
  0
LINE
  5
EB
330
1F
100
AcDbEntity
  8
XR$1$TB_712_1
  6
AUSGEZOGEN
 62
     7
440
 33554687
370
    -3
100
AcDbLine
 10
8.555112
 20
-0.324515
 30
0.0
 11
8.555112
 21
-0.224515
 31
0.0
  0
LINE
  5
EC
330
1F
100
AcDbEntity
  8
XR$1$TB_712_1
  6
AUSGEZOGEN
 62
    52
440
 33554687
370
    13
100
AcDbLine
 10
9.014012
 20
-0.259515
 30
0.0
 11
9.053012
 21
-0.249515
 31
0.0
  0
LINE
  5
ED
330
1F
100
AcDbEntity
  8
XR$1$TB_712_1
  6
AUSGEZOGEN
 62
    52
440
 33554687
370
    13
100
AcDbLine
 10
9.053012
 20
-0.249515
 30
0.0
 11
9.014012
 21
-0.239515
 31
0.0
  0
LINE
  5
EE
330
1F
100
AcDbEntity
  8
XR$1$TB_712_1
  6
AUSGEZOGEN
 62
    52
440
 33554687
370
    13
100
AcDbLine
 10
9.053012
 20
-0.269515
 30
0.0
 11
9.014012
 21
-0.259515
 31
0.0
  0
LINE
  5
EF
330
1F
100
AcDbEntity
  8
XR$1$TB_712_1
  6
AUSGEZOGEN
 62
    52
440
 33554687
370
    13
100
AcDbLine
 10
9.037412
 20
-0.273515
 30
0.0
 11
9.053012
 21
-0.269515
 31
0.0
  0
LINE
  5
F0
330
1F
100
AcDbEntity
  8
XR$1$TB_712_1
  6
AUSGEZOGEN
 62
    32
440
 33554687
370
    50
100
AcDbLine
 10
9.014012
 20
0.080485
 30
0.0
 11
9.014012
 21
-0.218515
 31
0.0
  0
LINE
  5
F1
330
1F
100
AcDbEntity
  8
XR$1$TB_712_1
  6
AUSGEZOGEN
 62
    32
440
 33554687
370
    50
100
AcDbLine
 10
9.014012
 20
-0.218515
 30
0.0
 11
8.476515
 21
-0.218515
 31
0.0
  0
LINE
  5
F2
330
1F
100
AcDbEntity
  8
XR$1$TB_712_1
  6
AUSGEZOGEN
 62
     7
440
 33554687
370
    -3
100
AcDbLine
 10
8.555112
 20
-0.224515
 30
0.0
 11
8.555112
 21
-0.218515
 31
0.0
  0
LINE
  5
F3
330
1F
100
AcDbEntity
  8
XR$1$TB_712_1
  6
AUSGEZOGEN
 62
     7
440
 33554687
370
    -3
100
AcDbLine
 10
8.515112
 20
-0.224515
 30
0.0
 11
8.515112
 21
-0.218515
 31
0.0
  0
LINE
  5
F4
330
1F
100
AcDbEntity
  8
XR$1$TB_712_1
  6
AUSGEZOGEN
 62
    52
440
 33554687
370
    13
100
AcDbLine
 10
9.014012
 20
-0.218515
 30
0.0
 11
9.053012
 21
-0.209515
 31
0.0
  0
LINE
  5
F5
330
1F
100
AcDbEntity
  8
XR$1$TB_712_1
  6
AUSGEZOGEN
 62
    52
440
 33554687
370
    13
100
AcDbLine
 10
9.053012
 20
-0.229515
 30
0.0
 11
9.014012
 21
-0.218515
 31
0.0
  0
LINE
  5
F6
330
1F
100
AcDbEntity
  8
XR$1$TB_712_1
  6
AUSGEZOGEN
 62
     7
440
 33554687
370
    -3
100
AcDbLine
 10
8.983012
 20
-0.218515
 30
0.0
 11
8.983012
 21
-0.224515
 31
0.0
  0
LINE
  5
F7
330
1F
100
AcDbEntity
  8
XR$1$TB_712_1
  6
AUSGEZOGEN
 62
     3
440
 33554687
370
    -3
100
AcDbLine
 10
8.980012
 20
-0.227515
 30
0.0
 11
8.803012
 21
-0.227515
 31
0.0
  0
LINE
  5
F8
330
1F
100
AcDbEntity
  8
XR$1$TB_712_1
  6
AUSGEZOGEN
 62
     3
440
 33554687
370
    -3
100
AcDbLine
 10
8.983012
 20
-0.224515
 30
0.0
 11
8.803012
 21
-0.224515
 31
0.0
  0
LINE
  5
F9
330
1F
100
AcDbEntity
  8
XR$1$TB_712_1
  6
AUSGEZOGEN
 62
     3
440
 33554687
370
    -3
100
AcDbLine
 10
8.803012
 20
-0.218515
 30
0.0
 11
8.803012
 21
-0.227515
 31
0.0
  0
LINE
  5
FA
330
1F
100
AcDbEntity
  8
XR$1$TB_712_1
  6
AUSGEZOGEN
 62
     3
440
 33554687
370
    -3
100
AcDbLine
 10
8.983012
 20
-0.324515
 30
0.0
 11
8.980012
 21
-0.324515
 31
0.0
  0
LINE
  5
FB
330
1F
100
AcDbEntity
  8
XR$1$TB_712_1
  6
AUSGEZOGEN
 62
     3
440
 33554687
370
    -3
100
AcDbLine
 10
8.980012
 20
-0.227515
 30
0.0
 11
8.980012
 21
-0.324515
 31
0.0
  0
LINE
  5
FC
330
1F
100
AcDbEntity
  8
XR$1$TB_712_1
  6
AUSGEZOGEN
 62
     7
440
 33554687
370
    -3
100
AcDbLine
 10
9.014012
 20
0.080485
 30
0.0
 11
9.014012
 21
0.080485
 31
0.0
  0
LINE
  5
FD
330
1F
100
AcDbEntity
  8
XR$1$TB_712_1
  6
AUSGEZOGEN
 62
     7
440
 33554687
370
    -3
100
AcDbLine
 10
9.274012
 20
0.080485
 30
0.0
 11
9.014012
 21
0.080485
 31
0.0
  0
LINE
  5
FE
330
1F
100
AcDbEntity
  8
XR$1$TB_712_1
  6
AUSGEZOGEN
 62
    52
440
 33554687
370
    13
100
AcDbLine
 10
8.555112
 20
-0.299515
 30
0.0
 11
8.980012
 21
-0.299515
 31
0.0
  0
LINE
  5
FF
330
1F
100
AcDbEntity
  8
XR$1$TB_712_1
  6
AUSGEZOGEN
 62
     7
440
 33554687
370
    25
100
AcDbLine
 10
9.076757
 20
-0.373138
 30
0.0
 11
9.079757
 21
-0.373138
 31
0.0
  0
LINE
  5
100
330
1F
100
AcDbEntity
  8
XR$1$TB_712_1
  6
AUSGEZOGEN
 62
     7
440
 33554687
370
    25
100
AcDbLine
 10
9.067636
 20
-0.368259
 30
0.0
 11
9.074636
 21
-0.375259
 31
0.0
  0
LINE
  5
101
330
1F
100
AcDbEntity
  8
XR$1$TB_712_1
  6
AUSGEZOGEN
 62
     7
440
 33554687
370
    25
100
AcDbLine
 10
9.069757
 20
-0.366138
 30
0.0
 11
9.076757
 21
-0.373138
 31
0.0
  0
LINE
  5
102
330
1F
100
AcDbEntity
  8
XR$1$TB_712_1
  6
AUSGEZOGEN
 62
     7
440
 33554687
370
    25
100
AcDbLine
 10
9.067636
 20
-0.368259
 30
0.0
 11
9.04364
 21
-0.368259
 31
0.0
  0
LINE
  5
103
330
1F
100
AcDbEntity
  8
XR$1$TB_712_1
  6
AUSGEZOGEN
 62
     7
440
 33554687
370
    25
100
AcDbLine
 10
9.04364
 20
-0.358259
 30
0.0
 11
9.04364
 21
-0.368259
 31
0.0
  0
LINE
  5
104
330
1F
100
AcDbEntity
  8
XR$1$TB_712_1
  6
AUSGEZOGEN
 62
     7
440
 33554687
370
    25
100
AcDbLine
 10
9.069757
 20
-0.366138
 30
0.0
 11
9.069757
 21
-0.342142
 31
0.0
  0
LINE
  5
105
330
1F
100
AcDbEntity
  8
XR$1$TB_712_1
  6
AUSGEZOGEN
 62
     7
440
 33554687
370
    25
100
AcDbLine
 10
9.059757
 20
-0.342142
 30
0.0
 11
9.069757
 21
-0.342142
 31
0.0
  0
LINE
  5
106
330
1F
100
AcDbEntity
  8
XR$1$TB_712_1
  6
AUSGEZOGEN
 62
     7
440
 33554687
370
    25
100
AcDbLine
 10
8.542132
 20
-0.378259
 30
0.0
 11
8.542132
 21
-0.358259
 31
0.0
  0
LINE
  5
107
330
1F
100
AcDbEntity
  8
XR$1$TB_712_1
  6
AUSGEZOGEN
 62
     7
440
 33554687
370
    25
100
AcDbLine
 10
9.074636
 20
-0.378259
 30
0.0
 11
8.550132
 21
-0.378259
 31
0.0
  0
LINE
  5
108
330
1F
100
AcDbEntity
  8
XR$1$TB_712_1
  6
VERDECKT2_S2
 62
     7
440
 33554687
370
    13
100
AcDbLine
 10
9.071636
 20
-0.372259
 30
0.0
 11
8.550132
 21
-0.372259
 31
0.0
  0
LINE
  5
109
330
1F
100
AcDbEntity
  8
XR$1$TB_712_1
  6
VERDECKT2_S2
 62
     7
440
 33554687
370
    13
100
AcDbLine
 10
9.04364
 20
-0.364265
 30
0.0
 11
8.550132
 21
-0.364265
 31
0.0
  0
LINE
  5
10A
330
1F
100
AcDbEntity
  8
XR$1$TB_712_1
  6
AUSGEZOGEN
 62
     7
440
 33554687
370
    25
100
AcDbLine
 10
8.476515
 20
-0.378259
 30
0.0
 11
8.542132
 21
-0.378259
 31
0.0
  0
LINE
  5
10B
330
1F
100
AcDbEntity
  8
XR$1$TB_712_1
  6
VERDECKT2_S2
 62
     7
440
 33554687
370
    13
100
AcDbLine
 10
8.476515
 20
-0.372259
 30
0.0
 11
8.542132
 21
-0.372259
 31
0.0
  0
LINE
  5
10C
330
1F
100
AcDbEntity
  8
XR$1$TB_712_1
  6
VERDECKT2_S2
 62
     7
440
 33554687
370
    13
100
AcDbLine
 10
8.476515
 20
-0.364265
 30
0.0
 11
8.542132
 21
-0.364265
 31
0.0
  0
LINE
  5
10D
330
1F
100
AcDbEntity
  8
XR$1$TB_712_1
  6
AUSGEZOGEN
 62
     7
440
 33554687
370
    25
100
AcDbLine
 10
8.542132
 20
-0.358259
 30
0.0
 11
8.476515
 21
-0.358259
 31
0.0
  0
LINE
  5
10E
330
1F
100
AcDbEntity
  8
XR$1$TB_712_1
  6
AUSGEZOGEN
 62
     7
440
 33554687
370
    -3
100
AcDbLine
 10
8.501612
 20
-0.349515
 30
0.0
 11
8.550612
 21
-0.349515
 31
0.0
  0
LINE
  5
10F
330
1F
100
AcDbEntity
  8
XR$1$TB_712_1
  6
AUSGEZOGEN
 62
     7
440
 33554687
370
    -3
100
AcDbLine
 10
8.552612
 20
-0.349515
 30
0.0
 11
8.601612
 21
-0.349515
 31
0.0
  0
LINE
  5
110
330
1F
100
AcDbEntity
  8
XR$1$TB_712_1
  6
AUSGEZOGEN
 62
     7
440
 33554687
370
    -3
100
AcDbLine
 10
8.501612
 20
-0.351515
 30
0.0
 11
8.501612
 21
-0.349515
 31
0.0
  0
LINE
  5
111
330
1F
100
AcDbEntity
  8
XR$1$TB_712_1
  6
AUSGEZOGEN
 62
     7
440
 33554687
370
    -3
100
AcDbLine
 10
8.601612
 20
-0.351515
 30
0.0
 11
8.601612
 21
-0.349515
 31
0.0
  0
LINE
  5
112
330
1F
100
AcDbEntity
  8
XR$1$TB_712_1
  6
AUSGEZOGEN
 62
     7
440
 33554687
370
    -3
100
AcDbLine
 10
8.501612
 20
-0.351515
 30
0.0
 11
8.601612
 21
-0.351515
 31
0.0
  0
LINE
  5
113
330
1F
100
AcDbEntity
  8
XR$1$TB_712_1
  6
AUSGEZOGEN
 62
     7
440
 33554687
370
    -3
100
AcDbLine
 10
8.552612
 20
-0.349515
 30
0.0
 11
8.552612
 21
-0.299515
 31
0.0
  0
LINE
  5
114
330
1F
100
AcDbEntity
  8
XR$1$TB_712_1
  6
AUSGEZOGEN
 62
     7
440
 33554687
370
    -3
100
AcDbLine
 10
8.550612
 20
-0.299515
 30
0.0
 11
8.552612
 21
-0.299515
 31
0.0
  0
LINE
  5
115
330
1F
100
AcDbEntity
  8
XR$1$TB_712_1
  6
AUSGEZOGEN
 62
     7
440
 33554687
370
    -3
100
AcDbLine
 10
8.550612
 20
-0.349515
 30
0.0
 11
8.550612
 21
-0.299515
 31
0.0
  0
LINE
  5
116
330
1F
100
AcDbEntity
  8
XR$1$TB_712_1
  6
AUSGEZOGEN
 62
     7
440
 33554687
370
    25
100
AcDbLine
 10
8.550132
 20
-0.378259
 30
0.0
 11
8.550132
 21
-0.358259
 31
0.0
  0
LINE
  5
117
330
1F
100
AcDbEntity
  8
XR$1$TB_712_1
  6
AUSGEZOGEN
 62
     7
440
 33554687
370
    25
100
AcDbLine
 10
9.04364
 20
-0.358259
 30
0.0
 11
8.550132
 21
-0.358259
 31
0.0
  0
LINE
  5
118
330
1F
100
AcDbEntity
  8
XR$1$TB_712_1
  6
AUSGEZOGEN
 62
     7
440
 33554687
370
    -3
100
AcDbLine
 10
8.535132
 20
-0.355515
 30
0.0
 11
8.539576
 21
-0.355515
 31
0.0
  0
LINE
  5
119
330
1F
100
AcDbEntity
  8
XR$1$TB_712_1
  6
AUSGEZOGEN
 62
     7
440
 33554687
370
    -3
100
AcDbLine
 10
8.552689
 20
-0.355515
 30
0.0
 11
8.557132
 21
-0.355515
 31
0.0
  0
LINE
  5
11A
330
1F
100
AcDbEntity
  8
XR$1$TB_712_1
  6
AUSGEZOGEN
 62
     7
440
 33554687
370
    -3
100
AcDbLine
 10
8.542632
 20
-0.355515
 30
0.0
 11
8.539576
 21
-0.355515
 31
0.0
  0
LINE
  5
11B
330
1F
100
AcDbEntity
  8
XR$1$TB_712_1
  6
AUSGEZOGEN
 62
     7
440
 33554687
370
    -3
100
AcDbLine
 10
8.552689
 20
-0.355515
 30
0.0
 11
8.549632
 21
-0.355515
 31
0.0
  0
ARC
  5
11C
330
1F
100
AcDbEntity
  8
XR$1$TB_712_1
  6
AUSGEZOGEN
 62
     7
440
 33554687
370
    -3
100
AcDbCircle
 10
8.539576
 20
-0.354015
 30
0.0
 40
0.0015
100
AcDbArc
 50
210.0
 51
270.0
  0
ARC
  5
11D
330
1F
100
AcDbEntity
  8
XR$1$TB_712_1
  6
AUSGEZOGEN
 62
     7
440
 33554687
370
    -3
100
AcDbCircle
 10
8.552689
 20
-0.354015
 30
0.0
 40
0.0015
100
AcDbArc
 50
270.0
 51
330.0
  0
LINE
  5
11E
330
1F
100
AcDbEntity
  8
XR$1$TB_712_1
  6
AUSGEZOGEN
 62
     7
440
 33554687
370
    -3
100
AcDbLine
 10
8.554132
 20
-0.354515
 30
0.0
 11
8.553988
 21
-0.354765
 31
0.0
  0
LINE
  5
11F
330
1F
100
AcDbEntity
  8
XR$1$TB_712_1
  6
AUSGEZOGEN
 62
     7
440
 33554687
370
    -3
100
AcDbLine
 10
8.538132
 20
-0.354515
 30
0.0
 11
8.538277
 21
-0.354765
 31
0.0
  0
LINE
  5
120
330
1F
100
AcDbEntity
  8
XR$1$TB_712_1
  6
AUSGEZOGEN
 62
     7
440
 33554687
370
    -3
100
AcDbLine
 10
8.596132
 20
-0.354515
 30
0.0
 11
8.594132
 21
-0.354515
 31
0.0
  0
LINE
  5
121
330
1F
100
AcDbEntity
  8
XR$1$TB_712_1
  6
AUSGEZOGEN
 62
     7
440
 33554687
370
    -3
100
AcDbLine
 10
8.556132
 20
-0.354515
 30
0.0
 11
8.554132
 21
-0.354515
 31
0.0
  0
LINE
  5
122
330
1F
100
AcDbEntity
  8
XR$1$TB_712_1
  6
AUSGEZOGEN
 62
     7
440
 33554687
370
    -3
100
AcDbLine
 10
8.538132
 20
-0.354515
 30
0.0
 11
8.536132
 21
-0.354515
 31
0.0
  0
LINE
  5
123
330
1F
100
AcDbEntity
  8
XR$1$TB_712_1
  6
AUSGEZOGEN
 62
     7
440
 33554687
370
    -3
100
AcDbLine
 10
8.498132
 20
-0.354515
 30
0.0
 11
8.496132
 21
-0.354515
 31
0.0
  0
LINE
  5
124
330
1F
100
AcDbEntity
  8
XR$1$TB_712_1
  6
AUSGEZOGEN
 62
     7
440
 33554687
370
    -3
100
AcDbLine
 10
8.596132
 20
-0.354515
 30
0.0
 11
8.596132
 21
-0.351515
 31
0.0
  0
LINE
  5
125
330
1F
100
AcDbEntity
  8
XR$1$TB_712_1
  6
AUSGEZOGEN
 62
     7
440
 33554687
370
    -3
100
AcDbLine
 10
8.496132
 20
-0.351515
 30
0.0
 11
8.496132
 21
-0.354515
 31
0.0
  0
LINE
  5
126
330
1F
100
AcDbEntity
  8
XR$1$TB_712_1
  6
AUSGEZOGEN
 62
     7
440
 33554687
370
    -3
100
AcDbLine
 10
8.554132
 20
-0.351515
 30
0.0
 11
8.554132
 21
-0.354515
 31
0.0
  0
LINE
  5
127
330
1F
100
AcDbEntity
  8
XR$1$TB_712_1
  6
AUSGEZOGEN
 62
     7
440
 33554687
370
    -3
100
AcDbLine
 10
8.538132
 20
-0.354515
 30
0.0
 11
8.538132
 21
-0.351515
 31
0.0
  0
LINE
  5
128
330
1F
100
AcDbEntity
  8
XR$1$TB_712_1
  6
AUSGEZOGEN
 62
     7
440
 33554687
370
    -3
100
AcDbLine
 10
8.556132
 20
-0.354515
 30
0.0
 11
8.594132
 21
-0.354515
 31
0.0
  0
LINE
  5
129
330
1F
100
AcDbEntity
  8
XR$1$TB_712_1
  6
AUSGEZOGEN
 62
     7
440
 33554687
370
    -3
100
AcDbLine
 10
8.549642
 20
-0.354515
 30
0.0
 11
8.553132
 21
-0.354515
 31
0.0
  0
LINE
  5
12A
330
1F
100
AcDbEntity
  8
XR$1$TB_712_1
  6
AUSGEZOGEN
 62
     7
440
 33554687
370
    -3
100
AcDbLine
 10
8.539132
 20
-0.354515
 30
0.0
 11
8.542622
 21
-0.354515
 31
0.0
  0
LINE
  5
12B
330
1F
100
AcDbEntity
  8
XR$1$TB_712_1
  6
AUSGEZOGEN
 62
     7
440
 33554687
370
    -3
100
AcDbLine
 10
8.498132
 20
-0.354515
 30
0.0
 11
8.536132
 21
-0.354515
 31
0.0
  0
LINE
  5
12C
330
1F
100
AcDbEntity
  8
XR$1$TB_712_1
  6
AUSGEZOGEN
 62
     7
440
 33554687
370
    -3
100
AcDbLine
 10
8.553132
 20
-0.354515
 30
0.0
 11
8.554132
 21
-0.354515
 31
0.0
  0
LINE
  5
12D
330
1F
100
AcDbEntity
  8
XR$1$TB_712_1
  6
AUSGEZOGEN
 62
     7
440
 33554687
370
    -3
100
AcDbLine
 10
8.538132
 20
-0.354515
 30
0.0
 11
8.539132
 21
-0.354515
 31
0.0
  0
LINE
  5
12E
330
1F
100
AcDbEntity
  8
XR$1$TB_712_1
  6
AUSGEZOGEN
 62
     7
440
 33554687
370
    -3
100
AcDbLine
 10
8.549642
 20
-0.354515
 30
0.0
 11
8.549632
 21
-0.354515
 31
0.0
  0
LINE
  5
12F
330
1F
100
AcDbEntity
  8
XR$1$TB_712_1
  6
AUSGEZOGEN
 62
     7
440
 33554687
370
    -3
100
AcDbLine
 10
8.542632
 20
-0.354515
 30
0.0
 11
8.542622
 21
-0.354515
 31
0.0
  0
LINE
  5
130
330
1F
100
AcDbEntity
  8
XR$1$TB_712_1
  6
AUSGEZOGEN
 62
     7
440
 33554687
370
    -3
100
AcDbLine
 10
8.542622
 20
-0.351515
 30
0.0
 11
8.542632
 21
-0.351515
 31
0.0
  0
LINE
  5
131
330
1F
100
AcDbEntity
  8
XR$1$TB_712_1
  6
AUSGEZOGEN
 62
     7
440
 33554687
370
    -3
100
AcDbLine
 10
8.549632
 20
-0.351515
 30
0.0
 11
8.549642
 21
-0.351515
 31
0.0
  0
LINE
  5
132
330
1F
100
AcDbEntity
  8
XR$1$TB_712_1
  6
AUSGEZOGEN
 62
     7
440
 33554687
370
    -3
100
AcDbLine
 10
8.542632
 20
-0.351515
 30
0.0
 11
8.542632
 21
-0.357515
 31
0.0
  0
LINE
  5
133
330
1F
100
AcDbEntity
  8
XR$1$TB_712_1
  6
AUSGEZOGEN
 62
     7
440
 33554687
370
    -3
100
AcDbLine
 10
8.549632
 20
-0.351515
 30
0.0
 11
8.549632
 21
-0.357515
 31
0.0
  0
ARC
  5
134
330
1F
100
AcDbEntity
  8
XR$1$TB_712_1
  6
AUSGEZOGEN
 62
     7
440
 33554687
370
    -3
100
AcDbCircle
 10
8.546132
 20
-0.361265
 30
0.0
 40
0.0015
100
AcDbArc
 50
0.0
 51
180.0
  0
LINE
  5
135
330
1F
100
AcDbEntity
  8
XR$1$TB_712_1
  6
AUSGEZOGEN
 62
     7
440
 33554687
370
    -3
100
AcDbLine
 10
8.547632
 20
-0.361265
 30
0.0
 11
8.547632
 21
-0.367265
 31
0.0
  0
LINE
  5
136
330
1F
100
AcDbEntity
  8
XR$1$TB_712_1
  6
AUSGEZOGEN
 62
     7
440
 33554687
370
    -3
100
AcDbLine
 10
8.544632
 20
-0.367265
 30
0.0
 11
8.544632
 21
-0.361265
 31
0.0
  0
ARC
  5
137
330
1F
100
AcDbEntity
  8
XR$1$TB_712_1
  6
AUSGEZOGEN
 62
     7
440
 33554687
370
    -3
100
AcDbCircle
 10
8.546132
 20
-0.367265
 30
0.0
 40
0.0015
100
AcDbArc
 50
180.0
 51
0.0
  0
LINE
  5
138
330
1F
100
AcDbEntity
  8
XR$1$TB_712_1
  6
AUSGEZOGEN
 62
     7
440
 33554687
370
    -3
100
AcDbLine
 10
8.549632
 20
-0.364765
 30
0.0
 11
8.549632
 21
-0.357515
 31
0.0
  0
ARC
  5
139
330
1F
100
AcDbEntity
  8
XR$1$TB_712_1
  6
AUSGEZOGEN
 62
     7
440
 33554687
370
    -3
100
AcDbCircle
 10
8.550132
 20
-0.364765
 30
0.0
 40
0.0005
100
AcDbArc
 50
180.0
 51
270.0
  0
LINE
  5
13A
330
1F
100
AcDbEntity
  8
XR$1$TB_712_1
  6
AUSGEZOGEN
 62
     7
440
 33554687
370
    -3
100
AcDbLine
 10
8.546132
 20
-0.361265
 30
0.0
 11
8.546132
 21
-0.367123
 31
0.0
  0
ARC
  5
13B
330
1F
100
AcDbEntity
  8
XR$1$TB_712_1
  6
AUSGEZOGEN
 62
     7
440
 33554687
370
    -3
100
AcDbCircle
 10
8.542132
 20
-0.364765
 30
0.0
 40
0.0005
100
AcDbArc
 50
270.0
 51
0.0
  0
LINE
  5
13C
330
1F
100
AcDbEntity
  8
XR$1$TB_712_1
  6
AUSGEZOGEN
 62
     7
440
 33554687
370
    -3
100
AcDbLine
 10
8.542632
 20
-0.357515
 30
0.0
 11
8.542632
 21
-0.364765
 31
0.0
  0
ARC
  5
13D
330
1F
100
AcDbEntity
  8
XR$1$TB_712_1
  6
AUSGEZOGEN
 62
     7
440
 33554687
370
    -3
100
AcDbCircle
 10
8.520291
 20
-0.352261
 30
0.0
 40
0.006
100
AcDbArc
 50
273.846239
 51
302.843396
  0
ARC
  5
13E
330
1F
100
AcDbEntity
  8
XR$1$TB_712_1
  6
AUSGEZOGEN
 62
     7
440
 33554687
370
    -3
100
AcDbCircle
 10
8.520291
 20
-0.352261
 30
0.0
 40
0.006
100
AcDbArc
 50
257.843396
 51
273.846239
  0
ARC
  5
13F
330
1F
100
AcDbEntity
  8
XR$1$TB_712_1
  6
AUSGEZOGEN
 62
     7
440
 33554687
370
    -3
100
AcDbCircle
 10
8.520291
 20
-0.352261
 30
0.0
 40
0.0029999999999999
100
AcDbArc
 50
257.843396
 51
273.846239
  0
ARC
  5
140
330
1F
100
AcDbEntity
  8
XR$1$TB_712_1
  6
AUSGEZOGEN
 62
     7
440
 33554687
370
    -3
100
AcDbCircle
 10
8.520291
 20
-0.352261
 30
0.0
 40
0.003
100
AcDbArc
 50
273.846239
 51
302.843396
  0
LINE
  5
141
330
1F
100
AcDbEntity
  8
XR$1$TB_712_1
  6
AUSGEZOGEN
 62
     7
440
 33554687
370
    -3
100
AcDbLine
 10
8.519027
 20
-0.358126
 30
0.0
 11
8.502544
 21
-0.354575
 31
0.0
  0
ARC
  5
142
330
1F
100
AcDbEntity
  8
XR$1$TB_712_1
  6
AUSGEZOGEN
 62
     7
440
 33554687
370
    -3
100
AcDbCircle
 10
8.501912
 20
-0.357508
 30
0.0
 40
0.003
100
AcDbArc
 50
77.843396
 51
93.846239
  0
LINE
  5
143
330
1F
100
AcDbEntity
  8
XR$1$TB_712_1
  6
AUSGEZOGEN
 62
     7
440
 33554687
370
    -3
100
AcDbLine
 10
8.516509
 20
-0.354515
 30
0.0
 11
8.519659
 21
-0.355193
 31
0.0
  0
LINE
  5
144
330
1F
100
AcDbEntity
  8
XR$1$TB_712_1
  6
AUSGEZOGEN
 62
     7
440
 33554687
370
    -3
100
AcDbLine
 10
8.521918
 20
-0.354781
 30
0.0
 11
8.522331
 21
-0.354515
 31
0.0
  0
LINE
  5
145
330
1F
100
AcDbEntity
  8
XR$1$TB_712_1
  6
AUSGEZOGEN
 62
     7
440
 33554687
370
    -3
100
AcDbLine
 10
8.527862
 20
-0.354515
 30
0.0
 11
8.526498
 21
-0.355395
 31
0.0
  0
LINE
  5
146
330
1F
100
AcDbEntity
  8
XR$1$TB_712_1
  6
AUSGEZOGEN
 62
     7
440
 33554687
370
    -3
100
AcDbLine
 10
8.526498
 20
-0.355395
 30
0.0
 11
8.523545
 21
-0.357302
 31
0.0
  0
LINE
  5
147
330
1F
100
AcDbEntity
  8
XR$1$TB_712_1
  6
AUSGEZOGEN
 62
     7
440
 33554687
370
    -3
100
AcDbLine
 10
8.526313
 20
-0.355515
 30
0.0
 11
8.535132
 21
-0.355515
 31
0.0
  0
LINE
  5
148
330
1F
100
AcDbEntity
  8
XR$1$TB_712_1
  6
AUSGEZOGEN
 62
     7
440
 33554687
370
    13
100
AcDbLine
 10
8.546137
 20
-0.351515
 30
0.0
 11
8.546137
 21
-0.340993
 31
0.0
  0
ARC
  5
149
330
1F
100
AcDbEntity
  8
XR$1$TB_712_1
  6
AUSGEZOGEN
 62
     7
440
 33554687
370
    -3
100
AcDbCircle
 10
8.571984
 20
-0.352261
 30
0.0
 40
0.006
100
AcDbArc
 50
237.156604
 51
266.153761
  0
ARC
  5
14A
330
1F
100
AcDbEntity
  8
XR$1$TB_712_1
  6
AUSGEZOGEN
 62
     7
440
 33554687
370
    -3
100
AcDbCircle
 10
8.571984
 20
-0.352261
 30
0.0
 40
0.006
100
AcDbArc
 50
266.153761
 51
282.156604
  0
ARC
  5
14B
330
1F
100
AcDbEntity
  8
XR$1$TB_712_1
  6
AUSGEZOGEN
 62
     7
440
 33554687
370
    -3
100
AcDbCircle
 10
8.571984
 20
-0.352261
 30
0.0
 40
0.0029999999999999
100
AcDbArc
 50
266.153761
 51
282.156604
  0
ARC
  5
14C
330
1F
100
AcDbEntity
  8
XR$1$TB_712_1
  6
AUSGEZOGEN
 62
     7
440
 33554687
370
    -3
100
AcDbCircle
 10
8.571984
 20
-0.352261
 30
0.0
 40
0.003
100
AcDbArc
 50
237.156604
 51
266.153761
  0
LINE
  5
14D
330
1F
100
AcDbEntity
  8
XR$1$TB_712_1
  6
AUSGEZOGEN
 62
     7
440
 33554687
370
    -3
100
AcDbLine
 10
8.573247
 20
-0.358126
 30
0.0
 11
8.589731
 21
-0.354575
 31
0.0
  0
ARC
  5
14E
330
1F
100
AcDbEntity
  8
XR$1$TB_712_1
  6
AUSGEZOGEN
 62
     7
440
 33554687
370
    -3
100
AcDbCircle
 10
8.590363
 20
-0.357508
 30
0.0
 40
0.003
100
AcDbArc
 50
86.153761
 51
102.156604
  0
LINE
  5
14F
330
1F
100
AcDbEntity
  8
XR$1$TB_712_1
  6
AUSGEZOGEN
 62
     7
440
 33554687
370
    -3
100
AcDbLine
 10
8.575766
 20
-0.354515
 30
0.0
 11
8.572615
 21
-0.355193
 31
0.0
  0
LINE
  5
150
330
1F
100
AcDbEntity
  8
XR$1$TB_712_1
  6
AUSGEZOGEN
 62
     7
440
 33554687
370
    -3
100
AcDbLine
 10
8.570357
 20
-0.354781
 30
0.0
 11
8.569944
 21
-0.354515
 31
0.0
  0
LINE
  5
151
330
1F
100
AcDbEntity
  8
XR$1$TB_712_1
  6
AUSGEZOGEN
 62
     7
440
 33554687
370
    -3
100
AcDbLine
 10
8.564412
 20
-0.354515
 30
0.0
 11
8.565777
 21
-0.355395
 31
0.0
  0
LINE
  5
152
330
1F
100
AcDbEntity
  8
XR$1$TB_712_1
  6
AUSGEZOGEN
 62
     7
440
 33554687
370
    -3
100
AcDbLine
 10
8.565777
 20
-0.355395
 30
0.0
 11
8.56873
 21
-0.357302
 31
0.0
  0
LINE
  5
153
330
1F
100
AcDbEntity
  8
XR$1$TB_712_1
  6
AUSGEZOGEN
 62
     7
440
 33554687
370
    -3
100
AcDbLine
 10
8.557132
 20
-0.355515
 30
0.0
 11
8.565962
 21
-0.355515
 31
0.0
  0
LINE
  5
154
330
1F
100
AcDbEntity
  8
XR$1$TB_712_1
  6
AUSGEZOGEN
 62
     7
440
 33554687
370
    -3
100
AcDbLine
 10
8.542132
 20
-0.371765
 30
0.0
 11
8.550132
 21
-0.371765
 31
0.0
  0
LINE
  5
155
330
1F
100
AcDbEntity
  8
XR$1$TB_712_1
  6
VERDECKT2_S2
 62
     7
440
 33554687
370
    13
100
AcDbLine
 10
8.537526
 20
-0.365265
 30
0.0
 11
8.542132
 21
-0.365265
 31
0.0
  0
LINE
  5
156
330
1F
100
AcDbEntity
  8
XR$1$TB_712_1
  6
VERDECKT2_S2
 62
     7
440
 33554687
370
    13
100
AcDbLine
 10
8.535382
 20
-0.371765
 30
0.0
 11
8.542132
 21
-0.371765
 31
0.0
  0
LINE
  5
157
330
1F
100
AcDbEntity
  8
XR$1$TB_712_1
  6
VERDECKT2_S2
 62
     7
440
 33554687
370
    13
100
AcDbLine
 10
8.550132
 20
-0.371765
 30
0.0
 11
8.556882
 21
-0.371765
 31
0.0
  0
LINE
  5
158
330
1F
100
AcDbEntity
  8
XR$1$TB_712_1
  6
VERDECKT2_S2
 62
     7
440
 33554687
370
    13
100
AcDbLine
 10
8.554738
 20
-0.365265
 30
0.0
 11
8.550132
 21
-0.365265
 31
0.0
  0
ARC
  5
159
330
1F
100
AcDbEntity
  8
XR$1$TB_712_1
  6
VERDECKT2_S2
 62
     7
440
 33554687
370
    13
100
AcDbCircle
 10
8.535382
 20
-0.369765
 30
0.0
 40
0.002
100
AcDbArc
 50
180.0
 51
270.0
  0
LINE
  5
15A
330
1F
100
AcDbEntity
  8
XR$1$TB_712_1
  6
VERDECKT2_S2
 62
     7
440
 33554687
370
    13
100
AcDbLine
 10
8.533382
 20
-0.365265
 30
0.0
 11
8.533382
 21
-0.369765
 31
0.0
  0
ARC
  5
15B
330
1F
100
AcDbEntity
  8
XR$1$TB_712_1
  6
VERDECKT2_S2
 62
     7
440
 33554687
370
    13
100
AcDbCircle
 10
8.534382
 20
-0.365265
 30
0.0
 40
0.001
100
AcDbArc
 50
90.0
 51
180.0
  0
LINE
  5
15C
330
1F
100
AcDbEntity
  8
XR$1$TB_712_1
  6
VERDECKT2_S2
 62
     7
440
 33554687
370
    13
100
AcDbLine
 10
8.537344
 20
-0.36523
 30
0.0
 11
8.53497
 21
-0.364299
 31
0.0
  0
LINE
  5
15D
330
1F
100
AcDbEntity
  8
XR$1$TB_712_1
  6
VERDECKT2_S2
 62
     7
440
 33554687
370
    13
100
AcDbLine
 10
8.534788
 20
-0.364265
 30
0.0
 11
8.534382
 21
-0.364265
 31
0.0
  0
ARC
  5
15E
330
1F
100
AcDbEntity
  8
XR$1$TB_712_1
  6
VERDECKT2_S2
 62
     7
440
 33554687
370
    13
100
AcDbCircle
 10
8.534788
 20
-0.364765
 30
0.0
 40
0.0004999999999999
100
AcDbArc
 50
68.583286
 51
90.0
  0
ARC
  5
15F
330
1F
100
AcDbEntity
  8
XR$1$TB_712_1
  6
VERDECKT2_S2
 62
     7
440
 33554687
370
    13
100
AcDbCircle
 10
8.537526
 20
-0.364765
 30
0.0
 40
0.0004999999999999
100
AcDbArc
 50
248.583286
 51
270.0
  0
ARC
  5
160
330
1F
100
AcDbEntity
  8
XR$1$TB_712_1
  6
VERDECKT2_S2
 62
     7
440
 33554687
370
    13
100
AcDbCircle
 10
8.556882
 20
-0.369765
 30
0.0
 40
0.002
100
AcDbArc
 50
270.0
 51
0.0
  0
LINE
  5
161
330
1F
100
AcDbEntity
  8
XR$1$TB_712_1
  6
VERDECKT2_S2
 62
     7
440
 33554687
370
    13
100
AcDbLine
 10
8.558882
 20
-0.369765
 30
0.0
 11
8.558882
 21
-0.365265
 31
0.0
  0
ARC
  5
162
330
1F
100
AcDbEntity
  8
XR$1$TB_712_1
  6
VERDECKT2_S2
 62
     7
440
 33554687
370
    13
100
AcDbCircle
 10
8.557882
 20
-0.365265
 30
0.0
 40
0.001
100
AcDbArc
 50
0.0
 51
90.0
  0
LINE
  5
163
330
1F
100
AcDbEntity
  8
XR$1$TB_712_1
  6
VERDECKT2_S2
 62
     7
440
 33554687
370
    13
100
AcDbLine
 10
8.557882
 20
-0.364265
 30
0.0
 11
8.557477
 21
-0.364265
 31
0.0
  0
LINE
  5
164
330
1F
100
AcDbEntity
  8
XR$1$TB_712_1
  6
VERDECKT2_S2
 62
     7
440
 33554687
370
    13
100
AcDbLine
 10
8.557294
 20
-0.364299
 30
0.0
 11
8.554921
 21
-0.36523
 31
0.0
  0
ARC
  5
165
330
1F
100
AcDbEntity
  8
XR$1$TB_712_1
  6
VERDECKT2_S2
 62
     7
440
 33554687
370
    13
100
AcDbCircle
 10
8.557477
 20
-0.364765
 30
0.0
 40
0.0004999999999999
100
AcDbArc
 50
90.0
 51
111.416714
  0
ARC
  5
166
330
1F
100
AcDbEntity
  8
XR$1$TB_712_1
  6
VERDECKT2_S2
 62
     7
440
 33554687
370
    13
100
AcDbCircle
 10
8.554738
 20
-0.364765
 30
0.0
 40
0.0004999999999999
100
AcDbArc
 50
270.0
 51
291.416714
  0
LINE
  5
167
330
1F
100
AcDbEntity
  8
XR$1$TB_712_1
  6
AUSGEZOGEN
 62
     7
440
 33554687
370
    -3
100
AcDbLine
 10
8.496132
 20
-0.351515
 30
0.0
 11
8.596132
 21
-0.351515
 31
0.0
  0
LINE
  5
168
330
1F
100
AcDbEntity
  8
XR$1$TB_712_1
  6
AUSGEZOGEN
 62
     7
440
 33554687
370
    -3
100
AcDbLine
 10
9.04864
 20
-0.351515
 30
0.0
 11
9.05064
 21
-0.351515
 31
0.0
  0
LINE
  5
169
330
1F
100
AcDbEntity
  8
XR$1$TB_712_1
  6
AUSGEZOGEN
 62
     7
440
 33554687
370
    -3
100
AcDbLine
 10
9.05064
 20
-0.354515
 30
0.0
 11
9.04864
 21
-0.354515
 31
0.0
  0
LINE
  5
16A
330
1F
100
AcDbEntity
  8
XR$1$TB_712_1
  6
AUSGEZOGEN
 62
     7
440
 33554687
370
    -3
100
AcDbLine
 10
9.05064
 20
-0.354515
 30
0.0
 11
9.05064
 21
-0.351515
 31
0.0
  0
LINE
  5
16B
330
1F
100
AcDbEntity
  8
XR$1$TB_712_1
  6
AUSGEZOGEN
 62
     7
440
 33554687
370
    -3
100
AcDbLine
 10
8.99714
 20
-0.351515
 30
0.0
 11
8.99914
 21
-0.351515
 31
0.0
  0
LINE
  5
16C
330
1F
100
AcDbEntity
  8
XR$1$TB_712_1
  6
AUSGEZOGEN
 62
     7
440
 33554687
370
    -3
100
AcDbLine
 10
8.99914
 20
-0.354515
 30
0.0
 11
8.99714
 21
-0.354515
 31
0.0
  0
LINE
  5
16D
330
1F
100
AcDbEntity
  8
XR$1$TB_712_1
  6
AUSGEZOGEN
 62
     7
440
 33554687
370
    -3
100
AcDbLine
 10
8.99714
 20
-0.351515
 30
0.0
 11
8.99714
 21
-0.354515
 31
0.0
  0
LINE
  5
16E
330
1F
100
AcDbEntity
  8
XR$1$TB_712_1
  6
AUSGEZOGEN
 62
     7
440
 33554687
370
    -3
100
AcDbLine
 10
9.04864
 20
-0.351515
 30
0.0
 11
8.99914
 21
-0.351515
 31
0.0
  0
LINE
  5
16F
330
1F
100
AcDbEntity
  8
XR$1$TB_712_1
  6
AUSGEZOGEN
 62
     7
440
 33554687
370
    -3
100
AcDbLine
 10
8.99914
 20
-0.354515
 30
0.0
 11
9.04864
 21
-0.354515
 31
0.0
  0
ARC
  5
170
330
1F
100
AcDbEntity
  8
XR$1$TB_712_1
  6
AUSGEZOGEN
 62
     7
440
 33554687
370
    -3
100
AcDbCircle
 10
9.040583
 20
-0.354015
 30
0.0
 40
0.0015
100
AcDbArc
 50
210.0
 51
270.0
  0
LINE
  5
171
330
1F
100
AcDbEntity
  8
XR$1$TB_712_1
  6
AUSGEZOGEN
 62
     7
440
 33554687
370
    -3
100
AcDbLine
 10
9.04714
 20
-0.355515
 30
0.0
 11
9.040583
 21
-0.355515
 31
0.0
  0
LINE
  5
172
330
1F
100
AcDbEntity
  8
XR$1$TB_712_1
  6
AUSGEZOGEN
 62
     7
440
 33554687
370
    -3
100
AcDbLine
 10
9.047197
 20
-0.355515
 30
0.0
 11
9.04714
 21
-0.355515
 31
0.0
  0
ARC
  5
173
330
1F
100
AcDbEntity
  8
XR$1$TB_712_1
  6
AUSGEZOGEN
 62
     7
440
 33554687
370
    -3
100
AcDbCircle
 10
9.047197
 20
-0.354015
 30
0.0
 40
0.0015
100
AcDbArc
 50
270.0
 51
330.0
  0
LINE
  5
174
330
1F
100
AcDbEntity
  8
XR$1$TB_712_1
  6
AUSGEZOGEN
 62
     7
440
 33554687
370
    -3
100
AcDbLine
 10
9.03914
 20
-0.354515
 30
0.0
 11
9.039284
 21
-0.354765
 31
0.0
  0
LINE
  5
175
330
1F
100
AcDbEntity
  8
XR$1$TB_712_1
  6
AUSGEZOGEN
 62
     7
440
 33554687
370
    -3
100
AcDbLine
 10
9.048496
 20
-0.354765
 30
0.0
 11
9.04864
 21
-0.354515
 31
0.0
  0
LINE
  5
176
330
1F
100
AcDbEntity
  8
XR$1$TB_712_1
  6
AUSGEZOGEN
 62
     7
440
 33554687
370
    -3
100
AcDbLine
 10
9.05064
 20
-0.357515
 30
0.0
 11
9.05064
 21
-0.354515
 31
0.0
  0
LINE
  5
177
330
1F
100
AcDbEntity
  8
XR$1$TB_712_1
  6
AUSGEZOGEN
 62
     7
440
 33554687
370
    -3
100
AcDbLine
 10
9.04564
 20
-0.367265
 30
0.0
 11
9.04564
 21
-0.362265
 31
0.0
  0
ARC
  5
178
330
1F
100
AcDbEntity
  8
XR$1$TB_712_1
  6
AUSGEZOGEN
 62
     7
440
 33554687
370
    -3
100
AcDbCircle
 10
9.04714
 20
-0.362265
 30
0.0
 40
0.0015
100
AcDbArc
 50
0.0
 51
180.0
  0
LINE
  5
179
330
1F
100
AcDbEntity
  8
XR$1$TB_712_1
  6
AUSGEZOGEN
 62
     7
440
 33554687
370
    -3
100
AcDbLine
 10
9.04864
 20
-0.362265
 30
0.0
 11
9.04864
 21
-0.367265
 31
0.0
  0
LINE
  5
17A
330
1F
100
AcDbEntity
  8
XR$1$TB_712_1
  6
AUSGEZOGEN
 62
     7
440
 33554687
370
    -3
100
AcDbLine
 10
9.027506
 20
-0.35539
 30
0.0
 11
9.024555
 21
-0.357298
 31
0.0
  0
ARC
  5
17B
330
1F
100
AcDbEntity
  8
XR$1$TB_712_1
  6
AUSGEZOGEN
 62
     7
440
 33554687
370
    -3
100
AcDbCircle
 10
9.021298
 20
-0.352259
 30
0.0
 40
0.003
100
AcDbArc
 50
257.877543
 51
273.880386
  0
ARC
  5
17C
330
1F
100
AcDbEntity
  8
XR$1$TB_712_1
  6
AUSGEZOGEN
 62
     7
440
 33554687
370
    -3
100
AcDbCircle
 10
9.021298
 20
-0.352259
 30
0.0
 40
0.003
100
AcDbArc
 50
273.880386
 51
302.877543
  0
ARC
  5
17D
330
1F
100
AcDbEntity
  8
XR$1$TB_712_1
  6
AUSGEZOGEN
 62
     7
440
 33554687
370
    -3
100
AcDbCircle
 10
9.021298
 20
-0.352259
 30
0.0
 40
0.006
100
AcDbArc
 50
273.880386
 51
302.877543
  0
ARC
  5
17E
330
1F
100
AcDbEntity
  8
XR$1$TB_712_1
  6
AUSGEZOGEN
 62
     7
440
 33554687
370
    -3
100
AcDbCircle
 10
9.021298
 20
-0.352259
 30
0.0
 40
0.0059999999999999
100
AcDbArc
 50
257.877543
 51
273.880386
  0
LINE
  5
17F
330
1F
100
AcDbEntity
  8
XR$1$TB_712_1
  6
AUSGEZOGEN
 62
     7
440
 33554687
370
    -3
100
AcDbLine
 10
9.020038
 20
-0.358125
 30
0.0
 11
9.003552
 21
-0.354584
 31
0.0
  0
ARC
  5
180
330
1F
100
AcDbEntity
  8
XR$1$TB_712_1
  6
AUSGEZOGEN
 62
     7
440
 33554687
370
    -3
100
AcDbCircle
 10
9.002922
 20
-0.357517
 30
0.0
 40
0.0030000000000001
100
AcDbArc
 50
77.877543
 51
93.880386
  0
LINE
  5
181
330
1F
100
AcDbEntity
  8
XR$1$TB_712_1
  6
AUSGEZOGEN
 62
     7
440
 33554687
370
    -3
100
AcDbLine
 10
9.017516
 20
-0.354515
 30
0.0
 11
9.020668
 21
-0.355192
 31
0.0
  0
LINE
  5
182
330
1F
100
AcDbEntity
  8
XR$1$TB_712_1
  6
AUSGEZOGEN
 62
     7
440
 33554687
370
    -3
100
AcDbLine
 10
9.022926
 20
-0.354778
 30
0.0
 11
9.023334
 21
-0.354515
 31
0.0
  0
LINE
  5
183
330
1F
100
AcDbEntity
  8
XR$1$TB_712_1
  6
AUSGEZOGEN
 62
     7
440
 33554687
370
    -3
100
AcDbLine
 10
9.02886
 20
-0.354515
 30
0.0
 11
9.027506
 21
-0.35539
 31
0.0
  0
LINE
  5
184
330
1F
100
AcDbEntity
  8
XR$1$TB_712_1
  6
VERDECKT2_S2
 62
     7
440
 33554687
370
    13
100
AcDbLine
 10
9.03439
 20
-0.369765
 30
0.0
 11
9.03439
 21
-0.365265
 31
0.0
  0
ARC
  5
185
330
1F
100
AcDbEntity
  8
XR$1$TB_712_1
  6
VERDECKT2_S2
 62
     7
440
 33554687
370
    13
100
AcDbCircle
 10
9.035796
 20
-0.364765
 30
0.0
 40
0.0004999999999999
100
AcDbArc
 50
68.583286
 51
90.0
  0
LINE
  5
186
330
1F
100
AcDbEntity
  8
XR$1$TB_712_1
  6
VERDECKT2_S2
 62
     7
440
 33554687
370
    13
100
AcDbLine
 10
9.03539
 20
-0.364265
 30
0.0
 11
9.035796
 21
-0.364265
 31
0.0
  0
ARC
  5
187
330
1F
100
AcDbEntity
  8
XR$1$TB_712_1
  6
VERDECKT2_S2
 62
     7
440
 33554687
370
    13
100
AcDbCircle
 10
9.03539
 20
-0.365265
 30
0.0
 40
0.001
100
AcDbArc
 50
90.0
 51
180.0
  0
LINE
  5
188
330
1F
100
AcDbEntity
  8
XR$1$TB_712_1
  6
VERDECKT2_S2
 62
     7
440
 33554687
370
    13
100
AcDbLine
 10
9.038352
 20
-0.36523
 30
0.0
 11
9.035978
 21
-0.364299
 31
0.0
  0
ARC
  5
189
330
1F
100
AcDbEntity
  8
XR$1$TB_712_1
  6
VERDECKT2_S2
 62
     7
440
 33554687
370
    13
100
AcDbCircle
 10
9.038534
 20
-0.364765
 30
0.0
 40
0.0004999999999999
100
AcDbArc
 50
248.583286
 51
270.0
  0
LINE
  5
18A
330
1F
100
AcDbEntity
  8
XR$1$TB_712_1
  6
VERDECKT2_S2
 62
     7
440
 33554687
370
    13
100
AcDbLine
 10
9.04364
 20
-0.365265
 30
0.0
 11
9.038534
 21
-0.365265
 31
0.0
  0
ARC
  5
18B
330
1F
100
AcDbEntity
  8
XR$1$TB_712_1
  6
VERDECKT2_S2
 62
     7
440
 33554687
370
    13
100
AcDbCircle
 10
9.03639
 20
-0.369765
 30
0.0
 40
0.002
100
AcDbArc
 50
180.0
 51
270.0
  0
LINE
  5
18C
330
1F
100
AcDbEntity
  8
XR$1$TB_712_1
  6
VERDECKT2_S2
 62
     7
440
 33554687
370
    13
100
AcDbLine
 10
9.04864
 20
-0.371765
 30
0.0
 11
9.03639
 21
-0.371765
 31
0.0
  0
ARC
  5
18D
330
1F
100
AcDbEntity
  8
XR$1$TB_712_1
  6
VERDECKT2_S2
 62
     7
440
 33554687
370
    13
100
AcDbCircle
 10
9.04864
 20
-0.369765
 30
0.0
 40
0.002
100
AcDbArc
 50
270.0
 51
0.0
  0
LINE
  5
18E
330
1F
100
AcDbEntity
  8
XR$1$TB_712_1
  6
AUSGEZOGEN
 62
     7
440
 33554687
370
    -3
100
AcDbLine
 10
9.05064
 20
-0.368259
 30
0.0
 11
9.05064
 21
-0.357515
 31
0.0
  0
ARC
  5
18F
330
1F
100
AcDbEntity
  8
XR$1$TB_712_1
  6
AUSGEZOGEN
 62
     7
440
 33554687
370
    -3
100
AcDbCircle
 10
9.04714
 20
-0.367265
 30
0.0
 40
0.0015
100
AcDbArc
 50
180.0
 51
221.529973
  0
ARC
  5
190
330
1F
100
AcDbEntity
  8
XR$1$TB_712_1
  6
AUSGEZOGEN
 62
     7
440
 33554687
370
    -3
100
AcDbCircle
 10
9.04714
 20
-0.367265
 30
0.0
 40
0.0015
100
AcDbArc
 50
318.470027
 51
0.0
  0
LINE
  5
191
330
1F
100
AcDbEntity
  8
XR$1$TB_712_1
  6
AUSGEZOGEN
 62
     7
440
 33554687
370
    -3
100
AcDbLine
 10
9.04364
 20
-0.358259
 30
0.0
 11
9.04364
 21
-0.355515
 31
0.0
  0
LINE
  5
192
330
1F
100
AcDbEntity
  8
XR$1$TB_712_1
  6
VERDECKT2_S2
 62
     7
440
 33554687
370
    13
100
AcDbLine
 10
9.05064
 20
-0.368259
 30
0.0
 11
9.05064
 21
-0.369765
 31
0.0
  0
ARC
  5
193
330
1F
100
AcDbEntity
  8
XR$1$TB_712_1
  6
VERDECKT2_S2
 62
     7
440
 33554687
370
    13
100
AcDbCircle
 10
9.04714
 20
-0.367265
 30
0.0
 40
0.0015
100
AcDbArc
 50
221.529973
 51
318.470027
  0
LINE
  5
194
330
1F
100
AcDbEntity
  8
XR$1$TB_712_1
  6
AUSGEZOGEN
 62
     7
440
 33554687
370
    -3
100
AcDbLine
 10
9.053012
 20
-0.347142
 30
0.0
 11
9.053012
 21
-0.349142
 31
0.0
  0
LINE
  5
195
330
1F
100
AcDbEntity
  8
XR$1$TB_712_1
  6
AUSGEZOGEN
 62
     7
440
 33554687
370
    -3
100
AcDbLine
 10
9.056012
 20
-0.349142
 30
0.0
 11
9.056012
 21
-0.347142
 31
0.0
  0
LINE
  5
196
330
1F
100
AcDbEntity
  8
XR$1$TB_712_1
  6
AUSGEZOGEN
 62
     7
440
 33554687
370
    -3
100
AcDbLine
 10
9.056012
 20
-0.349142
 30
0.0
 11
9.053012
 21
-0.349142
 31
0.0
  0
LINE
  5
197
330
1F
100
AcDbEntity
  8
XR$1$TB_712_1
  6
AUSGEZOGEN
 62
     7
440
 33554687
370
    -3
100
AcDbLine
 10
9.053012
 20
-0.295642
 30
0.0
 11
9.053012
 21
-0.297642
 31
0.0
  0
LINE
  5
198
330
1F
100
AcDbEntity
  8
XR$1$TB_712_1
  6
AUSGEZOGEN
 62
     7
440
 33554687
370
    -3
100
AcDbLine
 10
9.056012
 20
-0.297642
 30
0.0
 11
9.056012
 21
-0.295642
 31
0.0
  0
LINE
  5
199
330
1F
100
AcDbEntity
  8
XR$1$TB_712_1
  6
AUSGEZOGEN
 62
     7
440
 33554687
370
    -3
100
AcDbLine
 10
9.053012
 20
-0.295642
 30
0.0
 11
9.056012
 21
-0.295642
 31
0.0
  0
LINE
  5
19A
330
1F
100
AcDbEntity
  8
XR$1$TB_712_1
  6
AUSGEZOGEN
 62
     7
440
 33554687
370
    -3
100
AcDbLine
 10
9.053012
 20
-0.347142
 30
0.0
 11
9.053012
 21
-0.297642
 31
0.0
  0
LINE
  5
19B
330
1F
100
AcDbEntity
  8
XR$1$TB_712_1
  6
AUSGEZOGEN
 62
     7
440
 33554687
370
    -3
100
AcDbLine
 10
9.056012
 20
-0.297642
 30
0.0
 11
9.056012
 21
-0.347142
 31
0.0
  0
ARC
  5
19C
330
1F
100
AcDbEntity
  8
XR$1$TB_712_1
  6
AUSGEZOGEN
 62
     7
440
 33554687
370
    -3
100
AcDbCircle
 10
9.055512
 20
-0.339086
 30
0.0
 40
0.0015
100
AcDbArc
 50
0.0
 51
60.0
  0
LINE
  5
19D
330
1F
100
AcDbEntity
  8
XR$1$TB_712_1
  6
AUSGEZOGEN
 62
     7
440
 33554687
370
    -3
100
AcDbLine
 10
9.057012
 20
-0.345642
 30
0.0
 11
9.057012
 21
-0.339086
 31
0.0
  0
LINE
  5
19E
330
1F
100
AcDbEntity
  8
XR$1$TB_712_1
  6
AUSGEZOGEN
 62
     7
440
 33554687
370
    -3
100
AcDbLine
 10
9.057012
 20
-0.345699
 30
0.0
 11
9.057012
 21
-0.345642
 31
0.0
  0
ARC
  5
19F
330
1F
100
AcDbEntity
  8
XR$1$TB_712_1
  6
AUSGEZOGEN
 62
     7
440
 33554687
370
    -3
100
AcDbCircle
 10
9.055512
 20
-0.345699
 30
0.0
 40
0.0015
100
AcDbArc
 50
300.0
 51
0.0
  0
LINE
  5
1A0
330
1F
100
AcDbEntity
  8
XR$1$TB_712_1
  6
AUSGEZOGEN
 62
     7
440
 33554687
370
    -3
100
AcDbLine
 10
9.056012
 20
-0.337642
 30
0.0
 11
9.056262
 21
-0.337787
 31
0.0
  0
LINE
  5
1A1
330
1F
100
AcDbEntity
  8
XR$1$TB_712_1
  6
AUSGEZOGEN
 62
     7
440
 33554687
370
    -3
100
AcDbLine
 10
9.056262
 20
-0.346998
 30
0.0
 11
9.056012
 21
-0.347142
 31
0.0
  0
LINE
  5
1A2
330
1F
100
AcDbEntity
  8
XR$1$TB_712_1
  6
AUSGEZOGEN
 62
     7
440
 33554687
370
    -3
100
AcDbLine
 10
9.059012
 20
-0.349142
 30
0.0
 11
9.056012
 21
-0.349142
 31
0.0
  0
LINE
  5
1A3
330
1F
100
AcDbEntity
  8
XR$1$TB_712_1
  6
AUSGEZOGEN
 62
     7
440
 33554687
370
    -3
100
AcDbLine
 10
9.068762
 20
-0.344142
 30
0.0
 11
9.063762
 21
-0.344142
 31
0.0
  0
ARC
  5
1A4
330
1F
100
AcDbEntity
  8
XR$1$TB_712_1
  6
AUSGEZOGEN
 62
     7
440
 33554687
370
    -3
100
AcDbCircle
 10
9.063762
 20
-0.345642
 30
0.0
 40
0.0015
100
AcDbArc
 50
90.0
 51
270.0
  0
LINE
  5
1A5
330
1F
100
AcDbEntity
  8
XR$1$TB_712_1
  6
AUSGEZOGEN
 62
     7
440
 33554687
370
    -3
100
AcDbLine
 10
9.063762
 20
-0.347142
 30
0.0
 11
9.068762
 21
-0.347142
 31
0.0
  0
LINE
  5
1A6
330
1F
100
AcDbEntity
  8
XR$1$TB_712_1
  6
AUSGEZOGEN
 62
     7
440
 33554687
370
    -3
100
AcDbLine
 10
9.056887
 20
-0.326009
 30
0.0
 11
9.058795
 21
-0.323057
 31
0.0
  0
ARC
  5
1A7
330
1F
100
AcDbEntity
  8
XR$1$TB_712_1
  6
AUSGEZOGEN
 62
     7
440
 33554687
370
    -3
100
AcDbCircle
 10
9.053756
 20
-0.3198
 30
0.0
 40
0.003
100
AcDbArc
 50
356.119614
 51
12.122457
  0
ARC
  5
1A8
330
1F
100
AcDbEntity
  8
XR$1$TB_712_1
  6
AUSGEZOGEN
 62
     7
440
 33554687
370
    -3
100
AcDbCircle
 10
9.053756
 20
-0.3198
 30
0.0
 40
0.003
100
AcDbArc
 50
327.122457
 51
356.119614
  0
ARC
  5
1A9
330
1F
100
AcDbEntity
  8
XR$1$TB_712_1
  6
AUSGEZOGEN
 62
     7
440
 33554687
370
    -3
100
AcDbCircle
 10
9.053756
 20
-0.3198
 30
0.0
 40
0.006
100
AcDbArc
 50
327.122457
 51
356.119614
  0
ARC
  5
1AA
330
1F
100
AcDbEntity
  8
XR$1$TB_712_1
  6
AUSGEZOGEN
 62
     7
440
 33554687
370
    -3
100
AcDbCircle
 10
9.053756
 20
-0.3198
 30
0.0
 40
0.0059999999999999
100
AcDbArc
 50
356.119614
 51
12.122457
  0
LINE
  5
1AB
330
1F
100
AcDbEntity
  8
XR$1$TB_712_1
  6
AUSGEZOGEN
 62
     7
440
 33554687
370
    -3
100
AcDbLine
 10
9.059622
 20
-0.31854
 30
0.0
 11
9.056081
 21
-0.302054
 31
0.0
  0
ARC
  5
1AC
330
1F
100
AcDbEntity
  8
XR$1$TB_712_1
  6
AUSGEZOGEN
 62
     7
440
 33554687
370
    -3
100
AcDbCircle
 10
9.059015
 20
-0.301424
 30
0.0
 40
0.0030000000000001
100
AcDbArc
 50
176.119614
 51
192.122457
  0
LINE
  5
1AD
330
1F
100
AcDbEntity
  8
XR$1$TB_712_1
  6
AUSGEZOGEN
 62
     7
440
 33554687
370
    -3
100
AcDbLine
 10
9.056012
 20
-0.316018
 30
0.0
 11
9.056689
 21
-0.31917
 31
0.0
  0
LINE
  5
1AE
330
1F
100
AcDbEntity
  8
XR$1$TB_712_1
  6
AUSGEZOGEN
 62
     7
440
 33554687
370
    -3
100
AcDbLine
 10
9.056276
 20
-0.321428
 30
0.0
 11
9.056012
 21
-0.321836
 31
0.0
  0
LINE
  5
1AF
330
1F
100
AcDbEntity
  8
XR$1$TB_712_1
  6
AUSGEZOGEN
 62
     7
440
 33554687
370
    -3
100
AcDbLine
 10
9.056012
 20
-0.327362
 30
0.0
 11
9.056887
 21
-0.326009
 31
0.0
  0
LINE
  5
1B0
330
1F
100
AcDbEntity
  8
XR$1$TB_712_1
  6
VERDECKT2_S2
 62
     7
440
 33554687
370
    13
100
AcDbLine
 10
9.071262
 20
-0.332892
 30
0.0
 11
9.066762
 21
-0.332892
 31
0.0
  0
ARC
  5
1B1
330
1F
100
AcDbEntity
  8
XR$1$TB_712_1
  6
VERDECKT2_S2
 62
     7
440
 33554687
370
    13
100
AcDbCircle
 10
9.066262
 20
-0.334298
 30
0.0
 40
0.0004999999999999
100
AcDbArc
 50
180.0
 51
201.416714
  0
LINE
  5
1B2
330
1F
100
AcDbEntity
  8
XR$1$TB_712_1
  6
VERDECKT2_S2
 62
     7
440
 33554687
370
    13
100
AcDbLine
 10
9.065762
 20
-0.333892
 30
0.0
 11
9.065762
 21
-0.334298
 31
0.0
  0
ARC
  5
1B3
330
1F
100
AcDbEntity
  8
XR$1$TB_712_1
  6
VERDECKT2_S2
 62
     7
440
 33554687
370
    13
100
AcDbCircle
 10
9.066762
 20
-0.333892
 30
0.0
 40
0.001
100
AcDbArc
 50
90.0
 51
180.0
  0
LINE
  5
1B4
330
1F
100
AcDbEntity
  8
XR$1$TB_712_1
  6
VERDECKT2_S2
 62
     7
440
 33554687
370
    13
100
AcDbLine
 10
9.066728
 20
-0.336854
 30
0.0
 11
9.065797
 21
-0.33448
 31
0.0
  0
ARC
  5
1B5
330
1F
100
AcDbEntity
  8
XR$1$TB_712_1
  6
VERDECKT2_S2
 62
     7
440
 33554687
370
    13
100
AcDbCircle
 10
9.066262
 20
-0.337036
 30
0.0
 40
0.0004999999999999
100
AcDbArc
 50
0.0
 51
21.416714
  0
LINE
  5
1B6
330
1F
100
AcDbEntity
  8
XR$1$TB_712_1
  6
VERDECKT2_S2
 62
     7
440
 33554687
370
    13
100
AcDbLine
 10
9.066762
 20
-0.342142
 30
0.0
 11
9.066762
 21
-0.337036
 31
0.0
  0
ARC
  5
1B7
330
1F
100
AcDbEntity
  8
XR$1$TB_712_1
  6
VERDECKT2_S2
 62
     7
440
 33554687
370
    13
100
AcDbCircle
 10
9.071262
 20
-0.334892
 30
0.0
 40
0.002
100
AcDbArc
 50
0.0
 51
90.0
  0
LINE
  5
1B8
330
1F
100
AcDbEntity
  8
XR$1$TB_712_1
  6
VERDECKT2_S2
 62
     7
440
 33554687
370
    13
100
AcDbLine
 10
9.073262
 20
-0.347142
 30
0.0
 11
9.073262
 21
-0.334892
 31
0.0
  0
ARC
  5
1B9
330
1F
100
AcDbEntity
  8
XR$1$TB_712_1
  6
VERDECKT2_S2
 62
     7
440
 33554687
370
    13
100
AcDbCircle
 10
9.071262
 20
-0.347142
 30
0.0
 40
0.002
100
AcDbArc
 50
270.0
 51
0.0
  0
LINE
  5
1BA
330
1F
100
AcDbEntity
  8
XR$1$TB_712_1
  6
AUSGEZOGEN
 62
     7
440
 33554687
370
    -3
100
AcDbLine
 10
9.069757
 20
-0.349142
 30
0.0
 11
9.059012
 21
-0.349142
 31
0.0
  0
ARC
  5
1BB
330
1F
100
AcDbEntity
  8
XR$1$TB_712_1
  6
AUSGEZOGEN
 62
     7
440
 33554687
370
    -3
100
AcDbCircle
 10
9.068762
 20
-0.345642
 30
0.0
 40
0.0015
100
AcDbArc
 50
48.470027
 51
90.0
  0
ARC
  5
1BC
330
1F
100
AcDbEntity
  8
XR$1$TB_712_1
  6
AUSGEZOGEN
 62
     7
440
 33554687
370
    -3
100
AcDbCircle
 10
9.068762
 20
-0.345642
 30
0.0
 40
0.0015
100
AcDbArc
 50
270.0
 51
311.529973
  0
LINE
  5
1BD
330
1F
100
AcDbEntity
  8
XR$1$TB_712_1
  6
AUSGEZOGEN
 62
     7
440
 33554687
370
    -3
100
AcDbLine
 10
9.059757
 20
-0.342142
 30
0.0
 11
9.057012
 21
-0.342142
 31
0.0
  0
LINE
  5
1BE
330
1F
100
AcDbEntity
  8
XR$1$TB_712_1
  6
VERDECKT2_S2
 62
     7
440
 33554687
370
    13
100
AcDbLine
 10
9.069757
 20
-0.349142
 30
0.0
 11
9.071262
 21
-0.349142
 31
0.0
  0
ARC
  5
1BF
330
1F
100
AcDbEntity
  8
XR$1$TB_712_1
  6
VERDECKT2_S2
 62
     7
440
 33554687
370
    13
100
AcDbCircle
 10
9.068762
 20
-0.345642
 30
0.0
 40
0.0015
100
AcDbArc
 50
311.529973
 51
48.470027
  0
LINE
  5
1C0
330
1F
100
AcDbEntity
  8
XR$1$TB_712_1
  6
AUSGEZOGEN
 62
     7
440
 33554687
370
    -3
100
AcDbLine
 10
9.053012
 20
-0.351515
 30
0.0
 11
9.053012
 21
-0.281515
 31
0.0
  0
LINE
  5
1C1
330
1F
100
AcDbEntity
  8
XR$1$TB_712_1
  6
AUSGEZOGEN
 62
     7
440
 33554687
370
    -3
100
AcDbLine
 10
9.050512
 20
-0.284015
 30
0.0
 11
9.050512
 21
-0.349015
 31
0.0
  0
LINE
  5
1C2
330
1F
100
AcDbEntity
  8
XR$1$TB_712_1
  6
AUSGEZOGEN
 62
     7
440
 33554687
370
    -3
100
AcDbLine
 10
8.983012
 20
-0.351515
 30
0.0
 11
9.053012
 21
-0.351515
 31
0.0
  0
LINE
  5
1C3
330
1F
100
AcDbEntity
  8
XR$1$TB_712_1
  6
AUSGEZOGEN
 62
     7
440
 33554687
370
    -3
100
AcDbLine
 10
9.050512
 20
-0.349015
 30
0.0
 11
8.985512
 21
-0.349015
 31
0.0
  0
LINE
  5
1C4
330
1F
100
AcDbEntity
  8
XR$1$TB_712_1
  6
AUSGEZOGEN
 62
     7
440
 33554687
370
    -3
100
AcDbLine
 10
8.985512
 20
-0.349015
 30
0.0
 11
8.985512
 21
-0.284015
 31
0.0
  0
LINE
  5
1C5
330
1F
100
AcDbEntity
  8
XR$1$TB_712_1
  6
AUSGEZOGEN
 62
    52
440
 33554687
370
    13
100
AcDbLine
 10
8.476515
 20
-0.299515
 30
0.0
 11
8.550612
 21
-0.299515
 31
0.0
  0
LINE
  5
1C6
330
1F
100
AcDbEntity
  8
XR$1$TB_712_1
  6
AUSGEZOGEN
 62
     7
440
 33554687
370
    -3
100
AcDbLine
 10
8.975012
 20
-0.311315
 30
0.0
 11
8.991012
 21
-0.311315
 31
0.0
  0
LINE
  5
1C7
330
1F
100
AcDbEntity
  8
XR$1$TB_712_1
  6
AUSGEZOGEN
 62
     7
440
 33554687
370
    -3
100
AcDbLine
 10
8.985512
 20
-0.284015
 30
0.0
 11
9.050512
 21
-0.284015
 31
0.0
  0
LINE
  5
1C8
330
1F
100
AcDbEntity
  8
XR$1$TB_712_1
  6
AUSGEZOGEN
 62
     3
440
 33554687
370
    -3
100
AcDbLine
 10
9.053012
 20
-0.281515
 30
0.0
 11
8.983012
 21
-0.281515
 31
0.0
  0
LINE
  5
1C9
330
1F
100
AcDbEntity
  8
XR$1$TB_712_1
  6
AUSGEZOGEN
 62
     3
440
 33554687
370
    -3
100
AcDbLine
 10
8.983012
 20
-0.224515
 30
0.0
 11
8.983012
 21
-0.351515
 31
0.0
  0
LINE
  5
1CA
330
1F
100
AcDbEntity
  8
XR$1$TB_712_1
  6
AUSGEZOGEN
 62
    52
440
 33554687
370
    13
100
AcDbLine
 10
9.014012
 20
-0.281515
 30
0.0
 11
9.014012
 21
-0.218515
 31
0.0
  0
LINE
  5
1CB
330
1F
100
AcDbEntity
  8
XR$1$TB_712_1
  6
AUSGEZOGEN
 62
    52
440
 33554687
370
    13
100
AcDbLine
 10
9.053012
 20
-0.281515
 30
0.0
 11
9.053012
 21
-0.170515
 31
0.0
  0
LINE
  5
1CC
330
1F
100
AcDbEntity
  8
XR$1$TB_712_1
  6
AUSGEZOGEN
 62
    52
440
 33554687
370
    13
100
AcDbLine
 10
9.014012
 20
-0.279515
 30
0.0
 11
9.053012
 21
-0.269515
 31
0.0
  0
LINE
  5
1CD
330
1F
100
AcDbEntity
  8
XR$1$TB_712_1
  6
AUSGEZOGEN
 62
    52
440
 33554687
370
    13
100
AcDbLine
 10
9.021812
 20
-0.281515
 30
0.0
 11
9.014012
 21
-0.279515
 31
0.0
  0
LINE
  5
1CE
330
1F
100
AcDbEntity
  8
XR$1$TB_712_1
  6
AUSGEZOGEN
 62
     7
440
 33554687
370
    25
100
AcDbLine
 10
9.079757
 20
-0.373138
 30
0.0
 11
9.079757
 21
-0.130686
 31
0.0
  0
LINE
  5
1CF
330
1F
100
AcDbEntity
  8
XR$1$TB_712_1
  6
AUSGEZOGEN
 62
     7
440
 33554687
370
    25
100
AcDbLine
 10
9.059757
 20
-0.130686
 30
0.0
 11
9.059757
 21
-0.342142
 31
0.0
  0
LINE
  5
1D0
330
1F
100
AcDbEntity
  8
XR$1$TB_712_1
  6
VERDECKT2_S2
 62
     7
440
 33554687
370
    13
100
AcDbLine
 10
9.065762
 20
-0.342142
 30
0.0
 11
9.065762
 21
-0.130686
 31
0.0
  0
LINE
  5
1D1
330
1F
100
AcDbEntity
  8
XR$1$TB_712_1
  6
VERDECKT2_S2
 62
     7
440
 33554687
370
    13
100
AcDbLine
 10
9.073757
 20
-0.370138
 30
0.0
 11
9.073757
 21
-0.130686
 31
0.0
  0
LINE
  5
1D2
330
1F
100
AcDbEntity
  8
XR$1$TB_712_1
  6
AUSGEZOGEN
 62
     7
440
 33554687
370
    13
100
AcDbLine
 10
8.476515
 20
-0.299515
 30
0.0
 11
8.501515
 21
-0.218515
 31
0.0
  0
LINE
  5
1D3
330
1F
100
AcDbEntity
  8
XR$1$TB_712_1
  6
AUSGEZOGEN
 62
     7
440
 33554687
370
    13
100
AcDbLine
 10
8.501515
 20
-0.218515
 30
0.0
 11
8.526515
 21
-0.299515
 31
0.0
  0
LINE
  5
1D4
330
1F
100
AcDbEntity
  8
XR$1$TB_712_1
  6
AUSGEZOGEN
 62
     7
440
 33554687
370
    13
100
AcDbLine
 10
8.576515
 20
-0.299515
 30
0.0
 11
8.601515
 21
-0.218515
 31
0.0
  0
LINE
  5
1D5
330
1F
100
AcDbEntity
  8
XR$1$TB_712_1
  6
AUSGEZOGEN
 62
     7
440
 33554687
370
    13
100
AcDbLine
 10
8.601515
 20
-0.218515
 30
0.0
 11
8.626515
 21
-0.299515
 31
0.0
  0
LINE
  5
1D6
330
1F
100
AcDbEntity
  8
XR$1$TB_712_1
  6
AUSGEZOGEN
 62
     7
440
 33554687
370
    13
100
AcDbLine
 10
8.626515
 20
-0.299515
 30
0.0
 11
8.651515
 21
-0.218515
 31
0.0
  0
LINE
  5
1D7
330
1F
100
AcDbEntity
  8
XR$1$TB_712_1
  6
AUSGEZOGEN
 62
     7
440
 33554687
370
    13
100
AcDbLine
 10
8.651515
 20
-0.218515
 30
0.0
 11
8.676515
 21
-0.299515
 31
0.0
  0
LINE
  5
1D8
330
1F
100
AcDbEntity
  8
XR$1$TB_712_1
  6
AUSGEZOGEN
 62
     7
440
 33554687
370
    13
100
AcDbLine
 10
8.676515
 20
-0.299515
 30
0.0
 11
8.701515
 21
-0.218515
 31
0.0
  0
LINE
  5
1D9
330
1F
100
AcDbEntity
  8
XR$1$TB_712_1
  6
AUSGEZOGEN
 62
     7
440
 33554687
370
    13
100
AcDbLine
 10
8.701515
 20
-0.218515
 30
0.0
 11
8.726515
 21
-0.299515
 31
0.0
  0
LINE
  5
1DA
330
1F
100
AcDbEntity
  8
XR$1$TB_712_1
  6
AUSGEZOGEN
 62
     7
440
 33554687
370
    13
100
AcDbLine
 10
8.726515
 20
-0.299515
 30
0.0
 11
8.751515
 21
-0.218515
 31
0.0
  0
LINE
  5
1DB
330
1F
100
AcDbEntity
  8
XR$1$TB_712_1
  6
AUSGEZOGEN
 62
     7
440
 33554687
370
    13
100
AcDbLine
 10
8.751515
 20
-0.218515
 30
0.0
 11
8.776515
 21
-0.299515
 31
0.0
  0
LINE
  5
1DC
330
1F
100
AcDbEntity
  8
XR$1$TB_712_1
  6
AUSGEZOGEN
 62
     7
440
 33554687
370
    13
100
AcDbLine
 10
8.776515
 20
-0.299515
 30
0.0
 11
8.801515
 21
-0.218515
 31
0.0
  0
LINE
  5
1DD
330
1F
100
AcDbEntity
  8
XR$1$TB_712_1
  6
AUSGEZOGEN
 62
     7
440
 33554687
370
    13
100
AcDbLine
 10
9.001515
 20
-0.218515
 30
0.0
 11
9.014012
 21
-0.259007
 31
0.0
  0
LINE
  5
1DE
330
1F
100
AcDbEntity
  8
XR$1$TB_712_1
  6
AUSGEZOGEN
 62
     7
440
 33554687
370
    13
100
AcDbLine
 10
8.976515
 20
-0.299515
 30
0.0
 11
8.980012
 21
-0.288182
 31
0.0
  0
LINE
  5
1DF
330
1F
100
AcDbEntity
  8
XR$1$TB_712_1
  6
AUSGEZOGEN
 62
     7
440
 33554687
370
    13
100
AcDbLine
 10
8.983012
 20
-0.278462
 30
0.0
 11
9.001515
 21
-0.218515
 31
0.0
  0
LINE
  5
1E0
330
1F
100
AcDbEntity
  8
XR$1$TB_712_1
  6
AUSGEZOGEN
 62
     7
440
 33554687
370
    13
100
AcDbLine
 10
8.926515
 20
-0.299515
 30
0.0
 11
8.948737
 21
-0.227515
 31
0.0
  0
LINE
  5
1E1
330
1F
100
AcDbEntity
  8
XR$1$TB_712_1
  6
AUSGEZOGEN
 62
     7
440
 33554687
370
    13
100
AcDbLine
 10
8.954292
 20
-0.227515
 30
0.0
 11
8.976515
 21
-0.299515
 31
0.0
  0
LINE
  5
1E2
330
1F
100
AcDbEntity
  8
XR$1$TB_712_1
  6
AUSGEZOGEN
 62
     7
440
 33554687
370
    13
100
AcDbLine
 10
8.876515
 20
-0.299515
 30
0.0
 11
8.898737
 21
-0.227515
 31
0.0
  0
LINE
  5
1E3
330
1F
100
AcDbEntity
  8
XR$1$TB_712_1
  6
AUSGEZOGEN
 62
     7
440
 33554687
370
    13
100
AcDbLine
 10
8.904292
 20
-0.227515
 30
0.0
 11
8.926515
 21
-0.299515
 31
0.0
  0
LINE
  5
1E4
330
1F
100
AcDbEntity
  8
XR$1$TB_712_1
  6
AUSGEZOGEN
 62
     7
440
 33554687
370
    13
100
AcDbLine
 10
8.854292
 20
-0.227515
 30
0.0
 11
8.876515
 21
-0.299515
 31
0.0
  0
LINE
  5
1E5
330
1F
100
AcDbEntity
  8
XR$1$TB_712_1
  6
AUSGEZOGEN
 62
     7
440
 33554687
370
    13
100
AcDbLine
 10
8.826515
 20
-0.299515
 30
0.0
 11
8.848737
 21
-0.227515
 31
0.0
  0
LINE
  5
1E6
330
1F
100
AcDbEntity
  8
XR$1$TB_712_1
  6
AUSGEZOGEN
 62
     7
440
 33554687
370
    13
100
AcDbLine
 10
8.804292
 20
-0.227515
 30
0.0
 11
8.826515
 21
-0.299515
 31
0.0
  0
LINE
  5
1E7
330
1F
100
AcDbEntity
  8
XR$1$TB_712_1
  6
AUSGEZOGEN
 62
     7
440
 33554687
370
    13
100
AcDbLine
 10
8.801515
 20
-0.218515
 30
0.0
 11
8.803012
 21
-0.223367
 31
0.0
  0
LINE
  5
1E8
330
1F
100
AcDbEntity
  8
XR$1$TB_712_1
  6
AUSGEZOGEN
 62
     7
440
 33554687
370
    13
100
AcDbLine
 10
8.526515
 20
-0.299515
 30
0.0
 11
8.548737
 21
-0.227515
 31
0.0
  0
LINE
  5
1E9
330
1F
100
AcDbEntity
  8
XR$1$TB_712_1
  6
AUSGEZOGEN
 62
     7
440
 33554687
370
    13
100
AcDbLine
 10
8.555112
 20
-0.230171
 30
0.0
 11
8.576515
 21
-0.299515
 31
0.0
  0
LINE
  5
1EA
330
1F
100
AcDbEntity
  8
XR$1$TB_712_1
  6
AUSGEZOGEN
 62
     7
440
 33554687
370
    -3
100
AcDbLine
 10
9.274012
 20
-0.378259
 30
0.0
 11
9.038444
 21
-0.378259
 31
0.0
  0
LINE
  5
1EB
330
1F
100
AcDbEntity
  8
XR$1$TB_712_1
  6
AUSGEZOGEN
 62
     3
440
 33554687
370
    25
100
AcDbLine
 10
9.024012
 20
-0.055515
 30
0.0
 11
9.024012
 21
-0.115515
 31
0.0
  0
LINE
  5
1EC
330
1F
100
AcDbEntity
  8
XR$1$TB_712_1
  6
AUSGEZOGEN
 62
     3
440
 33554687
370
    25
100
AcDbLine
 10
9.024012
 20
-0.035515
 30
0.0
 11
9.024012
 21
-0.115515
 31
0.0
  0
LINE
  5
1ED
330
1F
100
AcDbEntity
  8
XR$1$TB_712_1
  6
AUSGEZOGEN
 62
     3
440
 33554687
370
    25
100
AcDbLine
 10
9.105012
 20
-0.035515
 30
0.0
 11
9.105012
 21
-0.020515
 31
0.0
  0
LINE
  5
1EE
330
1F
100
AcDbEntity
  8
XR$1$TB_712_1
  6
AUSGEZOGEN
 62
     3
440
 33554687
370
    25
100
AcDbLine
 10
9.185012
 20
-0.020515
 30
0.0
 11
9.185012
 21
-0.080515
 31
0.0
  0
LINE
  5
1EF
330
1F
100
AcDbEntity
  8
XR$1$TB_712_1
  6
AUSGEZOGEN
 62
     3
440
 33554687
370
    25
100
AcDbLine
 10
9.130012
 20
-0.080515
 30
0.0
 11
9.185012
 21
-0.080515
 31
0.0
  0
LINE
  5
1F0
330
1F
100
AcDbEntity
  8
XR$1$TB_712_1
  6
AUSGEZOGEN
 62
     3
440
 33554687
370
    25
100
AcDbLine
 10
9.105012
 20
-0.020515
 30
0.0
 11
9.185012
 21
-0.020515
 31
0.0
  0
LINE
  5
1F1
330
1F
100
AcDbEntity
  8
XR$1$TB_712_1
  6
AUSGEZOGEN
 62
     3
440
 33554687
370
    25
100
AcDbLine
 10
9.130012
 20
-0.035515
 30
0.0
 11
9.130012
 21
-0.115515
 31
0.0
  0
LINE
  5
1F2
330
1F
100
AcDbEntity
  8
XR$1$TB_712_1
  6
AUSGEZOGEN
 62
     3
440
 33554687
370
    25
100
AcDbLine
 10
9.130012
 20
-0.035515
 30
0.0
 11
9.014012
 21
-0.035515
 31
0.0
  0
LINE
  5
1F3
330
1F
100
AcDbEntity
  8
XR$1$TB_712_1
  6
AUSGEZOGEN
 62
     7
440
 33554687
370
    -3
100
AcDbLine
 10
9.274012
 20
-0.020515
 30
0.0
 11
9.185012
 21
-0.020515
 31
0.0
  0
LINE
  5
1F4
330
1F
100
AcDbEntity
  8
XR$1$TB_712_1
  6
AUSGEZOGEN
 62
     7
440
 33554687
370
    -3
100
AcDbLine
 10
9.274012
 20
-0.038515
 30
0.0
 11
9.185012
 21
-0.038515
 31
0.0
  0
LINE
  5
1F5
330
1F
100
AcDbEntity
  8
XR$1$TB_712_1
  6
AUSGEZOGEN
 62
     7
440
 33554687
370
    -3
100
AcDbLine
 10
9.274012
 20
-0.042515
 30
0.0
 11
9.185012
 21
-0.042515
 31
0.0
  0
LINE
  5
1F6
330
1F
100
AcDbEntity
  8
XR$1$TB_712_1
  6
AUSGEZOGEN
 62
     7
440
 33554687
370
    -3
100
AcDbLine
 10
9.274012
 20
-0.058515
 30
0.0
 11
9.185012
 21
-0.058515
 31
0.0
  0
LINE
  5
1F7
330
1F
100
AcDbEntity
  8
XR$1$TB_712_1
  6
AUSGEZOGEN
 62
     7
440
 33554687
370
    -3
100
AcDbLine
 10
9.274012
 20
-0.062515
 30
0.0
 11
9.185012
 21
-0.062515
 31
0.0
  0
LINE
  5
1F8
330
1F
100
AcDbEntity
  8
XR$1$TB_712_1
  6
AUSGEZOGEN
 62
     7
440
 33554687
370
    -3
100
AcDbLine
 10
9.274012
 20
-0.080515
 30
0.0
 11
9.185012
 21
-0.080515
 31
0.0
  0
MTEXT
  5
1F9
330
1F
100
AcDbEntity
  8
XR$1$TB_712_1
  6
AUSGEZOGEN
 62
     7
440
 33554687
370
    35
100
AcDbMText
 10
9.090342
 20
0.055666
 30
0.0
 40
0.0125
 41
0.102501
 46
0.0
 71
     1
 72
     5
  1
\A1;{\fArial|i0|b0;\H0.012500;\W0.933333;\C7;Polyurethan}\P{\fArial|i0|b0;\H0.012500;\W0.933333;\C7;Polyurethane}\P{\fArial|i0|b0;\H0.012500;\W0.933333;\C7;Polyuréthane}\P
  7
ARIAL
 73
     1
 44
0.722892
  0
MTEXT
  5
1FA
330
1F
100
AcDbEntity
  8
XR$1$TB_712_1
  6
AUSGEZOGEN
 62
     7
440
 33554687
370
    -3
100
AcDbMText
 10
8.848093
 20
-0.404435
 30
0.0
 40
0.0125
 41
0.094636
 46
0.0
 71
     7
 72
     5
  1
\W0.92;Art.-Nr.: 681
  7
ARIAL
 73
     1
 44
1.0
  0
LINE
  5
1FC
102
{ACAD_REACTORS
330
1FB
102
}
330
1F
100
AcDbEntity
  8
XR$1$TB_712_1
  6
AUSGEZOGEN
 62
     7
440
 33554687
370
    -3
100
AcDbLine
 10
8.936955
 20
-0.398602
 30
0.0
 11
9.011848
 21
-0.353042
 31
0.0
  0
LINE
  5
1FD
102
{ACAD_REACTORS
330
1FB
102
}
330
1F
100
AcDbEntity
  8
XR$1$TB_712_1
  6
AUSGEZOGEN
 62
     7
440
 33554687
370
    -3
100
AcDbLine
 10
9.002878
 20
-0.358499
 30
0.0
 11
9.002237
 21
-0.358889
 31
0.0
  0
LINE
  5
1FE
102
{ACAD_REACTORS
330
1FB
102
}
330
1F
100
AcDbEntity
  8
XR$1$TB_712_1
  6
AUSGEZOGEN
 62
     7
440
 33554687
370
    -3
100
AcDbLine
 10
9.011848
 20
-0.353042
 30
0.0
 11
9.011848
 21
-0.353042
 31
0.0
  0
LINE
  5
1FF
102
{ACAD_REACTORS
330
1FB
102
}
330
1F
100
AcDbEntity
  8
XR$1$TB_712_1
  6
AUSGEZOGEN
 62
     7
440
 33554687
370
    -3
100
AcDbLine
 10
9.011848
 20
-0.353042
 30
0.0
 11
9.011848
 21
-0.353042
 31
0.0
  0
LINE
  5
200
102
{ACAD_REACTORS
330
1FB
102
}
330
1F
100
AcDbEntity
  8
XR$1$TB_712_1
  6
AUSGEZOGEN
 62
     7
440
 33554687
370
    -3
100
AcDbLine
 10
9.011848
 20
-0.353042
 30
0.0
 11
9.011848
 21
-0.353042
 31
0.0
  0
LINE
  5
201
102
{ACAD_REACTORS
330
1FB
102
}
330
1F
100
AcDbEntity
  8
XR$1$TB_712_1
  6
AUSGEZOGEN
 62
     7
440
 33554687
370
    -3
100
AcDbLine
 10
9.011848
 20
-0.353042
 30
0.0
 11
9.002098
 21
-0.357217
 31
0.0
  0
LINE
  5
202
102
{ACAD_REACTORS
330
1FB
102
}
330
1F
100
AcDbEntity
  8
XR$1$TB_712_1
  6
AUSGEZOGEN
 62
     7
440
 33554687
370
    -3
100
AcDbLine
 10
9.002098
 20
-0.357217
 30
0.0
 11
9.003657
 21
-0.35978
 31
0.0
  0
LINE
  5
203
102
{ACAD_REACTORS
330
1FB
102
}
330
1F
100
AcDbEntity
  8
XR$1$TB_712_1
  6
AUSGEZOGEN
 62
     7
440
 33554687
370
    -3
100
AcDbLine
 10
9.003657
 20
-0.35978
 30
0.0
 11
9.011848
 21
-0.353042
 31
0.0
  0
HATCH
  5
204
102
{ACAD_REACTORS
330
1FB
102
}
330
1F
100
AcDbEntity
  8
XR$1$TB_712_1
  6
AUSGEZOGEN
 62
     7
440
 33554687
370
    -3
100
AcDbHatch
 10
0.0
 20
0.0
 30
0.0
210
0.0
220
0.0
230
1.0
  2
SOLID
 70
     1
 71
     0
 91
        1
 92
        3
 72
     0
 73
     1
 93
        3
 10
9.0036572265625
 20
-0.3597802734375
 10
9.01184814453125
 20
-0.353041748046875
 10
9.002098083496094
 20
-0.35721728515625
 97
        0
 75
     0
 76
     1
 98
        0
  0
MTEXT
  5
205
330
1F
100
AcDbEntity
  8
XR$1$TB_712_1
  6
AUSGEZOGEN
 62
     7
440
 33554687
370
    -3
100
AcDbMText
 10
8.628087
 20
-0.404435
 30
0.0
 40
0.0125
 41
0.094694
 46
0.0
 71
     7
 72
     5
  1
\W0.93;Art.-Nr.: 680
  7
ARIAL
 73
     1
 44
1.0
  0
LINE
  5
207
102
{ACAD_REACTORS
330
206
102
}
330
1F
100
AcDbEntity
  8
XR$1$TB_712_1
  6
AUSGEZOGEN
 62
     7
440
 33554687
370
    -3
100
AcDbLine
 10
8.628087
 20
-0.398602
 30
0.0
 11
8.583194
 21
-0.353042
 31
0.0
  0
LINE
  5
208
102
{ACAD_REACTORS
330
206
102
}
330
1F
100
AcDbEntity
  8
XR$1$TB_712_1
  6
AUSGEZOGEN
 62
     7
440
 33554687
370
    -3
100
AcDbLine
 10
8.590563
 20
-0.360521
 30
0.0
 11
8.59109
 21
-0.361055
 31
0.0
  0
LINE
  5
209
102
{ACAD_REACTORS
330
206
102
}
330
1F
100
AcDbEntity
  8
XR$1$TB_712_1
  6
AUSGEZOGEN
 62
     7
440
 33554687
370
    -3
100
AcDbLine
 10
8.583194
 20
-0.353042
 30
0.0
 11
8.583194
 21
-0.353042
 31
0.0
  0
LINE
  5
20A
102
{ACAD_REACTORS
330
206
102
}
330
1F
100
AcDbEntity
  8
XR$1$TB_712_1
  6
AUSGEZOGEN
 62
     7
440
 33554687
370
    -3
100
AcDbLine
 10
8.583194
 20
-0.353042
 30
0.0
 11
8.583194
 21
-0.353042
 31
0.0
  0
LINE
  5
20B
102
{ACAD_REACTORS
330
206
102
}
330
1F
100
AcDbEntity
  8
XR$1$TB_712_1
  6
AUSGEZOGEN
 62
     7
440
 33554687
370
    -3
100
AcDbLine
 10
8.583194
 20
-0.353042
 30
0.0
 11
8.583194
 21
-0.353042
 31
0.0
  0
LINE
  5
20C
102
{ACAD_REACTORS
330
206
102
}
330
1F
100
AcDbEntity
  8
XR$1$TB_712_1
  6
AUSGEZOGEN
 62
     7
440
 33554687
370
    -3
100
AcDbLine
 10
8.583194
 20
-0.353042
 30
0.0
 11
8.589495
 21
-0.361574
 31
0.0
  0
LINE
  5
20D
102
{ACAD_REACTORS
330
206
102
}
330
1F
100
AcDbEntity
  8
XR$1$TB_712_1
  6
AUSGEZOGEN
 62
     7
440
 33554687
370
    -3
100
AcDbLine
 10
8.589495
 20
-0.361574
 30
0.0
 11
8.591632
 21
-0.359468
 31
0.0
  0
LINE
  5
20E
102
{ACAD_REACTORS
330
206
102
}
330
1F
100
AcDbEntity
  8
XR$1$TB_712_1
  6
AUSGEZOGEN
 62
     7
440
 33554687
370
    -3
100
AcDbLine
 10
8.591632
 20
-0.359468
 30
0.0
 11
8.583194
 21
-0.353042
 31
0.0
  0
HATCH
  5
20F
102
{ACAD_REACTORS
330
206
102
}
330
1F
100
AcDbEntity
  8
XR$1$TB_712_1
  6
AUSGEZOGEN
 62
     7
440
 33554687
370
    -3
100
AcDbHatch
 10
0.0
 20
0.0
 30
0.0
210
0.0
220
0.0
230
1.0
  2
SOLID
 70
     1
 71
     0
 91
        1
 92
        3
 72
     0
 73
     1
 93
        3
 10
8.5916318359375
 20
-0.3594680786132813
 10
8.583193603515625
 20
-0.353041748046875
 10
8.589494995117187
 20
-0.36157373046875
 97
        0
 75
     0
 76
     1
 98
        0
  0
MTEXT
  5
210
330
1F
100
AcDbEntity
  8
XR$1$TB_712_1
  6
AUSGEZOGEN
 62
     7
440
 33554687
370
    -3
100
AcDbMText
 10
9.090342
 20
-0.336108
 30
0.0
 40
0.0125
 41
0.094636
 46
0.0
 71
     7
 72
     5
  1
\W0.92;Art.-Nr.: 681
  7
ARIAL
 73
     1
 44
1.0
  0
LINE
  5
212
102
{ACAD_REACTORS
330
211
102
}
330
1F
100
AcDbEntity
  8
XR$1$TB_712_1
  6
AUSGEZOGEN
 62
     7
440
 33554687
370
    -3
100
AcDbLine
 10
9.090342
 20
-0.330275
 30
0.0
 11
9.054695
 21
-0.307517
 31
0.0
  0
LINE
  5
213
102
{ACAD_REACTORS
330
211
102
}
330
1F
100
AcDbEntity
  8
XR$1$TB_712_1
  6
AUSGEZOGEN
 62
     7
440
 33554687
370
    -3
100
AcDbLine
 10
9.063545
 20
-0.313167
 30
0.0
 11
9.064177
 21
-0.313571
 31
0.0
  0
LINE
  5
214
102
{ACAD_REACTORS
330
211
102
}
330
1F
100
AcDbEntity
  8
XR$1$TB_712_1
  6
AUSGEZOGEN
 62
     7
440
 33554687
370
    -3
100
AcDbLine
 10
9.054695
 20
-0.307517
 30
0.0
 11
9.054695
 21
-0.307517
 31
0.0
  0
LINE
  5
215
102
{ACAD_REACTORS
330
211
102
}
330
1F
100
AcDbEntity
  8
XR$1$TB_712_1
  6
AUSGEZOGEN
 62
     7
440
 33554687
370
    -3
100
AcDbLine
 10
9.054695
 20
-0.307517
 30
0.0
 11
9.054695
 21
-0.307517
 31
0.0
  0
LINE
  5
216
102
{ACAD_REACTORS
330
211
102
}
330
1F
100
AcDbEntity
  8
XR$1$TB_712_1
  6
AUSGEZOGEN
 62
     7
440
 33554687
370
    -3
100
AcDbLine
 10
9.054695
 20
-0.307517
 30
0.0
 11
9.054695
 21
-0.307517
 31
0.0
  0
LINE
  5
217
102
{ACAD_REACTORS
330
211
102
}
330
1F
100
AcDbEntity
  8
XR$1$TB_712_1
  6
AUSGEZOGEN
 62
     7
440
 33554687
370
    -3
100
AcDbLine
 10
9.054695
 20
-0.307517
 30
0.0
 11
9.062738
 21
-0.314431
 31
0.0
  0
LINE
  5
218
102
{ACAD_REACTORS
330
211
102
}
330
1F
100
AcDbEntity
  8
XR$1$TB_712_1
  6
AUSGEZOGEN
 62
     7
440
 33554687
370
    -3
100
AcDbLine
 10
9.062738
 20
-0.314431
 30
0.0
 11
9.064352
 21
-0.311903
 31
0.0
  0
LINE
  5
219
102
{ACAD_REACTORS
330
211
102
}
330
1F
100
AcDbEntity
  8
XR$1$TB_712_1
  6
AUSGEZOGEN
 62
     7
440
 33554687
370
    -3
100
AcDbLine
 10
9.064352
 20
-0.311903
 30
0.0
 11
9.054695
 21
-0.307517
 31
0.0
  0
HATCH
  5
21A
102
{ACAD_REACTORS
330
211
102
}
330
1F
100
AcDbEntity
  8
XR$1$TB_712_1
  6
AUSGEZOGEN
 62
     7
440
 33554687
370
    -3
100
AcDbHatch
 10
0.0
 20
0.0
 30
0.0
210
0.0
220
0.0
230
1.0
  2
SOLID
 70
     1
 71
     0
 91
        1
 92
        3
 72
     0
 73
     1
 93
        3
 10
9.064352478027343
 20
-0.31190283203125
 10
9.054695190429687
 20
-0.3075169067382812
 10
9.062738098144532
 20
-0.3144314575195313
 97
        0
 75
     0
 76
     1
 98
        0
  0
MTEXT
  5
21B
330
1F
100
AcDbEntity
  8
XR$1$TB_712_1
  6
AUSGEZOGEN
 62
     7
440
 33554687
370
    -3
100
AcDbMText
 10
9.090342
 20
-0.156108
 30
0.0
 40
0.0125
 41
0.094636
 46
0.0
 71
     7
 72
     5
  1
\W0.92;Art.-Nr.: 681
  7
ARIAL
 73
     1
 44
1.0
  0
LINE
  5
21D
102
{ACAD_REACTORS
330
21C
102
}
330
1F
100
AcDbEntity
  8
XR$1$TB_712_1
  6
AUSGEZOGEN
 62
     7
440
 33554687
370
    -3
100
AcDbLine
 10
9.090342
 20
-0.150275
 30
0.0
 11
9.054695
 21
-0.157517
 31
0.0
  0
LINE
  5
21E
102
{ACAD_REACTORS
330
21C
102
}
330
1F
100
AcDbEntity
  8
XR$1$TB_712_1
  6
AUSGEZOGEN
 62
     7
440
 33554687
370
    -3
100
AcDbLine
 10
9.064985
 20
-0.155426
 30
0.0
 11
9.06572
 21
-0.155277
 31
0.0
  0
LINE
  5
21F
102
{ACAD_REACTORS
330
21C
102
}
330
1F
100
AcDbEntity
  8
XR$1$TB_712_1
  6
AUSGEZOGEN
 62
     7
440
 33554687
370
    -3
100
AcDbLine
 10
9.054695
 20
-0.157517
 30
0.0
 11
9.054695
 21
-0.157517
 31
0.0
  0
LINE
  5
220
102
{ACAD_REACTORS
330
21C
102
}
330
1F
100
AcDbEntity
  8
XR$1$TB_712_1
  6
AUSGEZOGEN
 62
     7
440
 33554687
370
    -3
100
AcDbLine
 10
9.054695
 20
-0.157517
 30
0.0
 11
9.054695
 21
-0.157517
 31
0.0
  0
LINE
  5
221
102
{ACAD_REACTORS
330
21C
102
}
330
1F
100
AcDbEntity
  8
XR$1$TB_712_1
  6
AUSGEZOGEN
 62
     7
440
 33554687
370
    -3
100
AcDbLine
 10
9.054695
 20
-0.157517
 30
0.0
 11
9.054695
 21
-0.157517
 31
0.0
  0
LINE
  5
222
102
{ACAD_REACTORS
330
21C
102
}
330
1F
100
AcDbEntity
  8
XR$1$TB_712_1
  6
AUSGEZOGEN
 62
     7
440
 33554687
370
    -3
100
AcDbLine
 10
9.054695
 20
-0.157517
 30
0.0
 11
9.065284
 21
-0.156896
 31
0.0
  0
LINE
  5
223
102
{ACAD_REACTORS
330
21C
102
}
330
1F
100
AcDbEntity
  8
XR$1$TB_712_1
  6
AUSGEZOGEN
 62
     7
440
 33554687
370
    -3
100
AcDbLine
 10
9.065284
 20
-0.156896
 30
0.0
 11
9.064686
 21
-0.153956
 31
0.0
  0
LINE
  5
224
102
{ACAD_REACTORS
330
21C
102
}
330
1F
100
AcDbEntity
  8
XR$1$TB_712_1
  6
AUSGEZOGEN
 62
     7
440
 33554687
370
    -3
100
AcDbLine
 10
9.064686
 20
-0.153956
 30
0.0
 11
9.054695
 21
-0.157517
 31
0.0
  0
HATCH
  5
225
102
{ACAD_REACTORS
330
21C
102
}
330
1F
100
AcDbEntity
  8
XR$1$TB_712_1
  6
AUSGEZOGEN
 62
     7
440
 33554687
370
    -3
100
AcDbHatch
 10
0.0
 20
0.0
 30
0.0
210
0.0
220
0.0
230
1.0
  2
SOLID
 70
     1
 71
     0
 91
        1
 92
        3
 72
     0
 73
     1
 93
        3
 10
9.064686340332031
 20
-0.1539564819335938
 10
9.054695190429687
 20
-0.1575169067382813
 10
9.065283630371093
 20
-0.1568964233398437
 97
        0
 75
     0
 76
     1
 98
        0
  0
LINE
  5
227
102
{ACAD_REACTORS
330
226
102
}
330
1F
100
AcDbEntity
  8
XR$1$TB_712_1
  6
AUSGEZOGEN
 62
     7
440
 33554687
370
    -3
100
AcDbLine
 10
9.090342
 20
0.034415
 30
0.0
 11
9.047012
 21
-0.118015
 31
0.0
  0
LINE
  5
228
102
{ACAD_REACTORS
330
226
102
}
330
1F
100
AcDbEntity
  8
XR$1$TB_712_1
  6
AUSGEZOGEN
 62
     7
440
 33554687
370
    -3
100
AcDbLine
 10
9.049883
 20
-0.107915
 30
0.0
 11
9.050088
 21
-0.107193
 31
0.0
  0
LINE
  5
229
102
{ACAD_REACTORS
330
226
102
}
330
1F
100
AcDbEntity
  8
XR$1$TB_712_1
  6
AUSGEZOGEN
 62
     7
440
 33554687
370
    -3
100
AcDbLine
 10
9.047012
 20
-0.118015
 30
0.0
 11
9.047012
 21
-0.118015
 31
0.0
  0
LINE
  5
22A
102
{ACAD_REACTORS
330
226
102
}
330
1F
100
AcDbEntity
  8
XR$1$TB_712_1
  6
AUSGEZOGEN
 62
     7
440
 33554687
370
    -3
100
AcDbLine
 10
9.047012
 20
-0.118015
 30
0.0
 11
9.047012
 21
-0.118015
 31
0.0
  0
LINE
  5
22B
102
{ACAD_REACTORS
330
226
102
}
330
1F
100
AcDbEntity
  8
XR$1$TB_712_1
  6
AUSGEZOGEN
 62
     7
440
 33554687
370
    -3
100
AcDbLine
 10
9.047012
 20
-0.118015
 30
0.0
 11
9.047012
 21
-0.118015
 31
0.0
  0
LINE
  5
22C
102
{ACAD_REACTORS
330
226
102
}
330
1F
100
AcDbEntity
  8
XR$1$TB_712_1
  6
AUSGEZOGEN
 62
     7
440
 33554687
370
    -3
100
AcDbLine
 10
9.047012
 20
-0.118015
 30
0.0
 11
9.051326
 21
-0.108325
 31
0.0
  0
LINE
  5
22D
102
{ACAD_REACTORS
330
226
102
}
330
1F
100
AcDbEntity
  8
XR$1$TB_712_1
  6
AUSGEZOGEN
 62
     7
440
 33554687
370
    -3
100
AcDbLine
 10
9.051326
 20
-0.108325
 30
0.0
 11
9.04844
 21
-0.107505
 31
0.0
  0
LINE
  5
22E
102
{ACAD_REACTORS
330
226
102
}
330
1F
100
AcDbEntity
  8
XR$1$TB_712_1
  6
AUSGEZOGEN
 62
     7
440
 33554687
370
    -3
100
AcDbLine
 10
9.04844
 20
-0.107505
 30
0.0
 11
9.047012
 21
-0.118015
 31
0.0
  0
HATCH
  5
22F
102
{ACAD_REACTORS
330
226
102
}
330
1F
100
AcDbEntity
  8
XR$1$TB_712_1
  6
AUSGEZOGEN
 62
     7
440
 33554687
370
    -3
100
AcDbHatch
 10
0.0
 20
0.0
 30
0.0
210
0.0
220
0.0
230
1.0
  2
SOLID
 70
     1
 71
     0
 91
        1
 92
        3
 72
     0
 73
     1
 93
        3
 10
9.048440490722657
 20
-0.107504638671875
 10
9.047012390136718
 20
-0.1180146484375
 10
9.051326171875
 20
-0.1083248901367188
 97
        0
 75
     0
 76
     1
 98
        0
  0
LINE
  5
230
330
1F
100
AcDbEntity
  8
XR$1$TB_712_1
  6
STRICHPUNKT2_S5
 62
     7
440
 33554687
370
    -3
100
AcDbLine
 10
9.274012
 20
-0.389775
 30
0.0
 11
9.274012
 21
0.100485
 31
0.0
  0
LINE
  5
231
330
1F
100
AcDbEntity
  8
XR$1$TB_712_1
  6
STRICHPUNKT2_S5
 62
     7
440
 33554687
370
    -3
100
AcDbLine
 10
8.476515
 20
-0.389775
 30
0.0
 11
8.476515
 21
0.100485
 31
0.0
  0
MTEXT
  5
232
330
1F
100
AcDbEntity
  8
XR$1$TB_712_1
  6
AUSGEZOGEN
 62
     7
440
 33554687
370
    -3
100
AcDbMText
 10
9.23147
 20
-0.8355
 30
0.0
 40
0.009
 41
0.096773
 46
0.0
 71
     7
 72
     5
  1
\W0.91;STAND: Mai 2020
  7
ARIAL
 73
     1
 44
1.0
  0
VIEWPORT
  5
72
330
6E
100
AcDbEntity
 67
     1
  8
0
100
AcDbViewport
 10
0.105003
 20
0.148499
 30
0.0
 40
0.210206
 41
0.297197
 68
     1
 69
     1
 12
0.105003
 22
0.148499
 13
0.0
 23
0.0
 14
0.5
 24
0.5
 15
0.5
 25
0.5
 16
0.0
 26
0.0
 36
1.0
 17
0.0
 27
0.0
 37
0.0
 42
50.0
 43
0.0
 44
0.0
 45
0.297197
 50
0.0
 51
0.0
 72
   100
 90
   557152
  1

281
     0
 71
     1
 74
     0
110
0.0
120
0.0
130
0.0
111
1.0
121
0.0
131
0.0
112
0.0
122
1.0
132
0.0
 79
     0
146
0.0
170
     0
 61
     5
348
2F
292
     1
282
     1
141
0.0
142
0.0
 63
   256
361
73
  0
VIEWPORT
  5
235
330
6E
100
AcDbEntity
 67
     1
  8
PLAN_712
  6
AUSGEZOGEN
 62
     7
370
    35
100
AcDbViewport
 10
0.105003
 20
0.148499
 30
0.0
 40
0.210206
 41
0.297197
 68
     2
 69
     2
 12
0.0
 22
0.0
 13
0.0
 23
0.0
 14
1.0
 24
1.0
 15
0.0
 25
0.0
 16
0.0
 26
0.0
 36
1.0
 17
8.85951
 27
-0.196685
 37
0.0
 42
50.0
 43
0.0
 44
0.0
 45
1.485985
 50
0.0
 51
0.0
 72
   100
331
10
331
76
331
78
 90
   557280
  1

281
     0
 71
     1
 74
     0
110
0.0
120
0.0
130
0.0
111
1.0
121
0.0
131
0.0
112
0.0
122
1.0
132
0.0
 79
     0
146
0.0
170
     0
 61
     5
348
2F
292
     1
282
     1
141
0.0
142
0.0
 63
   256
361
236
  0
ENDSEC
  0
SECTION
  2
OBJECTS
  0
DICTIONARY
  5
C
330
0
100
AcDbDictionary
281
     1
  3
ACAD_DETAILVIEWSTYLE
350
26E
  3
ACAD_GROUP
350
D
  3
ACAD_LAYOUT
350
1A
  3
ACAD_MATERIAL
350
43
  3
ACAD_MLEADERSTYLE
350
6B
  3
ACAD_MLINESTYLE
350
17
  3
ACAD_PLOTSETTINGS
350
19
  3
ACAD_PLOTSTYLENAME
350
E
  3
ACAD_SCALELIST
350
47
  3
ACAD_SECTIONVIEWSTYLE
350
26F
  3
ACAD_TABLESTYLE
350
69
  3
ACAD_VISUALSTYLE
350
2A
  3
ACDB_RECOMPOSE_DATA
350
26B
  3
AcDbVariableDictionary
350
237
  0
SUN
  5
6D
330
29
100
AcDbSun
 90
        1
290
     0
 63
     7
421
 16777215
 40
1.0
291
     1
 91
  2455826
 92
 54000000
292
     0
 70
     2
 71
   256
280
     1
  0
DICTIONARY
  5
233
330
1F
100
AcDbDictionary
280
     1
281
     1
  3
ACAD_SORTENTS
360
234
  0
SUN
  5
73
330
72
100
AcDbSun
 90
        1
290
     0
 63
     7
421
 16777215
 40
1.0
291
     1
 91
  2455826
 92
 54000000
292
     0
 70
     2
 71
   256
280
     1
  0
SUN
  5
236
330
235
100
AcDbSun
 90
        1
290
     0
 63
     7
421
 16777215
 40
1.0
291
     1
 91
  2455826
 92
 54000000
292
     0
 70
     2
 71
   256
280
     1
  0
DICTIONARY
  5
26E
102
{ACAD_REACTORS
330
C
102
}
330
C
100
AcDbDictionary
281
     1
  0
DICTIONARY
  5
D
102
{ACAD_REACTORS
330
C
102
}
330
C
100
AcDbDictionary
281
     1
  3
VERBUNDBLOCK_0
350
7F
  3
VERBUNDBLOCK_1
350
96
  3
VERBUNDBLOCK_2
350
1FB
  3
VERBUNDBLOCK_3
350
206
  3
VERBUNDBLOCK_4
350
211
  3
VERBUNDBLOCK_5
350
21C
  3
VERBUNDBLOCK_6
350
226
  0
DICTIONARY
  5
1A
102
{ACAD_REACTORS
330
C
102
}
330
C
100
AcDbDictionary
281
     1
  3
K20 Klammersystem 13
350
6F
  3
Model
350
22
  0
DICTIONARY
  5
43
102
{ACAD_REACTORS
330
C
102
}
330
C
100
AcDbDictionary
281
     1
  3
ByBlock
350
45
  3
ByLayer
350
44
  3
Global
350
46
  0
DICTIONARY
  5
6B
102
{ACAD_REACTORS
330
C
102
}
330
C
100
AcDbDictionary
281
     1
  3
Standard
350
6C
  0
DICTIONARY
  5
17
102
{ACAD_REACTORS
330
C
102
}
330
C
100
AcDbDictionary
281
     1
  3
Standard
350
18
  0
DICTIONARY
  5
19
102
{ACAD_REACTORS
330
C
102
}
330
C
100
AcDbDictionary
281
     1
  0
ACDBDICTIONARYWDFLT
  5
E
102
{ACAD_REACTORS
330
C
102
}
330
C
100
AcDbDictionary
281
     1
  3
Normal
350
F
100
AcDbDictionaryWithDefault
340
F
  0
DICTIONARY
  5
47
102
{ACAD_REACTORS
330
C
102
}
330
C
100
AcDbDictionary
281
     1
  3
A0
350
48
  3
A1
350
49
  3
A2
350
4A
  3
A3
350
4B
  3
A4
350
4C
  3
A5
350
4D
  3
A6
350
4E
  3
A7
350
4F
  3
A8
350
50
  3
A9
350
51
  3
B0
350
52
  3
B1
350
53
  3
B2
350
54
  3
B3
350
55
  3
B4
350
56
  3
B5
350
57
  3
B6
350
58
  3
B7
350
59
  3
B8
350
5A
  3
B9
350
5B
  3
C0
350
5C
  3
C1
350
5D
  3
C2
350
5E
  3
C3
350
5F
  3
C4
350
60
  3
C5
350
61
  3
C6
350
62
  3
C7
350
63
  3
C8
350
64
  3
C9
350
65
  3
D0
350
66
  3
D1
350
67
  3
D2
350
68
  0
DICTIONARY
  5
26F
102
{ACAD_REACTORS
330
C
102
}
330
C
100
AcDbDictionary
281
     1
  0
DICTIONARY
  5
69
102
{ACAD_REACTORS
330
C
102
}
330
C
100
AcDbDictionary
281
     1
  3
Standard
350
6A
  0
DICTIONARY
  5
2A
102
{ACAD_REACTORS
330
C
102
}
330
C
100
AcDbDictionary
281
     1
  3
2dWireframe
350
2F
  3
Basic
350
32
  3
Brighten
350
36
  3
ColorChange
350
3A
  3
Conceptual
350
34
  3
Dim
350
35
  3
EdgeColorOff
350
3D
  3
Facepattern
350
39
  3
Flat
350
2B
  3
FlatWithEdges
350
2C
  3
Gouraud
350
2D
  3
GouraudWithEdges
350
2E
  3
Hidden
350
31
  3
JitterOff
350
3B
  3
Linepattern
350
38
  3
OverhangOff
350
3C
  3
Realistic
350
33
  3
Shaded
350
42
  3
Shaded with edges
350
41
  3
Shades of Gray
350
3E
  3
Sketchy
350
3F
  3
Thicken
350
37
  3
Wireframe
350
30
  3
X-Ray
350
40
  0
XRECORD
  5
26B
102
{ACAD_REACTORS
330
C
102
}
330
C
100
AcDbXrecord
280
     1
 90
        1
330
6A
  0
DICTIONARY
  5
237
102
{ACAD_REACTORS
330
C
102
}
330
C
100
AcDbDictionary
281
     1
  3
CANNOSCALE
350
238
  3
CMLEADERSTYLE
350
26D
  3
CTABLESTYLE
350
26C
  0
SORTENTSTABLE
  5
234
102
{ACAD_REACTORS
330
233
102
}
330
233
100
AcDbSortentsTable
330
1F
331
82
  5
8E
331
83
  5
8F
331
84
  5
91
331
85
  5
92
331
86
  5
93
331
87
  5
94
331
88
  5
95
331
89
  5
97
331
8A
  5
98
331
8B
  5
99
331
8C
  5
9A
331
8D
  5
9B
331
8E
  5
9C
331
8F
  5
9D
331
91
  5
9E
331
92
  5
82
331
93
  5
83
331
94
  5
84
331
95
  5
85
331
97
  5
86
331
98
  5
87
331
99
  5
88
331
9A
  5
9F
331
9B
  5
A0
331
9C
  5
A1
331
9D
  5
A2
331
9E
  5
A3
331
9F
  5
A4
331
A0
  5
A5
331
A1
  5
A6
331
A2
  5
A7
331
A3
  5
A8
331
A4
  5
A9
331
A5
  5
AA
331
A6
  5
AB
331
A7
  5
AC
331
A8
  5
AD
331
A9
  5
AE
331
AA
  5
AF
331
AB
  5
B0
331
AC
  5
B1
331
AD
  5
B2
331
AE
  5
B3
331
AF
  5
B4
331
B0
  5
B5
331
B1
  5
B6
331
B2
  5
B7
331
B3
  5
B8
331
B4
  5
B9
331
B5
  5
BA
331
B6
  5
BB
331
B7
  5
BC
331
B8
  5
BD
331
B9
  5
BE
331
BA
  5
BF
331
BB
  5
C0
331
BC
  5
C1
331
BD
  5
C2
331
BE
  5
C3
331
BF
  5
C4
331
C0
  5
C5
331
C1
  5
C6
331
C2
  5
C7
331
C3
  5
C8
331
C4
  5
C9
331
C5
  5
CA
331
C6
  5
CB
331
C7
  5
CC
331
C8
  5
CD
331
C9
  5
CE
331
CA
  5
CF
331
CB
  5
D0
331
CC
  5
D1
331
CD
  5
D2
331
CE
  5
D3
331
CF
  5
D4
331
D0
  5
D5
331
D1
  5
D6
331
D2
  5
D7
331
D3
  5
D8
331
D4
  5
D9
331
D5
  5
DA
331
D6
  5
DB
331
D7
  5
DC
331
D8
  5
DD
331
D9
  5
DE
331
DA
  5
DF
331
DB
  5
E0
331
DC
  5
E1
331
DD
  5
E2
331
DE
  5
E3
331
DF
  5
E4
331
E0
  5
E5
331
E1
  5
E6
331
E2
  5
E7
331
E3
  5
E8
331
E4
  5
E9
331
E5
  5
EA
331
E6
  5
EB
331
E7
  5
EC
331
E8
  5
ED
331
E9
  5
EE
331
EA
  5
EF
331
EB
  5
F0
331
EC
  5
F1
331
ED
  5
F2
331
EE
  5
F3
331
EF
  5
F4
331
F0
  5
F5
331
F1
  5
F6
331
F2
  5
F7
331
F3
  5
F8
331
F4
  5
F9
331
F5
  5
FA
331
F6
  5
FB
331
F7
  5
FC
331
F8
  5
FD
331
F9
  5
FE
331
FA
  5
FF
331
FB
  5
100
331
FC
  5
101
331
FD
  5
102
331
FE
  5
103
331
FF
  5
104
331
100
  5
105
331
101
  5
106
331
102
  5
107
331
103
  5
108
331
104
  5
109
331
105
  5
10A
331
106
  5
10B
331
107
  5
10C
331
108
  5
10D
331
109
  5
10E
331
10A
  5
10F
331
10B
  5
110
331
10C
  5
111
331
10D
  5
112
331
10E
  5
113
331
10F
  5
114
331
110
  5
115
331
111
  5
116
331
112
  5
117
331
113
  5
118
331
114
  5
119
331
115
  5
11A
331
116
  5
11B
331
117
  5
11C
331
118
  5
11D
331
119
  5
11E
331
11A
  5
11F
331
11B
  5
120
331
11C
  5
121
331
11D
  5
122
331
11E
  5
123
331
11F
  5
124
331
120
  5
125
331
121
  5
126
331
122
  5
127
331
123
  5
128
331
124
  5
129
331
125
  5
12A
331
126
  5
12B
331
127
  5
12C
331
128
  5
12D
331
129
  5
12E
331
12A
  5
12F
331
12B
  5
130
331
12C
  5
131
331
12D
  5
132
331
12E
  5
133
331
12F
  5
134
331
130
  5
135
331
131
  5
136
331
132
  5
137
331
133
  5
138
331
134
  5
139
331
135
  5
13A
331
136
  5
13B
331
137
  5
13C
331
138
  5
13D
331
139
  5
13E
331
13A
  5
13F
331
13B
  5
140
331
13C
  5
141
331
13D
  5
142
331
13E
  5
143
331
13F
  5
144
331
140
  5
145
331
141
  5
146
331
142
  5
147
331
143
  5
148
331
144
  5
149
331
145
  5
14A
331
146
  5
14B
331
147
  5
14C
331
148
  5
14D
331
149
  5
14E
331
14A
  5
14F
331
14B
  5
150
331
14C
  5
151
331
14D
  5
152
331
14E
  5
153
331
14F
  5
154
331
150
  5
155
331
151
  5
156
331
152
  5
157
331
153
  5
158
331
154
  5
159
331
155
  5
15A
331
156
  5
15B
331
157
  5
15C
331
158
  5
15D
331
159
  5
15E
331
15A
  5
15F
331
15B
  5
160
331
15C
  5
161
331
15D
  5
162
331
15E
  5
163
331
15F
  5
164
331
160
  5
165
331
161
  5
166
331
162
  5
167
331
163
  5
168
331
164
  5
169
331
165
  5
16A
331
166
  5
16B
331
167
  5
16C
331
168
  5
16D
331
169
  5
16E
331
16A
  5
16F
331
16B
  5
170
331
16C
  5
171
331
16D
  5
172
331
16E
  5
173
331
16F
  5
174
331
170
  5
175
331
171
  5
176
331
172
  5
177
331
173
  5
178
331
174
  5
179
331
175
  5
17A
331
176
  5
17B
331
177
  5
17C
331
178
  5
17D
331
179
  5
17E
331
17A
  5
17F
331
17B
  5
180
331
17C
  5
181
331
17D
  5
182
331
17E
  5
183
331
17F
  5
184
331
180
  5
185
331
181
  5
186
331
182
  5
187
331
183
  5
188
331
184
  5
189
331
185
  5
18A
331
186
  5
18B
331
187
  5
18C
331
188
  5
18D
331
189
  5
18E
331
18A
  5
18F
331
18B
  5
190
331
18C
  5
191
331
18D
  5
192
331
18E
  5
193
331
18F
  5
194
331
190
  5
195
331
191
  5
196
331
192
  5
197
331
193
  5
198
331
194
  5
199
331
195
  5
19A
331
196
  5
19B
331
197
  5
19C
331
198
  5
19D
331
199
  5
19E
331
19A
  5
19F
331
19B
  5
1A0
331
19C
  5
1A1
331
19D
  5
1A2
331
19E
  5
1A3
331
19F
  5
1A4
331
1A0
  5
1A5
331
1A1
  5
1A6
331
1A2
  5
1A7
331
1A3
  5
1A8
331
1A4
  5
1A9
331
1A5
  5
1AA
331
1A6
  5
1AB
331
1A7
  5
1AC
331
1A8
  5
1AD
331
1A9
  5
1AE
331
1AA
  5
1AF
331
1AB
  5
1B0
331
1AC
  5
1B1
331
1AD
  5
1B2
331
1AE
  5
1B3
331
1AF
  5
1B4
331
1B0
  5
1B5
331
1B1
  5
1B6
331
1B2
  5
1B7
331
1B3
  5
1B8
331
1B4
  5
1B9
331
1B5
  5
1BA
331
1B6
  5
1BB
331
1B7
  5
1BC
331
1B8
  5
1BD
331
1B9
  5
1BE
331
1BA
  5
1BF
331
1BB
  5
1C0
331
1BC
  5
1C1
331
1BD
  5
1C2
331
1BE
  5
1C3
331
1BF
  5
1C4
331
1C0
  5
1C5
331
1C1
  5
1C6
331
1C2
  5
1C7
331
1C3
  5
1C8
331
1C4
  5
1C9
331
1C5
  5
1CA
331
1C6
  5
1CB
331
1C7
  5
1CC
331
1C8
  5
1CD
331
1C9
  5
1CE
331
1CA
  5
1CF
331
1CB
  5
1D0
331
1CC
  5
1D1
331
1CD
  5
1D2
331
1CE
  5
1D3
331
1CF
  5
1D4
331
1D0
  5
1D5
331
1D1
  5
1D6
331
1D2
  5
1D7
331
1D3
  5
1D8
331
1D4
  5
1D9
331
1D5
  5
1DA
331
1D6
  5
1DB
331
1D7
  5
1DC
331
1D8
  5
1DD
331
1D9
  5
1DE
331
1DA
  5
1DF
331
1DB
  5
1E0
331
1DC
  5
1E1
331
1DD
  5
1E2
331
1DE
  5
1E3
331
1DF
  5
1E4
331
1E0
  5
1E5
331
1E1
  5
1E6
331
1E2
  5
1E7
331
1E3
  5
1E8
331
1E4
  5
1E9
331
1E5
  5
1EA
331
1E6
  5
1EB
331
1E7
  5
1EC
331
1E8
  5
1ED
331
1E9
  5
1EE
331
1EA
  5
1EF
331
1EB
  5
1F0
331
1EC
  5
1F1
331
1ED
  5
1F2
331
1EE
  5
1F3
331
1EF
  5
1F4
331
1F0
  5
1F5
331
1F1
  5
1F6
331
1F2
  5
1F7
331
1F3
  5
1F8
331
1F4
  5
1F9
331
1F5
  5
1FA
331
1F6
  5
1FC
331
1F7
  5
1FD
331
1F8
  5
1FE
331
1F9
  5
1FF
331
1FA
  5
200
331
1FC
  5
201
331
1FD
  5
202
331
1FE
  5
203
331
1FF
  5
204
331
200
  5
205
331
201
  5
207
331
202
  5
208
331
203
  5
209
331
204
  5
89
331
205
  5
20A
331
207
  5
20B
331
208
  5
20C
331
209
  5
20D
331
20A
  5
20E
331
20B
  5
20F
331
20C
  5
210
331
20D
  5
212
331
20E
  5
213
331
20F
  5
8A
331
210
  5
214
331
212
  5
215
331
213
  5
216
331
214
  5
217
331
215
  5
218
331
216
  5
219
331
217
  5
21A
331
218
  5
21B
331
219
  5
21D
331
21A
  5
8B
331
21B
  5
21E
331
21D
  5
21F
331
21E
  5
220
331
21F
  5
221
331
220
  5
222
331
221
  5
223
331
222
  5
224
331
223
  5
225
331
224
  5
227
331
225
  5
8C
331
227
  5
228
331
228
  5
229
331
229
  5
22A
331
22A
  5
22B
331
22B
  5
22C
331
22C
  5
22D
331
22D
  5
22E
331
22E
  5
22F
331
22F
  5
8D
  0
GROUP
  5
7F
102
{ACAD_REACTORS
330
D
102
}
330
D
100
AcDbGroup
300

 70
     0
 71
     1
340
80
340
81
  0
GROUP
  5
96
102
{ACAD_REACTORS
330
D
102
}
330
D
100
AcDbGroup
300

 70
     0
 71
     1
340
97
340
98
  0
GROUP
  5
1FB
102
{ACAD_REACTORS
330
D
102
}
330
D
100
AcDbGroup
300

 70
     0
 71
     1
340
1FC
340
1FD
340
1FE
340
1FF
340
200
340
201
340
202
340
203
340
204
  0
GROUP
  5
206
102
{ACAD_REACTORS
330
D
102
}
330
D
100
AcDbGroup
300

 70
     0
 71
     1
340
207
340
208
340
209
340
20A
340
20B
340
20C
340
20D
340
20E
340
20F
  0
GROUP
  5
211
102
{ACAD_REACTORS
330
D
102
}
330
D
100
AcDbGroup
300

 70
     0
 71
     1
340
212
340
213
340
214
340
215
340
216
340
217
340
218
340
219
340
21A
  0
GROUP
  5
21C
102
{ACAD_REACTORS
330
D
102
}
330
D
100
AcDbGroup
300

 70
     0
 71
     1
340
21D
340
21E
340
21F
340
220
340
221
340
222
340
223
340
224
340
225
  0
GROUP
  5
226
102
{ACAD_REACTORS
330
D
102
}
330
D
100
AcDbGroup
300

 70
     0
 71
     1
340
227
340
228
340
229
340
22A
340
22B
340
22C
340
22D
340
22E
340
22F
  0
LAYOUT
  5
6F
102
{ACAD_REACTORS
330
1A
102
}
330
1A
100
AcDbPlotSettings
  1

  2
none_device
  4
none_user_media
  6

 40
0.0
 41
0.0
 42
0.0
 43
0.0
 44
297.0
 45
209.9
 46
0.0
 47
0.0
 48
0.0
 49
0.0
140
0.0
141
0.0
142
1000.0
143
1.0
 70
   688
 72
     1
 73
     1
 74
     5
  7

 75
    33
 76
     0
 77
     2
 78
   300
147
1000.0
148
0.0
149
0.0
100
AcDbLayout
  1
K20 Klammersystem 13
 70
     0
 71
     1
 10
-0.0001
 20
-0.0001
 11
0.210106
 21
0.297097
 12
0.0
 22
0.0
 32
0.0
 14
-0.0001
 24
-0.0001
 34
0.0
 15
0.210106
 25
0.297097
 35
0.0
146
0.0
 13
0.0
 23
0.0
 33
0.0
 16
1.0
 26
0.0
 36
0.0
 17
0.0
 27
1.0
 37
0.0
 76
     0
330
6E
331
72
  0
LAYOUT
  5
22
102
{ACAD_REACTORS
330
1A
102
}
330
1A
100
AcDbPlotSettings
  1

  2
none_device
  4
Letter_(8.50_x_11.00_Inches)
  6

 40
6.35
 41
6.35
 42
6.350005
 43
6.350005
 44
215.9
 45
279.4
 46
0.0
 47
0.0
 48
0.0
 49
0.0
140
0.0
141
0.0
142
1.0
143
1.0
 70
  1712
 72
     0
 73
     0
 74
     0
  7

 75
     0
 76
     0
 77
     2
 78
   300
147
1.0
148
0.0
149
0.0
100
AcDbLayout
  1
Model
 70
     1
 71
     0
 10
8.334494
 20
-0.939177
 11
9.384526
 21
0.545808
 12
0.0
 22
0.0
 32
0.0
 14
8.334494
 24
-0.939177
 34
8.334494
 15
9.384526
 25
0.545808
 35
9.384526
146
0.0
 13
0.0
 23
0.0
 33
0.0
 16
1.0
 26
0.0
 36
0.0
 17
0.0
 27
1.0
 37
0.0
 76
     0
330
1F
331
29
  0
MATERIAL
  5
45
102
{ACAD_REACTORS
330
43
102
}
330
43
100
AcDbMaterial
  1
ByBlock
 72
     1
 94
      127
  0
MATERIAL
  5
44
102
{ACAD_REACTORS
330
43
102
}
330
43
100
AcDbMaterial
  1
ByLayer
 72
     1
 94
      127
  0
MATERIAL
  5
46
102
{ACAD_REACTORS
330
43
102
}
330
43
100
AcDbMaterial
  1
Global
 72
     1
 94
      127
  0
MLEADERSTYLE
  5
6C
102
{ACAD_REACTORS
330
6B
102
}
330
6B
100
AcDbMLeaderStyle
179
     2
170
     2
171
     1
172
     0
 90
        2
 40
0.0
 41
0.0
173
     1
 91
-1056964608
340
14
 92
       -2
290
     1
 42
0.09
291
     1
 43
0.36
  3
Standard
341
0
 44
0.18
300

342
11
174
     1
178
     6
175
     1
176
     0
 93
-1056964608
 45
0.18
292
     0
297
     0
 46
0.18
343
0
 94
-1056964608
 47
1.0
 49
1.0
140
1.0
293
     1
141
0.0
294
     1
177
     0
142
1.0
295
     0
296
     0
143
0.125
271
     0
272
     9
273
     9
  0
MLINESTYLE
  5
18
102
{ACAD_REACTORS
330
17
102
}
330
17
100
AcDbMlineStyle
  2
Standard
 70
     0
  3

 62
   256
 51
90.0
 52
90.0
 71
     2
 49
0.5
 62
   256
  6
BYLAYER
 49
-0.5
 62
   256
  6
BYLAYER
  0
ACDBPLACEHOLDER
  5
F
102
{ACAD_REACTORS
330
E
102
}
330
E
  0
SCALE
  5
48
102
{ACAD_REACTORS
330
47
102
}
330
47
100
AcDbScale
 70
     0
300
1:1
140
1.0
141
1.0
290
     1
  0
SCALE
  5
49
102
{ACAD_REACTORS
330
47
102
}
330
47
100
AcDbScale
 70
     0
300
1:2
140
1.0
141
2.0
290
     0
  0
SCALE
  5
4A
102
{ACAD_REACTORS
330
47
102
}
330
47
100
AcDbScale
 70
     0
300
1:4
140
1.0
141
4.0
290
     0
  0
SCALE
  5
4B
102
{ACAD_REACTORS
330
47
102
}
330
47
100
AcDbScale
 70
     0
300
1:5
140
1.0
141
5.0
290
     0
  0
SCALE
  5
4C
102
{ACAD_REACTORS
330
47
102
}
330
47
100
AcDbScale
 70
     0
300
1:8
140
1.0
141
8.0
290
     0
  0
SCALE
  5
4D
102
{ACAD_REACTORS
330
47
102
}
330
47
100
AcDbScale
 70
     0
300
1:10
140
1.0
141
10.0
290
     0
  0
SCALE
  5
4E
102
{ACAD_REACTORS
330
47
102
}
330
47
100
AcDbScale
 70
     0
300
1:16
140
1.0
141
16.0
290
     0
  0
SCALE
  5
4F
102
{ACAD_REACTORS
330
47
102
}
330
47
100
AcDbScale
 70
     0
300
1:20
140
1.0
141
20.0
290
     0
  0
SCALE
  5
50
102
{ACAD_REACTORS
330
47
102
}
330
47
100
AcDbScale
 70
     0
300
1:30
140
1.0
141
30.0
290
     0
  0
SCALE
  5
51
102
{ACAD_REACTORS
330
47
102
}
330
47
100
AcDbScale
 70
     0
300
1:40
140
1.0
141
40.0
290
     0
  0
SCALE
  5
52
102
{ACAD_REACTORS
330
47
102
}
330
47
100
AcDbScale
 70
     0
300
1:50
140
1.0
141
50.0
290
     0
  0
SCALE
  5
53
102
{ACAD_REACTORS
330
47
102
}
330
47
100
AcDbScale
 70
     0
300
1:100
140
1.0
141
100.0
290
     0
  0
SCALE
  5
54
102
{ACAD_REACTORS
330
47
102
}
330
47
100
AcDbScale
 70
     0
300
2:1
140
2.0
141
1.0
290
     0
  0
SCALE
  5
55
102
{ACAD_REACTORS
330
47
102
}
330
47
100
AcDbScale
 70
     0
300
4:1
140
4.0
141
1.0
290
     0
  0
SCALE
  5
56
102
{ACAD_REACTORS
330
47
102
}
330
47
100
AcDbScale
 70
     0
300
8:1
140
8.0
141
1.0
290
     0
  0
SCALE
  5
57
102
{ACAD_REACTORS
330
47
102
}
330
47
100
AcDbScale
 70
     0
300
10:1
140
10.0
141
1.0
290
     0
  0
SCALE
  5
58
102
{ACAD_REACTORS
330
47
102
}
330
47
100
AcDbScale
 70
     0
300
100:1
140
100.0
141
1.0
290
     0
  0
SCALE
  5
59
102
{ACAD_REACTORS
330
47
102
}
330
47
100
AcDbScale
 70
     0
300
1/128" = 1'-0"
140
0.007812
141
12.0
290
     0
  0
SCALE
  5
5A
102
{ACAD_REACTORS
330
47
102
}
330
47
100
AcDbScale
 70
     0
300
1/64" = 1'-0"
140
0.015625
141
12.0
290
     0
  0
SCALE
  5
5B
102
{ACAD_REACTORS
330
47
102
}
330
47
100
AcDbScale
 70
     0
300
1/32" = 1'-0"
140
0.03125
141
12.0
290
     0
  0
SCALE
  5
5C
102
{ACAD_REACTORS
330
47
102
}
330
47
100
AcDbScale
 70
     0
300
1/16" = 1'-0"
140
0.0625
141
12.0
290
     0
  0
SCALE
  5
5D
102
{ACAD_REACTORS
330
47
102
}
330
47
100
AcDbScale
 70
     0
300
3/32" = 1'-0"
140
0.09375
141
12.0
290
     0
  0
SCALE
  5
5E
102
{ACAD_REACTORS
330
47
102
}
330
47
100
AcDbScale
 70
     0
300
1/8" = 1'-0"
140
0.125
141
12.0
290
     0
  0
SCALE
  5
5F
102
{ACAD_REACTORS
330
47
102
}
330
47
100
AcDbScale
 70
     0
300
3/16" = 1'-0"
140
0.1875
141
12.0
290
     0
  0
SCALE
  5
60
102
{ACAD_REACTORS
330
47
102
}
330
47
100
AcDbScale
 70
     0
300
1/4" = 1'-0"
140
0.25
141
12.0
290
     0
  0
SCALE
  5
61
102
{ACAD_REACTORS
330
47
102
}
330
47
100
AcDbScale
 70
     0
300
3/8" = 1'-0"
140
0.375
141
12.0
290
     0
  0
SCALE
  5
62
102
{ACAD_REACTORS
330
47
102
}
330
47
100
AcDbScale
 70
     0
300
1/2" = 1'-0"
140
0.5
141
12.0
290
     0
  0
SCALE
  5
63
102
{ACAD_REACTORS
330
47
102
}
330
47
100
AcDbScale
 70
     0
300
3/4" = 1'-0"
140
0.75
141
12.0
290
     0
  0
SCALE
  5
64
102
{ACAD_REACTORS
330
47
102
}
330
47
100
AcDbScale
 70
     0
300
1" = 1'-0"
140
1.0
141
12.0
290
     0
  0
SCALE
  5
65
102
{ACAD_REACTORS
330
47
102
}
330
47
100
AcDbScale
 70
     0
300
1-1/2" = 1'-0"
140
1.5
141
12.0
290
     0
  0
SCALE
  5
66
102
{ACAD_REACTORS
330
47
102
}
330
47
100
AcDbScale
 70
     0
300
3" = 1'-0"
140
3.0
141
12.0
290
     0
  0
SCALE
  5
67
102
{ACAD_REACTORS
330
47
102
}
330
47
100
AcDbScale
 70
     0
300
6" = 1'-0"
140
6.0
141
12.0
290
     0
  0
SCALE
  5
68
102
{ACAD_REACTORS
330
47
102
}
330
47
100
AcDbScale
 70
     0
300
1'-0" = 1'-0"
140
12.0
141
12.0
290
     0
  0
TABLESTYLE
  5
6A
102
{ACAD_REACTORS
330
69
102
}
102
{ACAD_XDICTIONARY
360
269
102
}
330
69
100
AcDbTableStyle
  3
Standard
 70
     0
 71
     0
 40
0.06
 41
0.06
280
     0
281
     0
  7
Standard
140
0.18
170
     2
 62
     0
 63
   257
283
     0
 90
        4
 91
        0
  1

274
    -2
284
     1
 64
     0
275
    -2
285
     1
 65
     0
276
    -2
286
     1
 66
     0
277
    -2
287
     1
 67
     0
278
    -2
288
     1
 68
     0
279
    -2
289
     1
 69
     0
  7
Standard
140
0.25
170
     5
 62
     0
 63
   257
283
     0
 90
        4
 91
        0
  1

274
    -2
284
     1
 64
     0
275
    -2
285
     1
 65
     0
276
    -2
286
     1
 66
     0
277
    -2
287
     1
 67
     0
278
    -2
288
     1
 68
     0
279
    -2
289
     1
 69
     0
  7
Standard
140
0.18
170
     5
 62
     0
 63
   257
283
     0
 90
        4
 91
        0
  1

274
    -2
284
     1
 64
     0
275
    -2
285
     1
 65
     0
276
    -2
286
     1
 66
     0
277
    -2
287
     1
 67
     0
278
    -2
288
     1
 68
     0
279
    -2
289
     1
 69
     0
  0
VISUALSTYLE
  5
2F
102
{ACAD_REACTORS
330
2A
102
}
102
{ACAD_XDICTIONARY
360
241
102
}
330
2A
100
AcDbVisualStyle
  2
2dWireframe
 70
     4
177
     2
291
     0
 71
     0
176
     1
 72
     2
176
     1
 73
     0
176
     1
 90
        0
176
     1
 40
0.6
176
     1
 41
30.0
176
     1
 62
     5
 63
     7
421
 16777215
176
     1
 74
     1
176
     1
 91
        4
176
     1
 64
     7
176
     1
 65
   257
176
     1
 75
     1
176
     1
175
     1
176
     1
 42
1.0
176
     1
 92
        0
176
     1
 66
   257
176
     1
 43
1.0
176
     1
 76
     1
176
     1
 77
     6
176
     1
 78
     2
176
     1
 67
     7
176
     1
 79
     5
176
     1
170
     0
176
     1
171
     0
176
     1
290
     0
176
     1
 93
        1
176
     1
 44
0.0
176
     1
173
     0
176
     1
  0
VISUALSTYLE
  5
32
102
{ACAD_REACTORS
330
2A
102
}
102
{ACAD_XDICTIONARY
360
247
102
}
330
2A
100
AcDbVisualStyle
  2
Basic
 70
     7
177
     2
291
     1
 71
     1
176
     1
 72
     0
176
     1
 73
     1
176
     1
 90
        0
176
     1
 40
0.6
176
     1
 41
30.0
176
     1
 62
     5
 63
     7
421
 16777215
176
     1
 74
     0
176
     1
 91
        4
176
     1
 64
     7
176
     1
 65
   257
176
     1
 75
     1
176
     1
175
     1
176
     1
 42
1.0
176
     1
 92
        8
176
     1
 66
     7
176
     1
 43
1.0
176
     1
 76
     1
176
     1
 77
     6
176
     1
 78
     2
176
     1
 67
     7
176
     1
 79
     5
176
     1
170
     0
176
     1
171
     0
176
     1
290
     0
176
     1
 93
        1
176
     1
 44
0.0
176
     1
173
     0
176
     1
  0
VISUALSTYLE
  5
36
102
{ACAD_REACTORS
330
2A
102
}
102
{ACAD_XDICTIONARY
360
24F
102
}
330
2A
100
AcDbVisualStyle
  2
Brighten
 70
    12
177
     2
291
     1
 71
     2
176
     1
 72
     2
176
     1
 73
     0
176
     1
 90
        0
176
     1
 40
0.6
176
     1
 41
30.0
176
     1
 62
     5
 63
     7
421
 16777215
176
     1
 74
     1
176
     1
 91
        4
176
     1
 64
     7
176
     1
 65
   257
176
     1
 75
     1
176
     1
175
     1
176
     1
 42
1.0
176
     1
 92
        8
176
     1
 66
     7
176
     1
 43
1.0
176
     1
 76
     1
176
     1
 77
     6
176
     1
 78
     2
176
     1
 67
     7
176
     1
 79
     5
176
     1
170
     0
176
     1
171
     0
176
     1
290
     0
176
     1
 93
        1
176
     1
 44
50.0
176
     1
173
     0
176
     1
  0
VISUALSTYLE
  5
3A
102
{ACAD_REACTORS
330
2A
102
}
102
{ACAD_XDICTIONARY
360
257
102
}
330
2A
100
AcDbVisualStyle
  2
ColorChange
 70
    16
177
     2
291
     1
 71
     2
176
     1
 72
     2
176
     1
 73
     3
176
     1
 90
        0
176
     1
 40
0.6
176
     1
 41
30.0
176
     1
 62
     5
 63
     8
421
  8421504
176
     1
 74
     1
176
     1
 91
        4
176
     1
 64
     7
176
     1
 65
   257
176
     1
 75
     1
176
     1
175
     1
176
     1
 42
1.0
176
     1
 92
        8
176
     1
 66
     8
424
  8421504
176
     1
 43
1.0
176
     1
 76
     1
176
     1
 77
     6
176
     1
 78
     2
176
     1
 67
     7
176
     1
 79
     5
176
     1
170
     0
176
     1
171
     0
176
     1
290
     0
176
     1
 93
        1
176
     1
 44
0.0
176
     1
173
     0
176
     1
  0
VISUALSTYLE
  5
34
102
{ACAD_REACTORS
330
2A
102
}
102
{ACAD_XDICTIONARY
360
24B
102
}
330
2A
100
AcDbVisualStyle
  2
Conceptual
 70
     9
177
     2
291
     0
 71
     3
176
     1
 72
     2
176
     1
 73
     0
176
     1
 90
        0
176
     1
 40
0.6
176
     1
 41
30.0
176
     1
 62
     5
 63
     7
421
 16777215
176
     1
 74
     2
176
     1
 91
        2
176
     1
 64
     7
176
     1
 65
   257
176
     1
 75
     1
176
     1
175
     1
176
     1
 42
179.0
176
     1
 92
        8
176
     1
 66
     7
176
     1
 43
1.0
176
     1
 76
     1
176
     1
 77
     6
176
     1
 78
     2
176
     1
 67
     7
176
     1
 79
     3
176
     1
170
     0
176
     1
171
     0
176
     1
290
     0
176
     1
 93
        1
176
     1
 44
0.0
176
     1
173
     0
176
     1
  0
VISUALSTYLE
  5
35
102
{ACAD_REACTORS
330
2A
102
}
102
{ACAD_XDICTIONARY
360
24D
102
}
330
2A
100
AcDbVisualStyle
  2
Dim
 70
    11
177
     2
291
     1
 71
     2
176
     1
 72
     2
176
     1
 73
     0
176
     1
 90
        0
176
     1
 40
0.6
176
     1
 41
30.0
176
     1
 62
     5
 63
     7
421
 16777215
176
     1
 74
     1
176
     1
 91
        4
176
     1
 64
     7
176
     1
 65
   257
176
     1
 75
     1
176
     1
175
     1
176
     1
 42
1.0
176
     1
 92
        8
176
     1
 66
     7
176
     1
 43
1.0
176
     1
 76
     1
176
     1
 77
     6
176
     1
 78
     2
176
     1
 67
     7
176
     1
 79
     5
176
     1
170
     0
176
     1
171
     0
176
     1
290
     0
176
     1
 93
        1
176
     1
 44
-50.0
176
     1
173
     0
176
     1
  0
VISUALSTYLE
  5
3D
102
{ACAD_REACTORS
330
2A
102
}
102
{ACAD_XDICTIONARY
360
25D
102
}
330
2A
100
AcDbVisualStyle
  2
EdgeColorOff
 70
    22
177
     2
291
     1
 71
     2
176
     0
 72
     2
176
     0
 73
     0
176
     0
 90
        0
176
     0
 40
0.6
176
     0
 41
30.0
176
     0
 62
     5
 63
     7
421
 16777215
176
     0
 74
     1
176
     0
 91
        4
176
     0
 64
     7
176
     0
 65
   257
176
     0
 75
     1
176
     0
175
     1
176
     0
 42
1.0
176
     0
 92
        8
176
     2
 66
     7
176
     0
 43
1.0
176
     0
 76
     1
176
     0
 77
     6
176
     0
 78
     2
176
     0
 67
     7
176
     0
 79
     5
176
     0
170
     0
176
     0
171
     0
176
     0
290
     0
176
     0
 93
        1
176
     0
 44
0.0
176
     0
173
     0
176
     0
  0
VISUALSTYLE
  5
39
102
{ACAD_REACTORS
330
2A
102
}
102
{ACAD_XDICTIONARY
360
255
102
}
330
2A
100
AcDbVisualStyle
  2
Facepattern
 70
    15
177
     2
291
     1
 71
     2
176
     1
 72
     2
176
     1
 73
     0
176
     1
 90
        0
176
     1
 40
0.6
176
     1
 41
30.0
176
     1
 62
     5
 63
     7
421
 16777215
176
     1
 74
     1
176
     1
 91
        4
176
     1
 64
     7
176
     1
 65
   257
176
     1
 75
     1
176
     1
175
     1
176
     1
 42
1.0
176
     1
 92
        8
176
     1
 66
     7
176
     1
 43
1.0
176
     1
 76
     1
176
     1
 77
     6
176
     1
 78
     2
176
     1
 67
     7
176
     1
 79
     5
176
     1
170
     0
176
     1
171
     0
176
     1
290
     0
176
     1
 93
        1
176
     1
 44
0.0
176
     1
173
     0
176
     1
  0
VISUALSTYLE
  5
2B
102
{ACAD_REACTORS
330
2A
102
}
102
{ACAD_XDICTIONARY
360
239
102
}
330
2A
100
AcDbVisualStyle
  2
Flat
 70
     0
177
     2
291
     1
 71
     2
176
     1
 72
     1
176
     1
 73
     1
176
     1
 90
        2
176
     1
 40
0.6
176
     1
 41
30.0
176
     1
 62
     5
 63
     7
421
 16777215
176
     1
 74
     0
176
     1
 91
        0
176
     1
 64
     7
176
     1
 65
   257
176
     1
 75
     1
176
     1
175
     1
176
     1
 42
1.0
176
     1
 92
        8
176
     1
 66
     7
176
     1
 43
1.0
176
     1
 76
     1
176
     1
 77
     6
176
     1
 78
     2
176
     1
 67
     7
176
     1
 79
     5
176
     1
170
     0
176
     1
171
     0
176
     1
290
     0
176
     1
 93
       13
176
     1
 44
0.0
176
     1
173
     0
176
     1
  0
VISUALSTYLE
  5
2C
102
{ACAD_REACTORS
330
2A
102
}
102
{ACAD_XDICTIONARY
360
23B
102
}
330
2A
100
AcDbVisualStyle
  2
FlatWithEdges
 70
     1
177
     2
291
     1
 71
     2
176
     1
 72
     1
176
     1
 73
     1
176
     1
 90
        2
176
     1
 40
0.6
176
     1
 41
30.0
176
     1
 62
     5
 63
     7
421
 16777215
176
     1
 74
     1
176
     1
 91
        0
176
     1
 64
     7
176
     1
 65
   257
176
     1
 75
     1
176
     1
175
     1
176
     1
 42
1.0
176
     1
 92
        0
176
     1
 66
   257
176
     1
 43
1.0
176
     1
 76
     1
176
     1
 77
     6
176
     1
 78
     2
176
     1
 67
     7
176
     1
 79
     5
176
     1
170
     0
176
     1
171
     0
176
     1
290
     0
176
     1
 93
       13
176
     1
 44
0.0
176
     1
173
     0
176
     1
  0
VISUALSTYLE
  5
2D
102
{ACAD_REACTORS
330
2A
102
}
102
{ACAD_XDICTIONARY
360
23D
102
}
330
2A
100
AcDbVisualStyle
  2
Gouraud
 70
     2
177
     2
291
     1
 71
     2
176
     1
 72
     2
176
     1
 73
     1
176
     1
 90
        2
176
     1
 40
0.6
176
     1
 41
30.0
176
     1
 62
     5
 63
     7
421
 16777215
176
     1
 74
     0
176
     1
 91
        0
176
     1
 64
     7
176
     1
 65
   257
176
     1
 75
     1
176
     1
175
     1
176
     1
 42
1.0
176
     1
 92
        0
176
     1
 66
     7
176
     1
 43
1.0
176
     1
 76
     1
176
     1
 77
     6
176
     1
 78
     2
176
     1
 67
     7
176
     1
 79
     5
176
     1
170
     0
176
     1
171
     0
176
     1
290
     0
176
     1
 93
       13
176
     1
 44
0.0
176
     1
173
     0
176
     1
  0
VISUALSTYLE
  5
2E
102
{ACAD_REACTORS
330
2A
102
}
102
{ACAD_XDICTIONARY
360
23F
102
}
330
2A
100
AcDbVisualStyle
  2
GouraudWithEdges
 70
     3
177
     2
291
     1
 71
     2
176
     1
 72
     2
176
     1
 73
     1
176
     1
 90
        2
176
     1
 40
0.6
176
     1
 41
30.0
176
     1
 62
     5
 63
     7
421
 16777215
176
     1
 74
     1
176
     1
 91
        0
176
     1
 64
     7
176
     1
 65
   257
176
     1
 75
     1
176
     1
175
     1
176
     1
 42
1.0
176
     1
 92
        0
176
     1
 66
   257
176
     1
 43
1.0
176
     1
 76
     1
176
     1
 77
     6
176
     1
 78
     2
176
     1
 67
     7
176
     1
 79
     5
176
     1
170
     0
176
     1
171
     0
176
     1
290
     0
176
     1
 93
       13
176
     1
 44
0.0
176
     1
173
     0
176
     1
  0
VISUALSTYLE
  5
31
102
{ACAD_REACTORS
330
2A
102
}
102
{ACAD_XDICTIONARY
360
245
102
}
330
2A
100
AcDbVisualStyle
  2
Hidden
 70
     6
177
     2
291
     0
 71
     1
176
     1
 72
     2
176
     1
 73
     2
176
     1
 90
        0
176
     1
 40
0.6
176
     1
 41
30.0
176
     1
 62
     5
 63
     7
421
 16777215
176
     1
 74
     2
176
     1
 91
        2
176
     1
 64
     7
176
     1
 65
   257
176
     1
 75
     2
176
     1
175
     1
176
     1
 42
40.0
176
     1
 92
        0
176
     1
 66
   257
176
     1
 43
1.0
176
     1
 76
     1
176
     1
 77
     6
176
     1
 78
     2
176
     1
 67
     7
176
     1
 79
     3
176
     1
170
     0
176
     1
171
     0
176
     1
290
     0
176
     1
 93
        1
176
     1
 44
0.0
176
     1
173
     0
176
     1
  0
VISUALSTYLE
  5
3B
102
{ACAD_REACTORS
330
2A
102
}
102
{ACAD_XDICTIONARY
360
259
102
}
330
2A
100
AcDbVisualStyle
  2
JitterOff
 70
    20
177
     2
291
     1
 71
     2
176
     0
 72
     2
176
     0
 73
     0
176
     0
 90
        0
176
     0
 40
0.6
176
     0
 41
30.0
176
     0
 62
     5
 63
     7
421
 16777215
176
     0
 74
     1
176
     0
 91
        4
176
     0
 64
     7
176
     0
 65
   257
176
     0
 75
     1
176
     0
175
     1
176
     0
 42
1.0
176
     0
 92
       10
176
     2
 66
     7
176
     0
 43
1.0
176
     0
 76
     1
176
     0
 77
     6
176
     0
 78
     2
176
     0
 67
     7
176
     0
 79
     5
176
     0
170
     0
176
     0
171
     0
176
     0
290
     0
176
     0
 93
        1
176
     0
 44
0.0
176
     0
173
     0
176
     0
  0
VISUALSTYLE
  5
38
102
{ACAD_REACTORS
330
2A
102
}
102
{ACAD_XDICTIONARY
360
253
102
}
330
2A
100
AcDbVisualStyle
  2
Linepattern
 70
    14
177
     2
291
     1
 71
     2
176
     1
 72
     2
176
     1
 73
     0
176
     1
 90
        0
176
     1
 40
0.6
176
     1
 41
30.0
176
     1
 62
     5
 63
     7
421
 16777215
176
     1
 74
     1
176
     1
 91
        4
176
     1
 64
     7
176
     1
 65
   257
176
     1
 75
     7
176
     1
175
     7
176
     1
 42
1.0
176
     1
 92
        8
176
     1
 66
     7
176
     1
 43
1.0
176
     1
 76
     1
176
     1
 77
     6
176
     1
 78
     2
176
     1
 67
     7
176
     1
 79
     5
176
     1
170
     0
176
     1
171
     0
176
     1
290
     0
176
     1
 93
        1
176
     1
 44
0.0
176
     1
173
     0
176
     1
  0
VISUALSTYLE
  5
3C
102
{ACAD_REACTORS
330
2A
102
}
102
{ACAD_XDICTIONARY
360
25B
102
}
330
2A
100
AcDbVisualStyle
  2
OverhangOff
 70
    21
177
     2
291
     1
 71
     2
176
     0
 72
     2
176
     0
 73
     0
176
     0
 90
        0
176
     0
 40
0.6
176
     0
 41
30.0
176
     0
 62
     5
 63
     7
421
 16777215
176
     0
 74
     1
176
     0
 91
        4
176
     0
 64
     7
176
     0
 65
   257
176
     0
 75
     1
176
     0
175
     1
176
     0
 42
1.0
176
     0
 92
        9
176
     2
 66
     7
176
     0
 43
1.0
176
     0
 76
     1
176
     0
 77
     6
176
     0
 78
     2
176
     0
 67
     7
176
     0
 79
     5
176
     0
170
     0
176
     0
171
     0
176
     0
290
     0
176
     0
 93
        1
176
     0
 44
0.0
176
     0
173
     0
176
     0
  0
VISUALSTYLE
  5
33
102
{ACAD_REACTORS
330
2A
102
}
102
{ACAD_XDICTIONARY
360
249
102
}
330
2A
100
AcDbVisualStyle
  2
Realistic
 70
     8
177
     2
291
     0
 71
     2
176
     1
 72
     3
176
     1
 73
     0
176
     1
 90
        2
176
     1
 40
0.6
176
     1
 41
30.0
176
     1
 62
     5
 63
     7
421
 16777215
176
     1
 74
     0
176
     1
 91
        0
176
     1
 64
     7
176
     1
 65
   257
176
     1
 75
     1
176
     1
175
     1
176
     1
 42
1.0
176
     1
 92
        8
176
     1
 66
   257
176
     1
 43
1.0
176
     1
 76
     1
176
     1
 77
     6
176
     1
 78
     2
176
     1
 67
     7
176
     1
 79
     3
176
     1
170
     0
176
     1
171
     0
176
     1
290
     0
176
     1
 93
       13
176
     1
 44
0.0
176
     1
173
     0
176
     1
  0
VISUALSTYLE
  5
42
102
{ACAD_REACTORS
330
2A
102
}
102
{ACAD_XDICTIONARY
360
267
102
}
330
2A
100
AcDbVisualStyle
  2
Shaded
 70
    27
177
     2
291
     0
 71
     2
176
     1
 72
     2
176
     1
 73
     1
176
     1
 90
        2
176
     1
 40
0.6
176
     1
 41
30.0
176
     1
 62
     5
 63
     7
421
 16777215
176
     1
 74
     0
176
     1
 91
        4
176
     1
 64
     7
176
     1
 65
   257
176
     1
 75
     1
176
     1
175
     1
176
     1
 42
1.0
176
     1
 92
        8
176
     1
 66
   257
176
     1
 43
1.0
176
     1
 76
     1
176
     1
 77
     6
176
     1
 78
     2
176
     1
 67
     8
425
  7895160
176
     1
 79
     3
176
     1
170
     0
176
     1
171
     0
176
     1
290
     0
176
     1
 93
        5
176
     1
 44
0.0
176
     1
173
     0
176
     1
  0
VISUALSTYLE
  5
41
102
{ACAD_REACTORS
330
2A
102
}
102
{ACAD_XDICTIONARY
360
265
102
}
330
2A
100
AcDbVisualStyle
  2
Shaded with edges
 70
    26
177
     2
291
     0
 71
     2
176
     1
 72
     2
176
     1
 73
     1
176
     1
 90
        2
176
     1
 40
0.6
176
     1
 41
30.0
176
     1
 62
     5
 63
     7
421
 16777215
176
     1
 74
     1
176
     1
 91
       10
176
     1
 64
     7
176
     1
 65
   257
176
     1
 75
     2
176
     1
175
     1
176
     1
 42
1.0
176
     1
 92
        8
176
     1
 66
   257
176
     1
 43
1.0
176
     1
 76
     1
176
     1
 77
     6
176
     1
 78
     2
176
     1
 67
     7
176
     1
 79
     3
176
     1
170
     0
176
     1
171
     0
176
     1
290
     0
176
     1
 93
        5
176
     1
 44
0.0
176
     1
173
     0
176
     1
  0
VISUALSTYLE
  5
3E
102
{ACAD_REACTORS
330
2A
102
}
102
{ACAD_XDICTIONARY
360
25F
102
}
330
2A
100
AcDbVisualStyle
  2
Shades of Gray
 70
    23
177
     2
291
     0
 71
     2
176
     1
 72
     2
176
     1
 73
     3
176
     1
 90
        0
176
     1
 40
0.6
176
     1
 41
30.0
176
     1
 62
     5
 63
     7
421
 16777215
176
     1
 74
     2
176
     1
 91
        2
176
     1
 64
     7
176
     1
 65
     7
176
     1
 75
     1
176
     1
175
     1
176
     1
 42
40.0
176
     1
 92
        8
176
     1
 66
     7
176
     1
 43
1.0
176
     1
 76
     1
176
     1
 77
     6
176
     1
 78
     2
176
     1
 67
     7
176
     1
 79
     3
176
     1
170
     0
176
     1
171
     0
176
     1
290
     0
176
     1
 93
        1
176
     1
 44
0.0
176
     1
173
     0
176
     1
  0
VISUALSTYLE
  5
3F
102
{ACAD_REACTORS
330
2A
102
}
102
{ACAD_XDICTIONARY
360
261
102
}
330
2A
100
AcDbVisualStyle
  2
Sketchy
 70
    24
177
     2
291
     0
 71
     1
176
     1
 72
     2
176
     1
 73
     2
176
     1
 90
        0
176
     1
 40
0.6
176
     1
 41
30.0
176
     1
 62
     5
 63
     7
421
 16777215
176
     1
 74
     2
176
     1
 91
        2
176
     1
 64
     7
176
     1
 65
     7
176
     1
 75
     1
176
     1
175
     1
176
     1
 42
40.0
176
     1
 92
       11
176
     1
 66
     7
176
     1
 43
1.0
176
     1
 76
     1
176
     1
 77
     6
176
     1
 78
     2
176
     1
 67
     7
176
     1
 79
     6
176
     1
170
     0
176
     1
171
     0
176
     1
290
     0
176
     1
 93
        1
176
     1
 44
0.0
176
     1
173
     0
176
     1
  0
VISUALSTYLE
  5
37
102
{ACAD_REACTORS
330
2A
102
}
102
{ACAD_XDICTIONARY
360
251
102
}
330
2A
100
AcDbVisualStyle
  2
Thicken
 70
    13
177
     2
291
     1
 71
     2
176
     1
 72
     2
176
     1
 73
     0
176
     1
 90
        0
176
     1
 40
0.6
176
     1
 41
30.0
176
     1
 62
     5
 63
     7
421
 16777215
176
     1
 74
     1
176
     1
 91
        4
176
     1
 64
     7
176
     1
 65
   257
176
     1
 75
     1
176
     1
175
     1
176
     1
 42
1.0
176
     1
 92
       12
176
     1
 66
     7
176
     1
 43
1.0
176
     1
 76
     1
176
     1
 77
     6
176
     1
 78
     2
176
     1
 67
     7
176
     1
 79
     5
176
     1
170
     0
176
     1
171
     0
176
     1
290
     0
176
     1
 93
        1
176
     1
 44
0.0
176
     1
173
     0
176
     1
  0
VISUALSTYLE
  5
30
102
{ACAD_REACTORS
330
2A
102
}
102
{ACAD_XDICTIONARY
360
243
102
}
330
2A
100
AcDbVisualStyle
  2
Wireframe
 70
     5
177
     2
291
     0
 71
     0
176
     1
 72
     2
176
     1
 73
     0
176
     1
 90
        0
176
     1
 40
0.6
176
     1
 41
30.0
176
     1
 62
     5
 63
     7
421
 16777215
176
     1
 74
     1
176
     1
 91
        4
176
     1
 64
     7
176
     1
 65
   257
176
     1
 75
     1
176
     1
175
     1
176
     1
 42
1.0
176
     1
 92
        0
176
     1
 66
   257
176
     1
 43
1.0
176
     1
 76
     1
176
     1
 77
     6
176
     1
 78
     2
176
     1
 67
     7
176
     1
 79
     3
176
     1
170
     0
176
     1
171
     0
176
     1
290
     0
176
     1
 93
        1
176
     1
 44
0.0
176
     1
173
     0
176
     1
  0
VISUALSTYLE
  5
40
102
{ACAD_REACTORS
330
2A
102
}
102
{ACAD_XDICTIONARY
360
263
102
}
330
2A
100
AcDbVisualStyle
  2
X-Ray
 70
    25
177
     2
291
     0
 71
     2
176
     1
 72
     2
176
     1
 73
     1
176
     1
 90
        1
176
     1
 40
0.5
176
     1
 41
30.0
176
     1
 62
     5
 63
     7
421
 16777215
176
     1
 74
     1
176
     1
 91
        0
176
     1
 64
     7
176
     1
 65
   257
176
     1
 75
     1
176
     1
175
     1
176
     1
 42
1.0
176
     1
 92
        8
176
     1
 66
     7
176
     1
 43
1.0
176
     1
 76
     1
176
     1
 77
     6
176
     1
 78
     2
176
     1
 67
     7
176
     1
 79
     3
176
     1
170
     0
176
     1
171
     0
176
     1
290
     0
176
     1
 93
       13
176
     1
 44
0.0
176
     1
173
     0
176
     1
  0
DICTIONARYVAR
  5
238
102
{ACAD_REACTORS
330
237
102
}
330
237
100
DictionaryVariables
280
     0
  1
1:1
  0
DICTIONARYVAR
  5
26D
102
{ACAD_REACTORS
330
237
102
}
330
237
100
DictionaryVariables
280
     0
  1
Standard
  0
DICTIONARYVAR
  5
26C
102
{ACAD_REACTORS
330
237
102
}
330
237
100
DictionaryVariables
280
     0
  1
Standard
  0
DICTIONARY
  5
269
330
6A
100
AcDbDictionary
280
     1
281
     1
  3
ACAD_ROUNDTRIP_2008_TABLESTYLE_CELLSTYLEMAP
360
26A
  0
DICTIONARY
  5
241
330
2F
100
AcDbDictionary
280
     1
281
     1
  3
ACAD_XREC_ROUNDTRIP
360
242
  0
DICTIONARY
  5
247
330
32
100
AcDbDictionary
280
     1
281
     1
  3
ACAD_XREC_ROUNDTRIP
360
248
  0
DICTIONARY
  5
24F
330
36
100
AcDbDictionary
280
     1
281
     1
  3
ACAD_XREC_ROUNDTRIP
360
250
  0
DICTIONARY
  5
257
330
3A
100
AcDbDictionary
280
     1
281
     1
  3
ACAD_XREC_ROUNDTRIP
360
258
  0
DICTIONARY
  5
24B
330
34
100
AcDbDictionary
280
     1
281
     1
  3
ACAD_XREC_ROUNDTRIP
360
24C
  0
DICTIONARY
  5
24D
330
35
100
AcDbDictionary
280
     1
281
     1
  3
ACAD_XREC_ROUNDTRIP
360
24E
  0
DICTIONARY
  5
25D
330
3D
100
AcDbDictionary
280
     1
281
     1
  3
ACAD_XREC_ROUNDTRIP
360
25E
  0
DICTIONARY
  5
255
330
39
100
AcDbDictionary
280
     1
281
     1
  3
ACAD_XREC_ROUNDTRIP
360
256
  0
DICTIONARY
  5
239
330
2B
100
AcDbDictionary
280
     1
281
     1
  3
ACAD_XREC_ROUNDTRIP
360
23A
  0
DICTIONARY
  5
23B
330
2C
100
AcDbDictionary
280
     1
281
     1
  3
ACAD_XREC_ROUNDTRIP
360
23C
  0
DICTIONARY
  5
23D
330
2D
100
AcDbDictionary
280
     1
281
     1
  3
ACAD_XREC_ROUNDTRIP
360
23E
  0
DICTIONARY
  5
23F
330
2E
100
AcDbDictionary
280
     1
281
     1
  3
ACAD_XREC_ROUNDTRIP
360
240
  0
DICTIONARY
  5
245
330
31
100
AcDbDictionary
280
     1
281
     1
  3
ACAD_XREC_ROUNDTRIP
360
246
  0
DICTIONARY
  5
259
330
3B
100
AcDbDictionary
280
     1
281
     1
  3
ACAD_XREC_ROUNDTRIP
360
25A
  0
DICTIONARY
  5
253
330
38
100
AcDbDictionary
280
     1
281
     1
  3
ACAD_XREC_ROUNDTRIP
360
254
  0
DICTIONARY
  5
25B
330
3C
100
AcDbDictionary
280
     1
281
     1
  3
ACAD_XREC_ROUNDTRIP
360
25C
  0
DICTIONARY
  5
249
330
33
100
AcDbDictionary
280
     1
281
     1
  3
ACAD_XREC_ROUNDTRIP
360
24A
  0
DICTIONARY
  5
267
330
42
100
AcDbDictionary
280
     1
281
     1
  3
ACAD_XREC_ROUNDTRIP
360
268
  0
DICTIONARY
  5
265
330
41
100
AcDbDictionary
280
     1
281
     1
  3
ACAD_XREC_ROUNDTRIP
360
266
  0
DICTIONARY
  5
25F
330
3E
100
AcDbDictionary
280
     1
281
     1
  3
ACAD_XREC_ROUNDTRIP
360
260
  0
DICTIONARY
  5
261
330
3F
100
AcDbDictionary
280
     1
281
     1
  3
ACAD_XREC_ROUNDTRIP
360
262
  0
DICTIONARY
  5
251
330
37
100
AcDbDictionary
280
     1
281
     1
  3
ACAD_XREC_ROUNDTRIP
360
252
  0
DICTIONARY
  5
243
330
30
100
AcDbDictionary
280
     1
281
     1
  3
ACAD_XREC_ROUNDTRIP
360
244
  0
DICTIONARY
  5
263
330
40
100
AcDbDictionary
280
     1
281
     1
  3
ACAD_XREC_ROUNDTRIP
360
264
  0
CELLSTYLEMAP
  5
26A
102
{ACAD_REACTORS
330
269
102
}
330
269
100
AcDbCellStyleMap
 90
        3
300
CELLSTYLE
  1
TABLEFORMAT_BEGIN
 90
        5
170
     1
 91
        0
 92
    32768
 62
   257
 93
        1
300
CONTENTFORMAT
  1
CONTENTFORMAT_BEGIN
 90
        0
 91
        0
 92
        4
 93
        0
300

 40
0.0
140
1.0
 94
        5
 62
     0
340
11
144
0.25
309
CONTENTFORMAT_END
171
     1
301
MARGIN
  1
CELLMARGIN_BEGIN
 40
0.06
 40
0.06
 40
0.06
 40
0.06
 40
0.06
 40
0.06
309
CELLMARGIN_END
 94
        6
 95
        1
302
GRIDFORMAT
  1
GRIDFORMAT_BEGIN
 90
        0
 91
        1
 62
     0
 92
       -2
340
14
 93
        0
 40
0.045
309
GRIDFORMAT_END
 95
        2
302
GRIDFORMAT
  1
GRIDFORMAT_BEGIN
 90
        0
 91
        1
 62
     0
 92
       -2
340
14
 93
        0
 40
0.045
309
GRIDFORMAT_END
 95
        4
302
GRIDFORMAT
  1
GRIDFORMAT_BEGIN
 90
        0
 91
        1
 62
     0
 92
       -2
340
14
 93
        0
 40
0.045
309
GRIDFORMAT_END
 95
        8
302
GRIDFORMAT
  1
GRIDFORMAT_BEGIN
 90
        0
 91
        1
 62
     0
 92
       -2
340
14
 93
        0
 40
0.045
309
GRIDFORMAT_END
 95
       16
302
GRIDFORMAT
  1
GRIDFORMAT_BEGIN
 90
        0
 91
        1
 62
     0
 92
       -2
340
14
 93
        0
 40
0.045
309
GRIDFORMAT_END
 95
       32
302
GRIDFORMAT
  1
GRIDFORMAT_BEGIN
 90
        0
 91
        1
 62
     0
 92
       -2
340
14
 93
        0
 40
0.045
309
GRIDFORMAT_END
309
TABLEFORMAT_END
  1
CELLSTYLE_BEGIN
 90
        1
 91
        1
300
_TITLE
309
CELLSTYLE_END
300
CELLSTYLE
  1
TABLEFORMAT_BEGIN
 90
        5
170
     1
 91
        0
 92
        0
 62
   257
 93
        1
300
CONTENTFORMAT
  1
CONTENTFORMAT_BEGIN
 90
        0
 91
        0
 92
        4
 93
        0
300

 40
0.0
140
1.0
 94
        5
 62
     0
340
11
144
0.18
309
CONTENTFORMAT_END
171
     1
301
MARGIN
  1
CELLMARGIN_BEGIN
 40
0.06
 40
0.06
 40
0.06
 40
0.06
 40
0.06
 40
0.06
309
CELLMARGIN_END
 94
        6
 95
        1
302
GRIDFORMAT
  1
GRIDFORMAT_BEGIN
 90
        0
 91
        1
 62
     0
 92
       -2
340
14
 93
        0
 40
0.045
309
GRIDFORMAT_END
 95
        2
302
GRIDFORMAT
  1
GRIDFORMAT_BEGIN
 90
        0
 91
        1
 62
     0
 92
       -2
340
14
 93
        0
 40
0.045
309
GRIDFORMAT_END
 95
        4
302
GRIDFORMAT
  1
GRIDFORMAT_BEGIN
 90
        0
 91
        1
 62
     0
 92
       -2
340
14
 93
        0
 40
0.045
309
GRIDFORMAT_END
 95
        8
302
GRIDFORMAT
  1
GRIDFORMAT_BEGIN
 90
        0
 91
        1
 62
     0
 92
       -2
340
14
 93
        0
 40
0.045
309
GRIDFORMAT_END
 95
       16
302
GRIDFORMAT
  1
GRIDFORMAT_BEGIN
 90
        0
 91
        1
 62
     0
 92
       -2
340
14
 93
        0
 40
0.045
309
GRIDFORMAT_END
 95
       32
302
GRIDFORMAT
  1
GRIDFORMAT_BEGIN
 90
        0
 91
        1
 62
     0
 92
       -2
340
14
 93
        0
 40
0.045
309
GRIDFORMAT_END
309
TABLEFORMAT_END
  1
CELLSTYLE_BEGIN
 90
        2
 91
        1
300
_HEADER
309
CELLSTYLE_END
300
CELLSTYLE
  1
TABLEFORMAT_BEGIN
 90
        5
170
     1
 91
        0
 92
        0
 62
   257
 93
        1
300
CONTENTFORMAT
  1
CONTENTFORMAT_BEGIN
 90
        0
 91
        0
 92
        4
 93
        0
300

 40
0.0
140
1.0
 94
        2
 62
     0
340
11
144
0.18
309
CONTENTFORMAT_END
171
     1
301
MARGIN
  1
CELLMARGIN_BEGIN
 40
0.06
 40
0.06
 40
0.06
 40
0.06
 40
0.06
 40
0.06
309
CELLMARGIN_END
 94
        6
 95
        1
302
GRIDFORMAT
  1
GRIDFORMAT_BEGIN
 90
        0
 91
        1
 62
     0
 92
       -2
340
14
 93
        0
 40
0.045
309
GRIDFORMAT_END
 95
        2
302
GRIDFORMAT
  1
GRIDFORMAT_BEGIN
 90
        0
 91
        1
 62
     0
 92
       -2
340
14
 93
        0
 40
0.045
309
GRIDFORMAT_END
 95
        4
302
GRIDFORMAT
  1
GRIDFORMAT_BEGIN
 90
        0
 91
        1
 62
     0
 92
       -2
340
14
 93
        0
 40
0.045
309
GRIDFORMAT_END
 95
        8
302
GRIDFORMAT
  1
GRIDFORMAT_BEGIN
 90
        0
 91
        1
 62
     0
 92
       -2
340
14
 93
        0
 40
0.045
309
GRIDFORMAT_END
 95
       16
302
GRIDFORMAT
  1
GRIDFORMAT_BEGIN
 90
        0
 91
        1
 62
     0
 92
       -2
340
14
 93
        0
 40
0.045
309
GRIDFORMAT_END
 95
       32
302
GRIDFORMAT
  1
GRIDFORMAT_BEGIN
 90
        0
 91
        1
 62
     0
 92
       -2
340
14
 93
        0
 40
0.045
309
GRIDFORMAT_END
309
TABLEFORMAT_END
  1
CELLSTYLE_BEGIN
 90
        3
 91
        2
300
_DATA
309
CELLSTYLE_END
  0
XRECORD
  5
242
102
{ACAD_REACTORS
330
241
102
}
330
241
100
AcDbXrecord
280
     1
102
RTVSPost2010Prop28
280
     1
102
RTVSPost2010PropOp28
 70
     1
102
RTVSPost2010Prop29
280
     1
102
RTVSPost2010PropOp29
 70
     1
102
RTVSPost2010Prop30
280
     0
102
RTVSPost2010PropOp30
 70
     1
102
RTVSPost2010Prop31
280
     0
102
RTVSPost2010PropOp31
 70
     1
102
RTVSPost2010Prop32
280
     0
102
RTVSPost2010PropOp32
 70
     1
102
RTVSPost2010Prop33
280
     0
102
RTVSPost2010PropOp33
 70
     1
102
RTVSPost2010Prop34
280
     0
102
RTVSPost2010PropOp34
 70
     1
102
RTVSPost2010Prop35
280
     0
102
RTVSPost2010PropOp35
 70
     1
102
RTVSPost2010Prop36
280
     0
102
RTVSPost2010PropOp36
 70
     1
102
RTVSPost2010Prop37
 90
       50
102
RTVSPost2010PropOp37
 70
     1
102
RTVSPost2010Prop38
140
0.0
102
RTVSPost2010PropOp38
 70
     1
102
RTVSPost2010Prop39
140
1.0
102
RTVSPost2010PropOp39
 70
     1
102
RTVSPost2010Prop40
 90
        0
102
RTVSPost2010PropOp40
 70
     1
102
RTVSPost2010Prop41ColorIndex
 90
       18
102
RTVSPost2010Prop41ColorRGB
 90
        0
102
RTVSPost2010PropOp41
 70
     1
102
RTVSPost2010Prop42
 90
       50
102
RTVSPost2010PropOp42
 70
     1
102
RTVSPost2010Prop43
 90
        3
102
RTVSPost2010PropOp43
 70
     1
102
RTVSPost2010Prop44ColorIndex
 90
        5
102
RTVSPost2010Prop44ColorRGB
 90
      255
102
RTVSPost2010PropOp44
 70
     1
102
RTVSPost2010Prop45
280
     0
102
RTVSPost2010PropOp45
 70
     1
102
RTVSPost2010Prop46
 90
       50
102
RTVSPost2010PropOp46
 70
     1
102
RTVSPost2010Prop47
 90
       50
102
RTVSPost2010PropOp47
 70
     1
102
RTVSPost2010Prop48
 90
       50
102
RTVSPost2010PropOp48
 70
     1
102
RTVSPost2010Prop49
280
     0
102
RTVSPost2010PropOp49
 70
     1
102
RTVSPost2010Prop50
 90
       50
102
RTVSPost2010PropOp50
 70
     1
102
RTVSPost2010Prop51ColorIndex
 90
      256
102
RTVSPost2010Prop51ColorRGB
 90
-16777216
102
RTVSPost2010PropOp51
 70
     0
102
RTVSPost2010Prop52
140
1.0
102
RTVSPost2010PropOp52
 70
     0
102
RTVSPost2010Prop53
 90
        2
102
RTVSPost2010PropOp53
 70
     1
102
RTVSPost2010Prop54
  1
strokes_ogs.tif
102
RTVSPost2010PropOp54
 70
     1
102
RTVSPost2010Prop55
280
     0
102
RTVSPost2010PropOp55
 70
     1
102
RTVSPost2010Prop56
140
1.0
102
RTVSPost2010PropOp56
 70
     1
102
RTVSPost2010Prop57
140
1.0
102
RTVSPost2010PropOp57
 70
     1
  0
XRECORD
  5
248
102
{ACAD_REACTORS
330
247
102
}
330
247
100
AcDbXrecord
280
     1
102
RTVSPost2010Prop28
280
     0
102
RTVSPost2010PropOp28
 70
     1
102
RTVSPost2010Prop29
280
     1
102
RTVSPost2010PropOp29
 70
     1
102
RTVSPost2010Prop30
280
     1
102
RTVSPost2010PropOp30
 70
     1
102
RTVSPost2010Prop31
280
     0
102
RTVSPost2010PropOp31
 70
     1
102
RTVSPost2010Prop32
280
     0
102
RTVSPost2010PropOp32
 70
     1
102
RTVSPost2010Prop33
280
     0
102
RTVSPost2010PropOp33
 70
     1
102
RTVSPost2010Prop34
280
     0
102
RTVSPost2010PropOp34
 70
     1
102
RTVSPost2010Prop35
280
     0
102
RTVSPost2010PropOp35
 70
     1
102
RTVSPost2010Prop36
280
     0
102
RTVSPost2010PropOp36
 70
     1
102
RTVSPost2010Prop37
 90
       50
102
RTVSPost2010PropOp37
 70
     1
102
RTVSPost2010Prop38
140
0.0
102
RTVSPost2010PropOp38
 70
     1
102
RTVSPost2010Prop39
140
1.0
102
RTVSPost2010PropOp39
 70
     1
102
RTVSPost2010Prop40
 90
        0
102
RTVSPost2010PropOp40
 70
     1
102
RTVSPost2010Prop41ColorIndex
 90
       18
102
RTVSPost2010Prop41ColorRGB
 90
        0
102
RTVSPost2010PropOp41
 70
     1
102
RTVSPost2010Prop42
 90
       50
102
RTVSPost2010PropOp42
 70
     1
102
RTVSPost2010Prop43
 90
        3
102
RTVSPost2010PropOp43
 70
     1
102
RTVSPost2010Prop44ColorIndex
 90
        5
102
RTVSPost2010Prop44ColorRGB
 90
      255
102
RTVSPost2010PropOp44
 70
     1
102
RTVSPost2010Prop45
280
     0
102
RTVSPost2010PropOp45
 70
     1
102
RTVSPost2010Prop46
 90
       50
102
RTVSPost2010PropOp46
 70
     1
102
RTVSPost2010Prop47
 90
       50
102
RTVSPost2010PropOp47
 70
     1
102
RTVSPost2010Prop48
 90
       50
102
RTVSPost2010PropOp48
 70
     1
102
RTVSPost2010Prop49
280
     0
102
RTVSPost2010PropOp49
 70
     1
102
RTVSPost2010Prop50
 90
       50
102
RTVSPost2010PropOp50
 70
     1
102
RTVSPost2010Prop51ColorIndex
 90
      256
102
RTVSPost2010Prop51ColorRGB
 90
-16777216
102
RTVSPost2010PropOp51
 70
     0
102
RTVSPost2010Prop52
140
1.0
102
RTVSPost2010PropOp52
 70
     0
102
RTVSPost2010Prop53
 90
        2
102
RTVSPost2010PropOp53
 70
     1
102
RTVSPost2010Prop54
  1
strokes_ogs.tif
102
RTVSPost2010PropOp54
 70
     1
102
RTVSPost2010Prop55
280
     0
102
RTVSPost2010PropOp55
 70
     1
102
RTVSPost2010Prop56
140
1.0
102
RTVSPost2010PropOp56
 70
     1
102
RTVSPost2010Prop57
140
1.0
102
RTVSPost2010PropOp57
 70
     1
  0
XRECORD
  5
250
102
{ACAD_REACTORS
330
24F
102
}
330
24F
100
AcDbXrecord
280
     1
102
RTVSPost2010Prop28
280
     0
102
RTVSPost2010PropOp28
 70
     1
102
RTVSPost2010Prop29
280
     1
102
RTVSPost2010PropOp29
 70
     1
102
RTVSPost2010Prop30
280
     1
102
RTVSPost2010PropOp30
 70
     1
102
RTVSPost2010Prop31
280
     0
102
RTVSPost2010PropOp31
 70
     1
102
RTVSPost2010Prop32
280
     0
102
RTVSPost2010PropOp32
 70
     1
102
RTVSPost2010Prop33
280
     0
102
RTVSPost2010PropOp33
 70
     1
102
RTVSPost2010Prop34
280
     0
102
RTVSPost2010PropOp34
 70
     1
102
RTVSPost2010Prop35
280
     0
102
RTVSPost2010PropOp35
 70
     1
102
RTVSPost2010Prop36
280
     0
102
RTVSPost2010PropOp36
 70
     1
102
RTVSPost2010Prop37
 90
       50
102
RTVSPost2010PropOp37
 70
     1
102
RTVSPost2010Prop38
140
0.0
102
RTVSPost2010PropOp38
 70
     1
102
RTVSPost2010Prop39
140
1.0
102
RTVSPost2010PropOp39
 70
     1
102
RTVSPost2010Prop40
 90
        0
102
RTVSPost2010PropOp40
 70
     1
102
RTVSPost2010Prop41ColorIndex
 90
       18
102
RTVSPost2010Prop41ColorRGB
 90
        0
102
RTVSPost2010PropOp41
 70
     1
102
RTVSPost2010Prop42
 90
       50
102
RTVSPost2010PropOp42
 70
     1
102
RTVSPost2010Prop43
 90
        3
102
RTVSPost2010PropOp43
 70
     1
102
RTVSPost2010Prop44ColorIndex
 90
        5
102
RTVSPost2010Prop44ColorRGB
 90
      255
102
RTVSPost2010PropOp44
 70
     1
102
RTVSPost2010Prop45
280
     0
102
RTVSPost2010PropOp45
 70
     1
102
RTVSPost2010Prop46
 90
       50
102
RTVSPost2010PropOp46
 70
     1
102
RTVSPost2010Prop47
 90
       50
102
RTVSPost2010PropOp47
 70
     1
102
RTVSPost2010Prop48
 90
       50
102
RTVSPost2010PropOp48
 70
     1
102
RTVSPost2010Prop49
280
     0
102
RTVSPost2010PropOp49
 70
     1
102
RTVSPost2010Prop50
 90
       50
102
RTVSPost2010PropOp50
 70
     1
102
RTVSPost2010Prop51ColorIndex
 90
      256
102
RTVSPost2010Prop51ColorRGB
 90
-16777216
102
RTVSPost2010PropOp51
 70
     0
102
RTVSPost2010Prop52
140
1.0
102
RTVSPost2010PropOp52
 70
     0
102
RTVSPost2010Prop53
 90
        2
102
RTVSPost2010PropOp53
 70
     1
102
RTVSPost2010Prop54
  1
strokes_ogs.tif
102
RTVSPost2010PropOp54
 70
     1
102
RTVSPost2010Prop55
280
     0
102
RTVSPost2010PropOp55
 70
     1
102
RTVSPost2010Prop56
140
1.0
102
RTVSPost2010PropOp56
 70
     1
102
RTVSPost2010Prop57
140
1.0
102
RTVSPost2010PropOp57
 70
     1
  0
XRECORD
  5
258
102
{ACAD_REACTORS
330
257
102
}
330
257
100
AcDbXrecord
280
     1
102
RTVSPost2010Prop28
280
     0
102
RTVSPost2010PropOp28
 70
     1
102
RTVSPost2010Prop29
280
     1
102
RTVSPost2010PropOp29
 70
     1
102
RTVSPost2010Prop30
280
     1
102
RTVSPost2010PropOp30
 70
     1
102
RTVSPost2010Prop31
280
     0
102
RTVSPost2010PropOp31
 70
     1
102
RTVSPost2010Prop32
280
     0
102
RTVSPost2010PropOp32
 70
     1
102
RTVSPost2010Prop33
280
     0
102
RTVSPost2010PropOp33
 70
     1
102
RTVSPost2010Prop34
280
     0
102
RTVSPost2010PropOp34
 70
     1
102
RTVSPost2010Prop35
280
     0
102
RTVSPost2010PropOp35
 70
     1
102
RTVSPost2010Prop36
280
     0
102
RTVSPost2010PropOp36
 70
     1
102
RTVSPost2010Prop37
 90
       50
102
RTVSPost2010PropOp37
 70
     1
102
RTVSPost2010Prop38
140
0.0
102
RTVSPost2010PropOp38
 70
     1
102
RTVSPost2010Prop39
140
1.0
102
RTVSPost2010PropOp39
 70
     1
102
RTVSPost2010Prop40
 90
        0
102
RTVSPost2010PropOp40
 70
     1
102
RTVSPost2010Prop41ColorIndex
 90
       18
102
RTVSPost2010Prop41ColorRGB
 90
        0
102
RTVSPost2010PropOp41
 70
     1
102
RTVSPost2010Prop42
 90
       50
102
RTVSPost2010PropOp42
 70
     1
102
RTVSPost2010Prop43
 90
        3
102
RTVSPost2010PropOp43
 70
     1
102
RTVSPost2010Prop44ColorIndex
 90
        5
102
RTVSPost2010Prop44ColorRGB
 90
      255
102
RTVSPost2010PropOp44
 70
     1
102
RTVSPost2010Prop45
280
     0
102
RTVSPost2010PropOp45
 70
     1
102
RTVSPost2010Prop46
 90
       50
102
RTVSPost2010PropOp46
 70
     1
102
RTVSPost2010Prop47
 90
       50
102
RTVSPost2010PropOp47
 70
     1
102
RTVSPost2010Prop48
 90
       50
102
RTVSPost2010PropOp48
 70
     1
102
RTVSPost2010Prop49
280
     0
102
RTVSPost2010PropOp49
 70
     1
102
RTVSPost2010Prop50
 90
       50
102
RTVSPost2010PropOp50
 70
     1
102
RTVSPost2010Prop51ColorIndex
 90
      256
102
RTVSPost2010Prop51ColorRGB
 90
-16777216
102
RTVSPost2010PropOp51
 70
     0
102
RTVSPost2010Prop52
140
1.0
102
RTVSPost2010PropOp52
 70
     0
102
RTVSPost2010Prop53
 90
        2
102
RTVSPost2010PropOp53
 70
     1
102
RTVSPost2010Prop54
  1
strokes_ogs.tif
102
RTVSPost2010PropOp54
 70
     1
102
RTVSPost2010Prop55
280
     0
102
RTVSPost2010PropOp55
 70
     1
102
RTVSPost2010Prop56
140
1.0
102
RTVSPost2010PropOp56
 70
     1
102
RTVSPost2010Prop57
140
1.0
102
RTVSPost2010PropOp57
 70
     1
  0
XRECORD
  5
24C
102
{ACAD_REACTORS
330
24B
102
}
330
24B
100
AcDbXrecord
280
     1
102
RTVSPost2010Prop28
280
     0
102
RTVSPost2010PropOp28
 70
     1
102
RTVSPost2010Prop29
280
     1
102
RTVSPost2010PropOp29
 70
     1
102
RTVSPost2010Prop30
280
     1
102
RTVSPost2010PropOp30
 70
     1
102
RTVSPost2010Prop31
280
     0
102
RTVSPost2010PropOp31
 70
     1
102
RTVSPost2010Prop32
280
     0
102
RTVSPost2010PropOp32
 70
     1
102
RTVSPost2010Prop33
280
     0
102
RTVSPost2010PropOp33
 70
     1
102
RTVSPost2010Prop34
280
     0
102
RTVSPost2010PropOp34
 70
     1
102
RTVSPost2010Prop35
280
     0
102
RTVSPost2010PropOp35
 70
     1
102
RTVSPost2010Prop36
280
     0
102
RTVSPost2010PropOp36
 70
     1
102
RTVSPost2010Prop37
 90
       50
102
RTVSPost2010PropOp37
 70
     1
102
RTVSPost2010Prop38
140
0.0
102
RTVSPost2010PropOp38
 70
     1
102
RTVSPost2010Prop39
140
1.0
102
RTVSPost2010PropOp39
 70
     1
102
RTVSPost2010Prop40
 90
        0
102
RTVSPost2010PropOp40
 70
     1
102
RTVSPost2010Prop41ColorIndex
 90
       18
102
RTVSPost2010Prop41ColorRGB
 90
        0
102
RTVSPost2010PropOp41
 70
     1
102
RTVSPost2010Prop42
 90
       50
102
RTVSPost2010PropOp42
 70
     1
102
RTVSPost2010Prop43
 90
        3
102
RTVSPost2010PropOp43
 70
     1
102
RTVSPost2010Prop44ColorIndex
 90
        5
102
RTVSPost2010Prop44ColorRGB
 90
      255
102
RTVSPost2010PropOp44
 70
     1
102
RTVSPost2010Prop45
280
     0
102
RTVSPost2010PropOp45
 70
     1
102
RTVSPost2010Prop46
 90
       50
102
RTVSPost2010PropOp46
 70
     1
102
RTVSPost2010Prop47
 90
       50
102
RTVSPost2010PropOp47
 70
     1
102
RTVSPost2010Prop48
 90
       50
102
RTVSPost2010PropOp48
 70
     1
102
RTVSPost2010Prop49
280
     0
102
RTVSPost2010PropOp49
 70
     1
102
RTVSPost2010Prop50
 90
       50
102
RTVSPost2010PropOp50
 70
     1
102
RTVSPost2010Prop51ColorIndex
 90
      256
102
RTVSPost2010Prop51ColorRGB
 90
-16777216
102
RTVSPost2010PropOp51
 70
     0
102
RTVSPost2010Prop52
140
1.0
102
RTVSPost2010PropOp52
 70
     0
102
RTVSPost2010Prop53
 90
        2
102
RTVSPost2010PropOp53
 70
     1
102
RTVSPost2010Prop54
  1
strokes_ogs.tif
102
RTVSPost2010PropOp54
 70
     1
102
RTVSPost2010Prop55
280
     0
102
RTVSPost2010PropOp55
 70
     1
102
RTVSPost2010Prop56
140
1.0
102
RTVSPost2010PropOp56
 70
     1
102
RTVSPost2010Prop57
140
1.0
102
RTVSPost2010PropOp57
 70
     1
  0
XRECORD
  5
24E
102
{ACAD_REACTORS
330
24D
102
}
330
24D
100
AcDbXrecord
280
     1
102
RTVSPost2010Prop28
280
     0
102
RTVSPost2010PropOp28
 70
     1
102
RTVSPost2010Prop29
280
     1
102
RTVSPost2010PropOp29
 70
     1
102
RTVSPost2010Prop30
280
     1
102
RTVSPost2010PropOp30
 70
     1
102
RTVSPost2010Prop31
280
     0
102
RTVSPost2010PropOp31
 70
     1
102
RTVSPost2010Prop32
280
     0
102
RTVSPost2010PropOp32
 70
     1
102
RTVSPost2010Prop33
280
     0
102
RTVSPost2010PropOp33
 70
     1
102
RTVSPost2010Prop34
280
     0
102
RTVSPost2010PropOp34
 70
     1
102
RTVSPost2010Prop35
280
     0
102
RTVSPost2010PropOp35
 70
     1
102
RTVSPost2010Prop36
280
     0
102
RTVSPost2010PropOp36
 70
     1
102
RTVSPost2010Prop37
 90
       50
102
RTVSPost2010PropOp37
 70
     1
102
RTVSPost2010Prop38
140
0.0
102
RTVSPost2010PropOp38
 70
     1
102
RTVSPost2010Prop39
140
1.0
102
RTVSPost2010PropOp39
 70
     1
102
RTVSPost2010Prop40
 90
        0
102
RTVSPost2010PropOp40
 70
     1
102
RTVSPost2010Prop41ColorIndex
 90
       18
102
RTVSPost2010Prop41ColorRGB
 90
        0
102
RTVSPost2010PropOp41
 70
     1
102
RTVSPost2010Prop42
 90
       50
102
RTVSPost2010PropOp42
 70
     1
102
RTVSPost2010Prop43
 90
        3
102
RTVSPost2010PropOp43
 70
     1
102
RTVSPost2010Prop44ColorIndex
 90
        5
102
RTVSPost2010Prop44ColorRGB
 90
      255
102
RTVSPost2010PropOp44
 70
     1
102
RTVSPost2010Prop45
280
     0
102
RTVSPost2010PropOp45
 70
     1
102
RTVSPost2010Prop46
 90
       50
102
RTVSPost2010PropOp46
 70
     1
102
RTVSPost2010Prop47
 90
       50
102
RTVSPost2010PropOp47
 70
     1
102
RTVSPost2010Prop48
 90
       50
102
RTVSPost2010PropOp48
 70
     1
102
RTVSPost2010Prop49
280
     0
102
RTVSPost2010PropOp49
 70
     1
102
RTVSPost2010Prop50
 90
       50
102
RTVSPost2010PropOp50
 70
     1
102
RTVSPost2010Prop51ColorIndex
 90
      256
102
RTVSPost2010Prop51ColorRGB
 90
-16777216
102
RTVSPost2010PropOp51
 70
     0
102
RTVSPost2010Prop52
140
1.0
102
RTVSPost2010PropOp52
 70
     0
102
RTVSPost2010Prop53
 90
        2
102
RTVSPost2010PropOp53
 70
     1
102
RTVSPost2010Prop54
  1
strokes_ogs.tif
102
RTVSPost2010PropOp54
 70
     1
102
RTVSPost2010Prop55
280
     0
102
RTVSPost2010PropOp55
 70
     1
102
RTVSPost2010Prop56
140
1.0
102
RTVSPost2010PropOp56
 70
     1
102
RTVSPost2010Prop57
140
1.0
102
RTVSPost2010PropOp57
 70
     1
  0
XRECORD
  5
25E
102
{ACAD_REACTORS
330
25D
102
}
330
25D
100
AcDbXrecord
280
     1
102
RTVSPost2010Prop28
280
     0
102
RTVSPost2010PropOp28
 70
     0
102
RTVSPost2010Prop29
280
     1
102
RTVSPost2010PropOp29
 70
     0
102
RTVSPost2010Prop30
280
     1
102
RTVSPost2010PropOp30
 70
     0
102
RTVSPost2010Prop31
280
     0
102
RTVSPost2010PropOp31
 70
     0
102
RTVSPost2010Prop32
280
     0
102
RTVSPost2010PropOp32
 70
     0
102
RTVSPost2010Prop33
280
     0
102
RTVSPost2010PropOp33
 70
     0
102
RTVSPost2010Prop34
280
     0
102
RTVSPost2010PropOp34
 70
     0
102
RTVSPost2010Prop35
280
     0
102
RTVSPost2010PropOp35
 70
     0
102
RTVSPost2010Prop36
280
     0
102
RTVSPost2010PropOp36
 70
     0
102
RTVSPost2010Prop37
 90
       50
102
RTVSPost2010PropOp37
 70
     0
102
RTVSPost2010Prop38
140
0.0
102
RTVSPost2010PropOp38
 70
     0
102
RTVSPost2010Prop39
140
1.0
102
RTVSPost2010PropOp39
 70
     0
102
RTVSPost2010Prop40
 90
        0
102
RTVSPost2010PropOp40
 70
     0
102
RTVSPost2010Prop41ColorIndex
 90
       18
102
RTVSPost2010Prop41ColorRGB
 90
        0
102
RTVSPost2010PropOp41
 70
     0
102
RTVSPost2010Prop42
 90
       50
102
RTVSPost2010PropOp42
 70
     0
102
RTVSPost2010Prop43
 90
        3
102
RTVSPost2010PropOp43
 70
     0
102
RTVSPost2010Prop44ColorIndex
 90
        5
102
RTVSPost2010Prop44ColorRGB
 90
      255
102
RTVSPost2010PropOp44
 70
     0
102
RTVSPost2010Prop45
280
     0
102
RTVSPost2010PropOp45
 70
     0
102
RTVSPost2010Prop46
 90
       50
102
RTVSPost2010PropOp46
 70
     0
102
RTVSPost2010Prop47
 90
       50
102
RTVSPost2010PropOp47
 70
     0
102
RTVSPost2010Prop48
 90
       50
102
RTVSPost2010PropOp48
 70
     0
102
RTVSPost2010Prop49
280
     0
102
RTVSPost2010PropOp49
 70
     0
102
RTVSPost2010Prop50
 90
       50
102
RTVSPost2010PropOp50
 70
     0
102
RTVSPost2010Prop51ColorIndex
 90
      256
102
RTVSPost2010Prop51ColorRGB
 90
-16777216
102
RTVSPost2010PropOp51
 70
     0
102
RTVSPost2010Prop52
140
1.0
102
RTVSPost2010PropOp52
 70
     0
102
RTVSPost2010Prop53
 90
        2
102
RTVSPost2010PropOp53
 70
     0
102
RTVSPost2010Prop54
  1
strokes_ogs.tif
102
RTVSPost2010PropOp54
 70
     0
102
RTVSPost2010Prop55
280
     0
102
RTVSPost2010PropOp55
 70
     0
102
RTVSPost2010Prop56
140
1.0
102
RTVSPost2010PropOp56
 70
     0
102
RTVSPost2010Prop57
140
1.0
102
RTVSPost2010PropOp57
 70
     0
  0
XRECORD
  5
256
102
{ACAD_REACTORS
330
255
102
}
330
255
100
AcDbXrecord
280
     1
102
RTVSPost2010Prop28
280
     0
102
RTVSPost2010PropOp28
 70
     1
102
RTVSPost2010Prop29
280
     1
102
RTVSPost2010PropOp29
 70
     1
102
RTVSPost2010Prop30
280
     1
102
RTVSPost2010PropOp30
 70
     1
102
RTVSPost2010Prop31
280
     0
102
RTVSPost2010PropOp31
 70
     1
102
RTVSPost2010Prop32
280
     0
102
RTVSPost2010PropOp32
 70
     1
102
RTVSPost2010Prop33
280
     0
102
RTVSPost2010PropOp33
 70
     1
102
RTVSPost2010Prop34
280
     0
102
RTVSPost2010PropOp34
 70
     1
102
RTVSPost2010Prop35
280
     0
102
RTVSPost2010PropOp35
 70
     1
102
RTVSPost2010Prop36
280
     0
102
RTVSPost2010PropOp36
 70
     1
102
RTVSPost2010Prop37
 90
       50
102
RTVSPost2010PropOp37
 70
     1
102
RTVSPost2010Prop38
140
0.0
102
RTVSPost2010PropOp38
 70
     1
102
RTVSPost2010Prop39
140
1.0
102
RTVSPost2010PropOp39
 70
     1
102
RTVSPost2010Prop40
 90
        0
102
RTVSPost2010PropOp40
 70
     1
102
RTVSPost2010Prop41ColorIndex
 90
       18
102
RTVSPost2010Prop41ColorRGB
 90
        0
102
RTVSPost2010PropOp41
 70
     1
102
RTVSPost2010Prop42
 90
       50
102
RTVSPost2010PropOp42
 70
     1
102
RTVSPost2010Prop43
 90
        3
102
RTVSPost2010PropOp43
 70
     1
102
RTVSPost2010Prop44ColorIndex
 90
        5
102
RTVSPost2010Prop44ColorRGB
 90
      255
102
RTVSPost2010PropOp44
 70
     1
102
RTVSPost2010Prop45
280
     0
102
RTVSPost2010PropOp45
 70
     1
102
RTVSPost2010Prop46
 90
       50
102
RTVSPost2010PropOp46
 70
     1
102
RTVSPost2010Prop47
 90
       50
102
RTVSPost2010PropOp47
 70
     1
102
RTVSPost2010Prop48
 90
       50
102
RTVSPost2010PropOp48
 70
     1
102
RTVSPost2010Prop49
280
     0
102
RTVSPost2010PropOp49
 70
     1
102
RTVSPost2010Prop50
 90
       50
102
RTVSPost2010PropOp50
 70
     1
102
RTVSPost2010Prop51ColorIndex
 90
      256
102
RTVSPost2010Prop51ColorRGB
 90
-16777216
102
RTVSPost2010PropOp51
 70
     0
102
RTVSPost2010Prop52
140
1.0
102
RTVSPost2010PropOp52
 70
     0
102
RTVSPost2010Prop53
 90
        2
102
RTVSPost2010PropOp53
 70
     1
102
RTVSPost2010Prop54
  1
strokes_ogs.tif
102
RTVSPost2010PropOp54
 70
     1
102
RTVSPost2010Prop55
280
     0
102
RTVSPost2010PropOp55
 70
     1
102
RTVSPost2010Prop56
140
1.0
102
RTVSPost2010PropOp56
 70
     1
102
RTVSPost2010Prop57
140
1.0
102
RTVSPost2010PropOp57
 70
     1
  0
XRECORD
  5
23A
102
{ACAD_REACTORS
330
239
102
}
330
239
100
AcDbXrecord
280
     1
102
RTVSPost2010Prop28
280
     0
102
RTVSPost2010PropOp28
 70
     1
102
RTVSPost2010Prop29
280
     1
102
RTVSPost2010PropOp29
 70
     1
102
RTVSPost2010Prop30
280
     1
102
RTVSPost2010PropOp30
 70
     1
102
RTVSPost2010Prop31
280
     0
102
RTVSPost2010PropOp31
 70
     1
102
RTVSPost2010Prop32
280
     0
102
RTVSPost2010PropOp32
 70
     1
102
RTVSPost2010Prop33
280
     0
102
RTVSPost2010PropOp33
 70
     1
102
RTVSPost2010Prop34
280
     0
102
RTVSPost2010PropOp34
 70
     1
102
RTVSPost2010Prop35
280
     0
102
RTVSPost2010PropOp35
 70
     1
102
RTVSPost2010Prop36
280
     0
102
RTVSPost2010PropOp36
 70
     1
102
RTVSPost2010Prop37
 90
       50
102
RTVSPost2010PropOp37
 70
     1
102
RTVSPost2010Prop38
140
0.0
102
RTVSPost2010PropOp38
 70
     1
102
RTVSPost2010Prop39
140
1.0
102
RTVSPost2010PropOp39
 70
     1
102
RTVSPost2010Prop40
 90
        0
102
RTVSPost2010PropOp40
 70
     1
102
RTVSPost2010Prop41ColorIndex
 90
       18
102
RTVSPost2010Prop41ColorRGB
 90
        0
102
RTVSPost2010PropOp41
 70
     1
102
RTVSPost2010Prop42
 90
       50
102
RTVSPost2010PropOp42
 70
     1
102
RTVSPost2010Prop43
 90
        3
102
RTVSPost2010PropOp43
 70
     1
102
RTVSPost2010Prop44ColorIndex
 90
        5
102
RTVSPost2010Prop44ColorRGB
 90
      255
102
RTVSPost2010PropOp44
 70
     1
102
RTVSPost2010Prop45
280
     0
102
RTVSPost2010PropOp45
 70
     1
102
RTVSPost2010Prop46
 90
       50
102
RTVSPost2010PropOp46
 70
     1
102
RTVSPost2010Prop47
 90
       50
102
RTVSPost2010PropOp47
 70
     1
102
RTVSPost2010Prop48
 90
       50
102
RTVSPost2010PropOp48
 70
     1
102
RTVSPost2010Prop49
280
     0
102
RTVSPost2010PropOp49
 70
     1
102
RTVSPost2010Prop50
 90
       50
102
RTVSPost2010PropOp50
 70
     1
102
RTVSPost2010Prop51ColorIndex
 90
      256
102
RTVSPost2010Prop51ColorRGB
 90
-16777216
102
RTVSPost2010PropOp51
 70
     0
102
RTVSPost2010Prop52
140
1.0
102
RTVSPost2010PropOp52
 70
     0
102
RTVSPost2010Prop53
 90
        2
102
RTVSPost2010PropOp53
 70
     1
102
RTVSPost2010Prop54
  1
strokes_ogs.tif
102
RTVSPost2010PropOp54
 70
     1
102
RTVSPost2010Prop55
280
     0
102
RTVSPost2010PropOp55
 70
     1
102
RTVSPost2010Prop56
140
1.0
102
RTVSPost2010PropOp56
 70
     1
102
RTVSPost2010Prop57
140
1.0
102
RTVSPost2010PropOp57
 70
     1
  0
XRECORD
  5
23C
102
{ACAD_REACTORS
330
23B
102
}
330
23B
100
AcDbXrecord
280
     1
102
RTVSPost2010Prop28
280
     0
102
RTVSPost2010PropOp28
 70
     1
102
RTVSPost2010Prop29
280
     1
102
RTVSPost2010PropOp29
 70
     1
102
RTVSPost2010Prop30
280
     1
102
RTVSPost2010PropOp30
 70
     1
102
RTVSPost2010Prop31
280
     0
102
RTVSPost2010PropOp31
 70
     1
102
RTVSPost2010Prop32
280
     0
102
RTVSPost2010PropOp32
 70
     1
102
RTVSPost2010Prop33
280
     0
102
RTVSPost2010PropOp33
 70
     1
102
RTVSPost2010Prop34
280
     0
102
RTVSPost2010PropOp34
 70
     1
102
RTVSPost2010Prop35
280
     0
102
RTVSPost2010PropOp35
 70
     1
102
RTVSPost2010Prop36
280
     0
102
RTVSPost2010PropOp36
 70
     1
102
RTVSPost2010Prop37
 90
       50
102
RTVSPost2010PropOp37
 70
     1
102
RTVSPost2010Prop38
140
0.0
102
RTVSPost2010PropOp38
 70
     1
102
RTVSPost2010Prop39
140
1.0
102
RTVSPost2010PropOp39
 70
     1
102
RTVSPost2010Prop40
 90
        0
102
RTVSPost2010PropOp40
 70
     1
102
RTVSPost2010Prop41ColorIndex
 90
       18
102
RTVSPost2010Prop41ColorRGB
 90
        0
102
RTVSPost2010PropOp41
 70
     1
102
RTVSPost2010Prop42
 90
       50
102
RTVSPost2010PropOp42
 70
     1
102
RTVSPost2010Prop43
 90
        3
102
RTVSPost2010PropOp43
 70
     1
102
RTVSPost2010Prop44ColorIndex
 90
        5
102
RTVSPost2010Prop44ColorRGB
 90
      255
102
RTVSPost2010PropOp44
 70
     1
102
RTVSPost2010Prop45
280
     0
102
RTVSPost2010PropOp45
 70
     1
102
RTVSPost2010Prop46
 90
       50
102
RTVSPost2010PropOp46
 70
     1
102
RTVSPost2010Prop47
 90
       50
102
RTVSPost2010PropOp47
 70
     1
102
RTVSPost2010Prop48
 90
       50
102
RTVSPost2010PropOp48
 70
     1
102
RTVSPost2010Prop49
280
     0
102
RTVSPost2010PropOp49
 70
     1
102
RTVSPost2010Prop50
 90
       50
102
RTVSPost2010PropOp50
 70
     1
102
RTVSPost2010Prop51ColorIndex
 90
      256
102
RTVSPost2010Prop51ColorRGB
 90
-16777216
102
RTVSPost2010PropOp51
 70
     0
102
RTVSPost2010Prop52
140
1.0
102
RTVSPost2010PropOp52
 70
     0
102
RTVSPost2010Prop53
 90
        2
102
RTVSPost2010PropOp53
 70
     1
102
RTVSPost2010Prop54
  1
strokes_ogs.tif
102
RTVSPost2010PropOp54
 70
     1
102
RTVSPost2010Prop55
280
     0
102
RTVSPost2010PropOp55
 70
     1
102
RTVSPost2010Prop56
140
1.0
102
RTVSPost2010PropOp56
 70
     1
102
RTVSPost2010Prop57
140
1.0
102
RTVSPost2010PropOp57
 70
     1
  0
XRECORD
  5
23E
102
{ACAD_REACTORS
330
23D
102
}
330
23D
100
AcDbXrecord
280
     1
102
RTVSPost2010Prop28
280
     0
102
RTVSPost2010PropOp28
 70
     1
102
RTVSPost2010Prop29
280
     1
102
RTVSPost2010PropOp29
 70
     1
102
RTVSPost2010Prop30
280
     1
102
RTVSPost2010PropOp30
 70
     1
102
RTVSPost2010Prop31
280
     0
102
RTVSPost2010PropOp31
 70
     1
102
RTVSPost2010Prop32
280
     0
102
RTVSPost2010PropOp32
 70
     1
102
RTVSPost2010Prop33
280
     0
102
RTVSPost2010PropOp33
 70
     1
102
RTVSPost2010Prop34
280
     0
102
RTVSPost2010PropOp34
 70
     1
102
RTVSPost2010Prop35
280
     0
102
RTVSPost2010PropOp35
 70
     1
102
RTVSPost2010Prop36
280
     0
102
RTVSPost2010PropOp36
 70
     1
102
RTVSPost2010Prop37
 90
       50
102
RTVSPost2010PropOp37
 70
     1
102
RTVSPost2010Prop38
140
0.0
102
RTVSPost2010PropOp38
 70
     1
102
RTVSPost2010Prop39
140
1.0
102
RTVSPost2010PropOp39
 70
     1
102
RTVSPost2010Prop40
 90
        0
102
RTVSPost2010PropOp40
 70
     1
102
RTVSPost2010Prop41ColorIndex
 90
       18
102
RTVSPost2010Prop41ColorRGB
 90
        0
102
RTVSPost2010PropOp41
 70
     1
102
RTVSPost2010Prop42
 90
       50
102
RTVSPost2010PropOp42
 70
     1
102
RTVSPost2010Prop43
 90
        3
102
RTVSPost2010PropOp43
 70
     1
102
RTVSPost2010Prop44ColorIndex
 90
        5
102
RTVSPost2010Prop44ColorRGB
 90
      255
102
RTVSPost2010PropOp44
 70
     1
102
RTVSPost2010Prop45
280
     0
102
RTVSPost2010PropOp45
 70
     1
102
RTVSPost2010Prop46
 90
       50
102
RTVSPost2010PropOp46
 70
     1
102
RTVSPost2010Prop47
 90
       50
102
RTVSPost2010PropOp47
 70
     1
102
RTVSPost2010Prop48
 90
       50
102
RTVSPost2010PropOp48
 70
     1
102
RTVSPost2010Prop49
280
     0
102
RTVSPost2010PropOp49
 70
     1
102
RTVSPost2010Prop50
 90
       50
102
RTVSPost2010PropOp50
 70
     1
102
RTVSPost2010Prop51ColorIndex
 90
      256
102
RTVSPost2010Prop51ColorRGB
 90
-16777216
102
RTVSPost2010PropOp51
 70
     0
102
RTVSPost2010Prop52
140
1.0
102
RTVSPost2010PropOp52
 70
     0
102
RTVSPost2010Prop53
 90
        2
102
RTVSPost2010PropOp53
 70
     1
102
RTVSPost2010Prop54
  1
strokes_ogs.tif
102
RTVSPost2010PropOp54
 70
     1
102
RTVSPost2010Prop55
280
     0
102
RTVSPost2010PropOp55
 70
     1
102
RTVSPost2010Prop56
140
1.0
102
RTVSPost2010PropOp56
 70
     1
102
RTVSPost2010Prop57
140
1.0
102
RTVSPost2010PropOp57
 70
     1
  0
XRECORD
  5
240
102
{ACAD_REACTORS
330
23F
102
}
330
23F
100
AcDbXrecord
280
     1
102
RTVSPost2010Prop28
280
     0
102
RTVSPost2010PropOp28
 70
     1
102
RTVSPost2010Prop29
280
     1
102
RTVSPost2010PropOp29
 70
     1
102
RTVSPost2010Prop30
280
     1
102
RTVSPost2010PropOp30
 70
     1
102
RTVSPost2010Prop31
280
     0
102
RTVSPost2010PropOp31
 70
     1
102
RTVSPost2010Prop32
280
     0
102
RTVSPost2010PropOp32
 70
     1
102
RTVSPost2010Prop33
280
     0
102
RTVSPost2010PropOp33
 70
     1
102
RTVSPost2010Prop34
280
     0
102
RTVSPost2010PropOp34
 70
     1
102
RTVSPost2010Prop35
280
     0
102
RTVSPost2010PropOp35
 70
     1
102
RTVSPost2010Prop36
280
     0
102
RTVSPost2010PropOp36
 70
     1
102
RTVSPost2010Prop37
 90
       50
102
RTVSPost2010PropOp37
 70
     1
102
RTVSPost2010Prop38
140
0.0
102
RTVSPost2010PropOp38
 70
     1
102
RTVSPost2010Prop39
140
1.0
102
RTVSPost2010PropOp39
 70
     1
102
RTVSPost2010Prop40
 90
        0
102
RTVSPost2010PropOp40
 70
     1
102
RTVSPost2010Prop41ColorIndex
 90
       18
102
RTVSPost2010Prop41ColorRGB
 90
        0
102
RTVSPost2010PropOp41
 70
     1
102
RTVSPost2010Prop42
 90
       50
102
RTVSPost2010PropOp42
 70
     1
102
RTVSPost2010Prop43
 90
        3
102
RTVSPost2010PropOp43
 70
     1
102
RTVSPost2010Prop44ColorIndex
 90
        5
102
RTVSPost2010Prop44ColorRGB
 90
      255
102
RTVSPost2010PropOp44
 70
     1
102
RTVSPost2010Prop45
280
     0
102
RTVSPost2010PropOp45
 70
     1
102
RTVSPost2010Prop46
 90
       50
102
RTVSPost2010PropOp46
 70
     1
102
RTVSPost2010Prop47
 90
       50
102
RTVSPost2010PropOp47
 70
     1
102
RTVSPost2010Prop48
 90
       50
102
RTVSPost2010PropOp48
 70
     1
102
RTVSPost2010Prop49
280
     0
102
RTVSPost2010PropOp49
 70
     1
102
RTVSPost2010Prop50
 90
       50
102
RTVSPost2010PropOp50
 70
     1
102
RTVSPost2010Prop51ColorIndex
 90
      256
102
RTVSPost2010Prop51ColorRGB
 90
-16777216
102
RTVSPost2010PropOp51
 70
     0
102
RTVSPost2010Prop52
140
1.0
102
RTVSPost2010PropOp52
 70
     0
102
RTVSPost2010Prop53
 90
        2
102
RTVSPost2010PropOp53
 70
     1
102
RTVSPost2010Prop54
  1
strokes_ogs.tif
102
RTVSPost2010PropOp54
 70
     1
102
RTVSPost2010Prop55
280
     0
102
RTVSPost2010PropOp55
 70
     1
102
RTVSPost2010Prop56
140
1.0
102
RTVSPost2010PropOp56
 70
     1
102
RTVSPost2010Prop57
140
1.0
102
RTVSPost2010PropOp57
 70
     1
  0
XRECORD
  5
246
102
{ACAD_REACTORS
330
245
102
}
330
245
100
AcDbXrecord
280
     1
102
RTVSPost2010Prop28
280
     0
102
RTVSPost2010PropOp28
 70
     1
102
RTVSPost2010Prop29
280
     1
102
RTVSPost2010PropOp29
 70
     1
102
RTVSPost2010Prop30
280
     1
102
RTVSPost2010PropOp30
 70
     1
102
RTVSPost2010Prop31
280
     0
102
RTVSPost2010PropOp31
 70
     1
102
RTVSPost2010Prop32
280
     0
102
RTVSPost2010PropOp32
 70
     1
102
RTVSPost2010Prop33
280
     0
102
RTVSPost2010PropOp33
 70
     1
102
RTVSPost2010Prop34
280
     0
102
RTVSPost2010PropOp34
 70
     1
102
RTVSPost2010Prop35
280
     0
102
RTVSPost2010PropOp35
 70
     1
102
RTVSPost2010Prop36
280
     0
102
RTVSPost2010PropOp36
 70
     1
102
RTVSPost2010Prop37
 90
       50
102
RTVSPost2010PropOp37
 70
     1
102
RTVSPost2010Prop38
140
0.0
102
RTVSPost2010PropOp38
 70
     1
102
RTVSPost2010Prop39
140
1.0
102
RTVSPost2010PropOp39
 70
     1
102
RTVSPost2010Prop40
 90
        0
102
RTVSPost2010PropOp40
 70
     1
102
RTVSPost2010Prop41ColorIndex
 90
       18
102
RTVSPost2010Prop41ColorRGB
 90
        0
102
RTVSPost2010PropOp41
 70
     1
102
RTVSPost2010Prop42
 90
       50
102
RTVSPost2010PropOp42
 70
     1
102
RTVSPost2010Prop43
 90
        3
102
RTVSPost2010PropOp43
 70
     1
102
RTVSPost2010Prop44ColorIndex
 90
        5
102
RTVSPost2010Prop44ColorRGB
 90
      255
102
RTVSPost2010PropOp44
 70
     1
102
RTVSPost2010Prop45
280
     0
102
RTVSPost2010PropOp45
 70
     1
102
RTVSPost2010Prop46
 90
       50
102
RTVSPost2010PropOp46
 70
     1
102
RTVSPost2010Prop47
 90
       50
102
RTVSPost2010PropOp47
 70
     1
102
RTVSPost2010Prop48
 90
       50
102
RTVSPost2010PropOp48
 70
     1
102
RTVSPost2010Prop49
280
     0
102
RTVSPost2010PropOp49
 70
     1
102
RTVSPost2010Prop50
 90
       50
102
RTVSPost2010PropOp50
 70
     1
102
RTVSPost2010Prop51ColorIndex
 90
      256
102
RTVSPost2010Prop51ColorRGB
 90
-16777216
102
RTVSPost2010PropOp51
 70
     0
102
RTVSPost2010Prop52
140
1.0
102
RTVSPost2010PropOp52
 70
     0
102
RTVSPost2010Prop53
 90
        2
102
RTVSPost2010PropOp53
 70
     1
102
RTVSPost2010Prop54
  1
strokes_ogs.tif
102
RTVSPost2010PropOp54
 70
     1
102
RTVSPost2010Prop55
280
     0
102
RTVSPost2010PropOp55
 70
     1
102
RTVSPost2010Prop56
140
1.0
102
RTVSPost2010PropOp56
 70
     1
102
RTVSPost2010Prop57
140
1.0
102
RTVSPost2010PropOp57
 70
     1
  0
XRECORD
  5
25A
102
{ACAD_REACTORS
330
259
102
}
330
259
100
AcDbXrecord
280
     1
102
RTVSPost2010Prop28
280
     0
102
RTVSPost2010PropOp28
 70
     0
102
RTVSPost2010Prop29
280
     1
102
RTVSPost2010PropOp29
 70
     0
102
RTVSPost2010Prop30
280
     1
102
RTVSPost2010PropOp30
 70
     0
102
RTVSPost2010Prop31
280
     0
102
RTVSPost2010PropOp31
 70
     0
102
RTVSPost2010Prop32
280
     0
102
RTVSPost2010PropOp32
 70
     0
102
RTVSPost2010Prop33
280
     0
102
RTVSPost2010PropOp33
 70
     0
102
RTVSPost2010Prop34
280
     0
102
RTVSPost2010PropOp34
 70
     0
102
RTVSPost2010Prop35
280
     0
102
RTVSPost2010PropOp35
 70
     0
102
RTVSPost2010Prop36
280
     0
102
RTVSPost2010PropOp36
 70
     0
102
RTVSPost2010Prop37
 90
       50
102
RTVSPost2010PropOp37
 70
     0
102
RTVSPost2010Prop38
140
0.0
102
RTVSPost2010PropOp38
 70
     0
102
RTVSPost2010Prop39
140
1.0
102
RTVSPost2010PropOp39
 70
     0
102
RTVSPost2010Prop40
 90
        0
102
RTVSPost2010PropOp40
 70
     0
102
RTVSPost2010Prop41ColorIndex
 90
       18
102
RTVSPost2010Prop41ColorRGB
 90
        0
102
RTVSPost2010PropOp41
 70
     0
102
RTVSPost2010Prop42
 90
       50
102
RTVSPost2010PropOp42
 70
     0
102
RTVSPost2010Prop43
 90
        3
102
RTVSPost2010PropOp43
 70
     0
102
RTVSPost2010Prop44ColorIndex
 90
        5
102
RTVSPost2010Prop44ColorRGB
 90
      255
102
RTVSPost2010PropOp44
 70
     0
102
RTVSPost2010Prop45
280
     0
102
RTVSPost2010PropOp45
 70
     0
102
RTVSPost2010Prop46
 90
       50
102
RTVSPost2010PropOp46
 70
     0
102
RTVSPost2010Prop47
 90
       50
102
RTVSPost2010PropOp47
 70
     0
102
RTVSPost2010Prop48
 90
       50
102
RTVSPost2010PropOp48
 70
     0
102
RTVSPost2010Prop49
280
     0
102
RTVSPost2010PropOp49
 70
     0
102
RTVSPost2010Prop50
 90
       50
102
RTVSPost2010PropOp50
 70
     0
102
RTVSPost2010Prop51ColorIndex
 90
      256
102
RTVSPost2010Prop51ColorRGB
 90
-16777216
102
RTVSPost2010PropOp51
 70
     0
102
RTVSPost2010Prop52
140
1.0
102
RTVSPost2010PropOp52
 70
     0
102
RTVSPost2010Prop53
 90
        2
102
RTVSPost2010PropOp53
 70
     0
102
RTVSPost2010Prop54
  1
strokes_ogs.tif
102
RTVSPost2010PropOp54
 70
     0
102
RTVSPost2010Prop55
280
     0
102
RTVSPost2010PropOp55
 70
     0
102
RTVSPost2010Prop56
140
1.0
102
RTVSPost2010PropOp56
 70
     0
102
RTVSPost2010Prop57
140
1.0
102
RTVSPost2010PropOp57
 70
     0
  0
XRECORD
  5
254
102
{ACAD_REACTORS
330
253
102
}
330
253
100
AcDbXrecord
280
     1
102
RTVSPost2010Prop28
280
     0
102
RTVSPost2010PropOp28
 70
     1
102
RTVSPost2010Prop29
280
     1
102
RTVSPost2010PropOp29
 70
     1
102
RTVSPost2010Prop30
280
     1
102
RTVSPost2010PropOp30
 70
     1
102
RTVSPost2010Prop31
280
     0
102
RTVSPost2010PropOp31
 70
     1
102
RTVSPost2010Prop32
280
     0
102
RTVSPost2010PropOp32
 70
     1
102
RTVSPost2010Prop33
280
     0
102
RTVSPost2010PropOp33
 70
     1
102
RTVSPost2010Prop34
280
     0
102
RTVSPost2010PropOp34
 70
     1
102
RTVSPost2010Prop35
280
     0
102
RTVSPost2010PropOp35
 70
     1
102
RTVSPost2010Prop36
280
     0
102
RTVSPost2010PropOp36
 70
     1
102
RTVSPost2010Prop37
 90
       50
102
RTVSPost2010PropOp37
 70
     1
102
RTVSPost2010Prop38
140
0.0
102
RTVSPost2010PropOp38
 70
     1
102
RTVSPost2010Prop39
140
1.0
102
RTVSPost2010PropOp39
 70
     1
102
RTVSPost2010Prop40
 90
        0
102
RTVSPost2010PropOp40
 70
     1
102
RTVSPost2010Prop41ColorIndex
 90
       18
102
RTVSPost2010Prop41ColorRGB
 90
        0
102
RTVSPost2010PropOp41
 70
     1
102
RTVSPost2010Prop42
 90
       50
102
RTVSPost2010PropOp42
 70
     1
102
RTVSPost2010Prop43
 90
        3
102
RTVSPost2010PropOp43
 70
     1
102
RTVSPost2010Prop44ColorIndex
 90
        5
102
RTVSPost2010Prop44ColorRGB
 90
      255
102
RTVSPost2010PropOp44
 70
     1
102
RTVSPost2010Prop45
280
     0
102
RTVSPost2010PropOp45
 70
     1
102
RTVSPost2010Prop46
 90
       50
102
RTVSPost2010PropOp46
 70
     1
102
RTVSPost2010Prop47
 90
       50
102
RTVSPost2010PropOp47
 70
     1
102
RTVSPost2010Prop48
 90
       50
102
RTVSPost2010PropOp48
 70
     1
102
RTVSPost2010Prop49
280
     0
102
RTVSPost2010PropOp49
 70
     1
102
RTVSPost2010Prop50
 90
       50
102
RTVSPost2010PropOp50
 70
     1
102
RTVSPost2010Prop51ColorIndex
 90
      256
102
RTVSPost2010Prop51ColorRGB
 90
-16777216
102
RTVSPost2010PropOp51
 70
     0
102
RTVSPost2010Prop52
140
1.0
102
RTVSPost2010PropOp52
 70
     0
102
RTVSPost2010Prop53
 90
        2
102
RTVSPost2010PropOp53
 70
     1
102
RTVSPost2010Prop54
  1
strokes_ogs.tif
102
RTVSPost2010PropOp54
 70
     1
102
RTVSPost2010Prop55
280
     0
102
RTVSPost2010PropOp55
 70
     1
102
RTVSPost2010Prop56
140
1.0
102
RTVSPost2010PropOp56
 70
     1
102
RTVSPost2010Prop57
140
1.0
102
RTVSPost2010PropOp57
 70
     1
  0
XRECORD
  5
25C
102
{ACAD_REACTORS
330
25B
102
}
330
25B
100
AcDbXrecord
280
     1
102
RTVSPost2010Prop28
280
     0
102
RTVSPost2010PropOp28
 70
     0
102
RTVSPost2010Prop29
280
     1
102
RTVSPost2010PropOp29
 70
     0
102
RTVSPost2010Prop30
280
     1
102
RTVSPost2010PropOp30
 70
     0
102
RTVSPost2010Prop31
280
     0
102
RTVSPost2010PropOp31
 70
     0
102
RTVSPost2010Prop32
280
     0
102
RTVSPost2010PropOp32
 70
     0
102
RTVSPost2010Prop33
280
     0
102
RTVSPost2010PropOp33
 70
     0
102
RTVSPost2010Prop34
280
     0
102
RTVSPost2010PropOp34
 70
     0
102
RTVSPost2010Prop35
280
     0
102
RTVSPost2010PropOp35
 70
     0
102
RTVSPost2010Prop36
280
     0
102
RTVSPost2010PropOp36
 70
     0
102
RTVSPost2010Prop37
 90
       50
102
RTVSPost2010PropOp37
 70
     0
102
RTVSPost2010Prop38
140
0.0
102
RTVSPost2010PropOp38
 70
     0
102
RTVSPost2010Prop39
140
1.0
102
RTVSPost2010PropOp39
 70
     0
102
RTVSPost2010Prop40
 90
        0
102
RTVSPost2010PropOp40
 70
     0
102
RTVSPost2010Prop41ColorIndex
 90
       18
102
RTVSPost2010Prop41ColorRGB
 90
        0
102
RTVSPost2010PropOp41
 70
     0
102
RTVSPost2010Prop42
 90
       50
102
RTVSPost2010PropOp42
 70
     0
102
RTVSPost2010Prop43
 90
        3
102
RTVSPost2010PropOp43
 70
     0
102
RTVSPost2010Prop44ColorIndex
 90
        5
102
RTVSPost2010Prop44ColorRGB
 90
      255
102
RTVSPost2010PropOp44
 70
     0
102
RTVSPost2010Prop45
280
     0
102
RTVSPost2010PropOp45
 70
     0
102
RTVSPost2010Prop46
 90
       50
102
RTVSPost2010PropOp46
 70
     0
102
RTVSPost2010Prop47
 90
       50
102
RTVSPost2010PropOp47
 70
     0
102
RTVSPost2010Prop48
 90
       50
102
RTVSPost2010PropOp48
 70
     0
102
RTVSPost2010Prop49
280
     0
102
RTVSPost2010PropOp49
 70
     0
102
RTVSPost2010Prop50
 90
       50
102
RTVSPost2010PropOp50
 70
     0
102
RTVSPost2010Prop51ColorIndex
 90
      256
102
RTVSPost2010Prop51ColorRGB
 90
-16777216
102
RTVSPost2010PropOp51
 70
     0
102
RTVSPost2010Prop52
140
1.0
102
RTVSPost2010PropOp52
 70
     0
102
RTVSPost2010Prop53
 90
        2
102
RTVSPost2010PropOp53
 70
     0
102
RTVSPost2010Prop54
  1
strokes_ogs.tif
102
RTVSPost2010PropOp54
 70
     0
102
RTVSPost2010Prop55
280
     0
102
RTVSPost2010PropOp55
 70
     0
102
RTVSPost2010Prop56
140
1.0
102
RTVSPost2010PropOp56
 70
     0
102
RTVSPost2010Prop57
140
1.0
102
RTVSPost2010PropOp57
 70
     0
  0
XRECORD
  5
24A
102
{ACAD_REACTORS
330
249
102
}
330
249
100
AcDbXrecord
280
     1
102
RTVSPost2010Prop28
280
     0
102
RTVSPost2010PropOp28
 70
     1
102
RTVSPost2010Prop29
280
     1
102
RTVSPost2010PropOp29
 70
     1
102
RTVSPost2010Prop30
280
     1
102
RTVSPost2010PropOp30
 70
     1
102
RTVSPost2010Prop31
280
     0
102
RTVSPost2010PropOp31
 70
     1
102
RTVSPost2010Prop32
280
     0
102
RTVSPost2010PropOp32
 70
     1
102
RTVSPost2010Prop33
280
     0
102
RTVSPost2010PropOp33
 70
     1
102
RTVSPost2010Prop34
280
     0
102
RTVSPost2010PropOp34
 70
     1
102
RTVSPost2010Prop35
280
     0
102
RTVSPost2010PropOp35
 70
     1
102
RTVSPost2010Prop36
280
     0
102
RTVSPost2010PropOp36
 70
     1
102
RTVSPost2010Prop37
 90
       50
102
RTVSPost2010PropOp37
 70
     1
102
RTVSPost2010Prop38
140
0.0
102
RTVSPost2010PropOp38
 70
     1
102
RTVSPost2010Prop39
140
1.0
102
RTVSPost2010PropOp39
 70
     1
102
RTVSPost2010Prop40
 90
        0
102
RTVSPost2010PropOp40
 70
     1
102
RTVSPost2010Prop41ColorIndex
 90
       18
102
RTVSPost2010Prop41ColorRGB
 90
        0
102
RTVSPost2010PropOp41
 70
     1
102
RTVSPost2010Prop42
 90
       50
102
RTVSPost2010PropOp42
 70
     1
102
RTVSPost2010Prop43
 90
        3
102
RTVSPost2010PropOp43
 70
     1
102
RTVSPost2010Prop44ColorIndex
 90
        5
102
RTVSPost2010Prop44ColorRGB
 90
      255
102
RTVSPost2010PropOp44
 70
     1
102
RTVSPost2010Prop45
280
     0
102
RTVSPost2010PropOp45
 70
     1
102
RTVSPost2010Prop46
 90
       50
102
RTVSPost2010PropOp46
 70
     1
102
RTVSPost2010Prop47
 90
       50
102
RTVSPost2010PropOp47
 70
     1
102
RTVSPost2010Prop48
 90
       50
102
RTVSPost2010PropOp48
 70
     1
102
RTVSPost2010Prop49
280
     0
102
RTVSPost2010PropOp49
 70
     1
102
RTVSPost2010Prop50
 90
       50
102
RTVSPost2010PropOp50
 70
     1
102
RTVSPost2010Prop51ColorIndex
 90
      256
102
RTVSPost2010Prop51ColorRGB
 90
-16777216
102
RTVSPost2010PropOp51
 70
     0
102
RTVSPost2010Prop52
140
1.0
102
RTVSPost2010PropOp52
 70
     0
102
RTVSPost2010Prop53
 90
        2
102
RTVSPost2010PropOp53
 70
     1
102
RTVSPost2010Prop54
  1
strokes_ogs.tif
102
RTVSPost2010PropOp54
 70
     1
102
RTVSPost2010Prop55
280
     0
102
RTVSPost2010PropOp55
 70
     1
102
RTVSPost2010Prop56
140
1.0
102
RTVSPost2010PropOp56
 70
     1
102
RTVSPost2010Prop57
140
1.0
102
RTVSPost2010PropOp57
 70
     1
  0
XRECORD
  5
268
102
{ACAD_REACTORS
330
267
102
}
330
267
100
AcDbXrecord
280
     1
102
RTVSPost2010Prop28
280
     0
102
RTVSPost2010PropOp28
 70
     1
102
RTVSPost2010Prop29
280
     1
102
RTVSPost2010PropOp29
 70
     1
102
RTVSPost2010Prop30
280
     1
102
RTVSPost2010PropOp30
 70
     1
102
RTVSPost2010Prop31
280
     0
102
RTVSPost2010PropOp31
 70
     1
102
RTVSPost2010Prop32
280
     0
102
RTVSPost2010PropOp32
 70
     1
102
RTVSPost2010Prop33
280
     0
102
RTVSPost2010PropOp33
 70
     1
102
RTVSPost2010Prop34
280
     0
102
RTVSPost2010PropOp34
 70
     1
102
RTVSPost2010Prop35
280
     0
102
RTVSPost2010PropOp35
 70
     1
102
RTVSPost2010Prop36
280
     0
102
RTVSPost2010PropOp36
 70
     1
102
RTVSPost2010Prop37
 90
       50
102
RTVSPost2010PropOp37
 70
     1
102
RTVSPost2010Prop38
140
0.0
102
RTVSPost2010PropOp38
 70
     1
102
RTVSPost2010Prop39
140
1.0
102
RTVSPost2010PropOp39
 70
     1
102
RTVSPost2010Prop40
 90
        0
102
RTVSPost2010PropOp40
 70
     1
102
RTVSPost2010Prop41ColorIndex
 90
       18
102
RTVSPost2010Prop41ColorRGB
 90
        0
102
RTVSPost2010PropOp41
 70
     1
102
RTVSPost2010Prop42
 90
       50
102
RTVSPost2010PropOp42
 70
     1
102
RTVSPost2010Prop43
 90
        3
102
RTVSPost2010PropOp43
 70
     1
102
RTVSPost2010Prop44ColorIndex
 90
        5
102
RTVSPost2010Prop44ColorRGB
 90
      255
102
RTVSPost2010PropOp44
 70
     1
102
RTVSPost2010Prop45
280
     0
102
RTVSPost2010PropOp45
 70
     1
102
RTVSPost2010Prop46
 90
       50
102
RTVSPost2010PropOp46
 70
     1
102
RTVSPost2010Prop47
 90
       50
102
RTVSPost2010PropOp47
 70
     1
102
RTVSPost2010Prop48
 90
       50
102
RTVSPost2010PropOp48
 70
     1
102
RTVSPost2010Prop49
280
     0
102
RTVSPost2010PropOp49
 70
     1
102
RTVSPost2010Prop50
 90
       50
102
RTVSPost2010PropOp50
 70
     1
102
RTVSPost2010Prop51ColorIndex
 90
      256
102
RTVSPost2010Prop51ColorRGB
 90
-16777216
102
RTVSPost2010PropOp51
 70
     0
102
RTVSPost2010Prop52
140
1.0
102
RTVSPost2010PropOp52
 70
     0
102
RTVSPost2010Prop53
 90
        2
102
RTVSPost2010PropOp53
 70
     1
102
RTVSPost2010Prop54
  1
strokes_ogs.tif
102
RTVSPost2010PropOp54
 70
     1
102
RTVSPost2010Prop55
280
     0
102
RTVSPost2010PropOp55
 70
     1
102
RTVSPost2010Prop56
140
1.0
102
RTVSPost2010PropOp56
 70
     1
102
RTVSPost2010Prop57
140
1.0
102
RTVSPost2010PropOp57
 70
     1
  0
XRECORD
  5
266
102
{ACAD_REACTORS
330
265
102
}
330
265
100
AcDbXrecord
280
     1
102
RTVSPost2010Prop28
280
     0
102
RTVSPost2010PropOp28
 70
     1
102
RTVSPost2010Prop29
280
     1
102
RTVSPost2010PropOp29
 70
     1
102
RTVSPost2010Prop30
280
     1
102
RTVSPost2010PropOp30
 70
     1
102
RTVSPost2010Prop31
280
     0
102
RTVSPost2010PropOp31
 70
     1
102
RTVSPost2010Prop32
280
     0
102
RTVSPost2010PropOp32
 70
     1
102
RTVSPost2010Prop33
280
     0
102
RTVSPost2010PropOp33
 70
     1
102
RTVSPost2010Prop34
280
     0
102
RTVSPost2010PropOp34
 70
     1
102
RTVSPost2010Prop35
280
     0
102
RTVSPost2010PropOp35
 70
     1
102
RTVSPost2010Prop36
280
     0
102
RTVSPost2010PropOp36
 70
     1
102
RTVSPost2010Prop37
 90
       50
102
RTVSPost2010PropOp37
 70
     1
102
RTVSPost2010Prop38
140
0.0
102
RTVSPost2010PropOp38
 70
     1
102
RTVSPost2010Prop39
140
1.0
102
RTVSPost2010PropOp39
 70
     1
102
RTVSPost2010Prop40
 90
        0
102
RTVSPost2010PropOp40
 70
     1
102
RTVSPost2010Prop41ColorIndex
 90
       18
102
RTVSPost2010Prop41ColorRGB
 90
        0
102
RTVSPost2010PropOp41
 70
     1
102
RTVSPost2010Prop42
 90
       50
102
RTVSPost2010PropOp42
 70
     1
102
RTVSPost2010Prop43
 90
        3
102
RTVSPost2010PropOp43
 70
     1
102
RTVSPost2010Prop44ColorIndex
 90
        5
102
RTVSPost2010Prop44ColorRGB
 90
      255
102
RTVSPost2010PropOp44
 70
     1
102
RTVSPost2010Prop45
280
     0
102
RTVSPost2010PropOp45
 70
     1
102
RTVSPost2010Prop46
 90
       50
102
RTVSPost2010PropOp46
 70
     1
102
RTVSPost2010Prop47
 90
       50
102
RTVSPost2010PropOp47
 70
     1
102
RTVSPost2010Prop48
 90
       50
102
RTVSPost2010PropOp48
 70
     1
102
RTVSPost2010Prop49
280
     0
102
RTVSPost2010PropOp49
 70
     1
102
RTVSPost2010Prop50
 90
       50
102
RTVSPost2010PropOp50
 70
     1
102
RTVSPost2010Prop51ColorIndex
 90
      256
102
RTVSPost2010Prop51ColorRGB
 90
-16777216
102
RTVSPost2010PropOp51
 70
     0
102
RTVSPost2010Prop52
140
1.0
102
RTVSPost2010PropOp52
 70
     0
102
RTVSPost2010Prop53
 90
        2
102
RTVSPost2010PropOp53
 70
     1
102
RTVSPost2010Prop54
  1
strokes_ogs.tif
102
RTVSPost2010PropOp54
 70
     1
102
RTVSPost2010Prop55
280
     0
102
RTVSPost2010PropOp55
 70
     1
102
RTVSPost2010Prop56
140
1.0
102
RTVSPost2010PropOp56
 70
     1
102
RTVSPost2010Prop57
140
1.0
102
RTVSPost2010PropOp57
 70
     1
  0
XRECORD
  5
260
102
{ACAD_REACTORS
330
25F
102
}
330
25F
100
AcDbXrecord
280
     1
102
RTVSPost2010Prop28
280
     0
102
RTVSPost2010PropOp28
 70
     1
102
RTVSPost2010Prop29
280
     1
102
RTVSPost2010PropOp29
 70
     1
102
RTVSPost2010Prop30
280
     1
102
RTVSPost2010PropOp30
 70
     1
102
RTVSPost2010Prop31
280
     0
102
RTVSPost2010PropOp31
 70
     1
102
RTVSPost2010Prop32
280
     0
102
RTVSPost2010PropOp32
 70
     1
102
RTVSPost2010Prop33
280
     0
102
RTVSPost2010PropOp33
 70
     1
102
RTVSPost2010Prop34
280
     0
102
RTVSPost2010PropOp34
 70
     1
102
RTVSPost2010Prop35
280
     0
102
RTVSPost2010PropOp35
 70
     1
102
RTVSPost2010Prop36
280
     0
102
RTVSPost2010PropOp36
 70
     1
102
RTVSPost2010Prop37
 90
       50
102
RTVSPost2010PropOp37
 70
     1
102
RTVSPost2010Prop38
140
0.0
102
RTVSPost2010PropOp38
 70
     1
102
RTVSPost2010Prop39
140
1.0
102
RTVSPost2010PropOp39
 70
     1
102
RTVSPost2010Prop40
 90
        0
102
RTVSPost2010PropOp40
 70
     1
102
RTVSPost2010Prop41ColorIndex
 90
       18
102
RTVSPost2010Prop41ColorRGB
 90
        0
102
RTVSPost2010PropOp41
 70
     1
102
RTVSPost2010Prop42
 90
       50
102
RTVSPost2010PropOp42
 70
     1
102
RTVSPost2010Prop43
 90
        3
102
RTVSPost2010PropOp43
 70
     1
102
RTVSPost2010Prop44ColorIndex
 90
        5
102
RTVSPost2010Prop44ColorRGB
 90
      255
102
RTVSPost2010PropOp44
 70
     1
102
RTVSPost2010Prop45
280
     0
102
RTVSPost2010PropOp45
 70
     1
102
RTVSPost2010Prop46
 90
       50
102
RTVSPost2010PropOp46
 70
     1
102
RTVSPost2010Prop47
 90
       50
102
RTVSPost2010PropOp47
 70
     1
102
RTVSPost2010Prop48
 90
       50
102
RTVSPost2010PropOp48
 70
     1
102
RTVSPost2010Prop49
280
     0
102
RTVSPost2010PropOp49
 70
     1
102
RTVSPost2010Prop50
 90
       50
102
RTVSPost2010PropOp50
 70
     1
102
RTVSPost2010Prop51ColorIndex
 90
      256
102
RTVSPost2010Prop51ColorRGB
 90
-16777216
102
RTVSPost2010PropOp51
 70
     0
102
RTVSPost2010Prop52
140
1.0
102
RTVSPost2010PropOp52
 70
     0
102
RTVSPost2010Prop53
 90
        2
102
RTVSPost2010PropOp53
 70
     1
102
RTVSPost2010Prop54
  1
strokes_ogs.tif
102
RTVSPost2010PropOp54
 70
     1
102
RTVSPost2010Prop55
280
     0
102
RTVSPost2010PropOp55
 70
     1
102
RTVSPost2010Prop56
140
1.0
102
RTVSPost2010PropOp56
 70
     1
102
RTVSPost2010Prop57
140
1.0
102
RTVSPost2010PropOp57
 70
     1
  0
XRECORD
  5
262
102
{ACAD_REACTORS
330
261
102
}
330
261
100
AcDbXrecord
280
     1
102
RTVSPost2010Prop28
280
     0
102
RTVSPost2010PropOp28
 70
     1
102
RTVSPost2010Prop29
280
     1
102
RTVSPost2010PropOp29
 70
     1
102
RTVSPost2010Prop30
280
     1
102
RTVSPost2010PropOp30
 70
     1
102
RTVSPost2010Prop31
280
     0
102
RTVSPost2010PropOp31
 70
     1
102
RTVSPost2010Prop32
280
     0
102
RTVSPost2010PropOp32
 70
     1
102
RTVSPost2010Prop33
280
     0
102
RTVSPost2010PropOp33
 70
     1
102
RTVSPost2010Prop34
280
     0
102
RTVSPost2010PropOp34
 70
     1
102
RTVSPost2010Prop35
280
     0
102
RTVSPost2010PropOp35
 70
     1
102
RTVSPost2010Prop36
280
     0
102
RTVSPost2010PropOp36
 70
     1
102
RTVSPost2010Prop37
 90
       50
102
RTVSPost2010PropOp37
 70
     1
102
RTVSPost2010Prop38
140
0.0
102
RTVSPost2010PropOp38
 70
     1
102
RTVSPost2010Prop39
140
1.0
102
RTVSPost2010PropOp39
 70
     1
102
RTVSPost2010Prop40
 90
        0
102
RTVSPost2010PropOp40
 70
     1
102
RTVSPost2010Prop41ColorIndex
 90
       18
102
RTVSPost2010Prop41ColorRGB
 90
        0
102
RTVSPost2010PropOp41
 70
     1
102
RTVSPost2010Prop42
 90
       50
102
RTVSPost2010PropOp42
 70
     1
102
RTVSPost2010Prop43
 90
        3
102
RTVSPost2010PropOp43
 70
     1
102
RTVSPost2010Prop44ColorIndex
 90
        5
102
RTVSPost2010Prop44ColorRGB
 90
      255
102
RTVSPost2010PropOp44
 70
     1
102
RTVSPost2010Prop45
280
     0
102
RTVSPost2010PropOp45
 70
     1
102
RTVSPost2010Prop46
 90
       50
102
RTVSPost2010PropOp46
 70
     1
102
RTVSPost2010Prop47
 90
       50
102
RTVSPost2010PropOp47
 70
     1
102
RTVSPost2010Prop48
 90
       50
102
RTVSPost2010PropOp48
 70
     1
102
RTVSPost2010Prop49
280
     0
102
RTVSPost2010PropOp49
 70
     1
102
RTVSPost2010Prop50
 90
       50
102
RTVSPost2010PropOp50
 70
     1
102
RTVSPost2010Prop51ColorIndex
 90
      256
102
RTVSPost2010Prop51ColorRGB
 90
-16777216
102
RTVSPost2010PropOp51
 70
     0
102
RTVSPost2010Prop52
140
1.0
102
RTVSPost2010PropOp52
 70
     0
102
RTVSPost2010Prop53
 90
        2
102
RTVSPost2010PropOp53
 70
     1
102
RTVSPost2010Prop54
  1
strokes_ogs.tif
102
RTVSPost2010PropOp54
 70
     1
102
RTVSPost2010Prop55
280
     0
102
RTVSPost2010PropOp55
 70
     1
102
RTVSPost2010Prop56
140
1.0
102
RTVSPost2010PropOp56
 70
     1
102
RTVSPost2010Prop57
140
1.0
102
RTVSPost2010PropOp57
 70
     1
  0
XRECORD
  5
252
102
{ACAD_REACTORS
330
251
102
}
330
251
100
AcDbXrecord
280
     1
102
RTVSPost2010Prop28
280
     0
102
RTVSPost2010PropOp28
 70
     1
102
RTVSPost2010Prop29
280
     1
102
RTVSPost2010PropOp29
 70
     1
102
RTVSPost2010Prop30
280
     1
102
RTVSPost2010PropOp30
 70
     1
102
RTVSPost2010Prop31
280
     0
102
RTVSPost2010PropOp31
 70
     1
102
RTVSPost2010Prop32
280
     0
102
RTVSPost2010PropOp32
 70
     1
102
RTVSPost2010Prop33
280
     0
102
RTVSPost2010PropOp33
 70
     1
102
RTVSPost2010Prop34
280
     0
102
RTVSPost2010PropOp34
 70
     1
102
RTVSPost2010Prop35
280
     0
102
RTVSPost2010PropOp35
 70
     1
102
RTVSPost2010Prop36
280
     0
102
RTVSPost2010PropOp36
 70
     1
102
RTVSPost2010Prop37
 90
       50
102
RTVSPost2010PropOp37
 70
     1
102
RTVSPost2010Prop38
140
0.0
102
RTVSPost2010PropOp38
 70
     1
102
RTVSPost2010Prop39
140
1.0
102
RTVSPost2010PropOp39
 70
     1
102
RTVSPost2010Prop40
 90
        0
102
RTVSPost2010PropOp40
 70
     1
102
RTVSPost2010Prop41ColorIndex
 90
       18
102
RTVSPost2010Prop41ColorRGB
 90
        0
102
RTVSPost2010PropOp41
 70
     1
102
RTVSPost2010Prop42
 90
       50
102
RTVSPost2010PropOp42
 70
     1
102
RTVSPost2010Prop43
 90
        3
102
RTVSPost2010PropOp43
 70
     1
102
RTVSPost2010Prop44ColorIndex
 90
        5
102
RTVSPost2010Prop44ColorRGB
 90
      255
102
RTVSPost2010PropOp44
 70
     1
102
RTVSPost2010Prop45
280
     0
102
RTVSPost2010PropOp45
 70
     1
102
RTVSPost2010Prop46
 90
       50
102
RTVSPost2010PropOp46
 70
     1
102
RTVSPost2010Prop47
 90
       50
102
RTVSPost2010PropOp47
 70
     1
102
RTVSPost2010Prop48
 90
       50
102
RTVSPost2010PropOp48
 70
     1
102
RTVSPost2010Prop49
280
     0
102
RTVSPost2010PropOp49
 70
     1
102
RTVSPost2010Prop50
 90
       50
102
RTVSPost2010PropOp50
 70
     1
102
RTVSPost2010Prop51ColorIndex
 90
      256
102
RTVSPost2010Prop51ColorRGB
 90
-16777216
102
RTVSPost2010PropOp51
 70
     0
102
RTVSPost2010Prop52
140
1.0
102
RTVSPost2010PropOp52
 70
     0
102
RTVSPost2010Prop53
 90
        2
102
RTVSPost2010PropOp53
 70
     1
102
RTVSPost2010Prop54
  1
strokes_ogs.tif
102
RTVSPost2010PropOp54
 70
     1
102
RTVSPost2010Prop55
280
     0
102
RTVSPost2010PropOp55
 70
     1
102
RTVSPost2010Prop56
140
1.0
102
RTVSPost2010PropOp56
 70
     1
102
RTVSPost2010Prop57
140
1.0
102
RTVSPost2010PropOp57
 70
     1
  0
XRECORD
  5
244
102
{ACAD_REACTORS
330
243
102
}
330
243
100
AcDbXrecord
280
     1
102
RTVSPost2010Prop28
280
     0
102
RTVSPost2010PropOp28
 70
     1
102
RTVSPost2010Prop29
280
     1
102
RTVSPost2010PropOp29
 70
     1
102
RTVSPost2010Prop30
280
     1
102
RTVSPost2010PropOp30
 70
     1
102
RTVSPost2010Prop31
280
     0
102
RTVSPost2010PropOp31
 70
     1
102
RTVSPost2010Prop32
280
     0
102
RTVSPost2010PropOp32
 70
     1
102
RTVSPost2010Prop33
280
     0
102
RTVSPost2010PropOp33
 70
     1
102
RTVSPost2010Prop34
280
     0
102
RTVSPost2010PropOp34
 70
     1
102
RTVSPost2010Prop35
280
     0
102
RTVSPost2010PropOp35
 70
     1
102
RTVSPost2010Prop36
280
     0
102
RTVSPost2010PropOp36
 70
     1
102
RTVSPost2010Prop37
 90
       50
102
RTVSPost2010PropOp37
 70
     1
102
RTVSPost2010Prop38
140
0.0
102
RTVSPost2010PropOp38
 70
     1
102
RTVSPost2010Prop39
140
1.0
102
RTVSPost2010PropOp39
 70
     1
102
RTVSPost2010Prop40
 90
        0
102
RTVSPost2010PropOp40
 70
     1
102
RTVSPost2010Prop41ColorIndex
 90
       18
102
RTVSPost2010Prop41ColorRGB
 90
        0
102
RTVSPost2010PropOp41
 70
     1
102
RTVSPost2010Prop42
 90
       50
102
RTVSPost2010PropOp42
 70
     1
102
RTVSPost2010Prop43
 90
        3
102
RTVSPost2010PropOp43
 70
     1
102
RTVSPost2010Prop44ColorIndex
 90
        5
102
RTVSPost2010Prop44ColorRGB
 90
      255
102
RTVSPost2010PropOp44
 70
     1
102
RTVSPost2010Prop45
280
     0
102
RTVSPost2010PropOp45
 70
     1
102
RTVSPost2010Prop46
 90
       50
102
RTVSPost2010PropOp46
 70
     1
102
RTVSPost2010Prop47
 90
       50
102
RTVSPost2010PropOp47
 70
     1
102
RTVSPost2010Prop48
 90
       50
102
RTVSPost2010PropOp48
 70
     1
102
RTVSPost2010Prop49
280
     0
102
RTVSPost2010PropOp49
 70
     1
102
RTVSPost2010Prop50
 90
       50
102
RTVSPost2010PropOp50
 70
     1
102
RTVSPost2010Prop51ColorIndex
 90
      256
102
RTVSPost2010Prop51ColorRGB
 90
-16777216
102
RTVSPost2010PropOp51
 70
     0
102
RTVSPost2010Prop52
140
1.0
102
RTVSPost2010PropOp52
 70
     0
102
RTVSPost2010Prop53
 90
        2
102
RTVSPost2010PropOp53
 70
     1
102
RTVSPost2010Prop54
  1
strokes_ogs.tif
102
RTVSPost2010PropOp54
 70
     1
102
RTVSPost2010Prop55
280
     0
102
RTVSPost2010PropOp55
 70
     1
102
RTVSPost2010Prop56
140
1.0
102
RTVSPost2010PropOp56
 70
     1
102
RTVSPost2010Prop57
140
1.0
102
RTVSPost2010PropOp57
 70
     1
  0
XRECORD
  5
264
102
{ACAD_REACTORS
330
263
102
}
330
263
100
AcDbXrecord
280
     1
102
RTVSPost2010Prop28
280
     0
102
RTVSPost2010PropOp28
 70
     1
102
RTVSPost2010Prop29
280
     1
102
RTVSPost2010PropOp29
 70
     1
102
RTVSPost2010Prop30
280
     1
102
RTVSPost2010PropOp30
 70
     1
102
RTVSPost2010Prop31
280
     0
102
RTVSPost2010PropOp31
 70
     1
102
RTVSPost2010Prop32
280
     0
102
RTVSPost2010PropOp32
 70
     1
102
RTVSPost2010Prop33
280
     0
102
RTVSPost2010PropOp33
 70
     1
102
RTVSPost2010Prop34
280
     0
102
RTVSPost2010PropOp34
 70
     1
102
RTVSPost2010Prop35
280
     0
102
RTVSPost2010PropOp35
 70
     1
102
RTVSPost2010Prop36
280
     0
102
RTVSPost2010PropOp36
 70
     1
102
RTVSPost2010Prop37
 90
       50
102
RTVSPost2010PropOp37
 70
     1
102
RTVSPost2010Prop38
140
0.0
102
RTVSPost2010PropOp38
 70
     1
102
RTVSPost2010Prop39
140
1.0
102
RTVSPost2010PropOp39
 70
     1
102
RTVSPost2010Prop40
 90
        0
102
RTVSPost2010PropOp40
 70
     1
102
RTVSPost2010Prop41ColorIndex
 90
       18
102
RTVSPost2010Prop41ColorRGB
 90
        0
102
RTVSPost2010PropOp41
 70
     1
102
RTVSPost2010Prop42
 90
       50
102
RTVSPost2010PropOp42
 70
     1
102
RTVSPost2010Prop43
 90
        3
102
RTVSPost2010PropOp43
 70
     1
102
RTVSPost2010Prop44ColorIndex
 90
        5
102
RTVSPost2010Prop44ColorRGB
 90
      255
102
RTVSPost2010PropOp44
 70
     1
102
RTVSPost2010Prop45
280
     0
102
RTVSPost2010PropOp45
 70
     1
102
RTVSPost2010Prop46
 90
       50
102
RTVSPost2010PropOp46
 70
     1
102
RTVSPost2010Prop47
 90
       50
102
RTVSPost2010PropOp47
 70
     1
102
RTVSPost2010Prop48
 90
       50
102
RTVSPost2010PropOp48
 70
     1
102
RTVSPost2010Prop49
280
     0
102
RTVSPost2010PropOp49
 70
     1
102
RTVSPost2010Prop50
 90
       50
102
RTVSPost2010PropOp50
 70
     1
102
RTVSPost2010Prop51ColorIndex
 90
      256
102
RTVSPost2010Prop51ColorRGB
 90
-16777216
102
RTVSPost2010PropOp51
 70
     0
102
RTVSPost2010Prop52
140
1.0
102
RTVSPost2010PropOp52
 70
     0
102
RTVSPost2010Prop53
 90
        2
102
RTVSPost2010PropOp53
 70
     1
102
RTVSPost2010Prop54
  1
strokes_ogs.tif
102
RTVSPost2010PropOp54
 70
     1
102
RTVSPost2010Prop55
280
     0
102
RTVSPost2010PropOp55
 70
     1
102
RTVSPost2010Prop56
140
1.0
102
RTVSPost2010PropOp56
 70
     1
102
RTVSPost2010Prop57
140
1.0
102
RTVSPost2010PropOp57
 70
     1
  0
ENDSEC
  0
EOF
