  0
SECTION
  2
HEADER
  9
$ACADVER
  1
AC1024
  9
$ACADMAINTVER
 70
     6
  9
$DWGCODEPAGE
  3
ANSI_1252
  9
$LASTSAVEDBY
  1
BirnerR
  9
$INSBASE
 10
0.0
 20
0.0
 30
0.0
  9
$EXTMIN
 10
3.182544
 20
3.563845
 30
3.182544
  9
$EXTMAX
 10
4.232554
 20
5.04883
 30
4.232554
  9
$LIMMIN
 10
3.182544
 20
3.563845
  9
$LIMMAX
 10
4.232554
 20
5.04883
  9
$ORTHOMODE
 70
     0
  9
$REGENMODE
 70
     1
  9
$FILLMODE
 70
     1
  9
$QTEXTMODE
 70
     0
  9
$MIRRTEXT
 70
     1
  9
$LTSCALE
 40
1.0
  9
$ATTMODE
 70
     1
  9
$TEXTSIZE
 40
0.2
  9
$TRACEWID
 40
0.05
  9
$TEXTSTYLE
  7
Standard
  9
$CLAYER
  8
0
  9
$CELTYPE
  6
ByLayer
  9
$CECOLOR
 62
   256
  9
$CELTSCALE
 40
1.0
  9
$DISPSILH
 70
     0
  9
$DIMSCALE
 40
1.0
  9
$DIMASZ
 40
0.18
  9
$DIMEXO
 40
0.0625
  9
$DIMDLI
 40
0.38
  9
$DIMRND
 40
0.0
  9
$DIMDLE
 40
0.0
  9
$DIMEXE
 40
0.18
  9
$DIMTP
 40
0.0
  9
$DIMTM
 40
0.0
  9
$DIMTXT
 40
0.18
  9
$DIMCEN
 40
0.09
  9
$DIMTSZ
 40
0.0
  9
$DIMTOL
 70
     0
  9
$DIMLIM
 70
     0
  9
$DIMTIH
 70
     1
  9
$DIMTOH
 70
     1
  9
$DIMSE1
 70
     0
  9
$DIMSE2
 70
     0
  9
$DIMTAD
 70
     0
  9
$DIMZIN
 70
     0
  9
$DIMBLK
  1

  9
$DIMASO
 70
     1
  9
$DIMSHO
 70
     1
  9
$DIMPOST
  1

  9
$DIMAPOST
  1

  9
$DIMALT
 70
     0
  9
$DIMALTD
 70
     2
  9
$DIMALTF
 40
25.4
  9
$DIMLFAC
 40
1.0
  9
$DIMTOFL
 70
     0
  9
$DIMTVP
 40
0.0
  9
$DIMTIX
 70
     0
  9
$DIMSOXD
 70
     0
  9
$DIMSAH
 70
     0
  9
$DIMBLK1
  1

  9
$DIMBLK2
  1

  9
$DIMSTYLE
  2
Standard
  9
$DIMCLRD
 70
     0
  9
$DIMCLRE
 70
     0
  9
$DIMCLRT
 70
     0
  9
$DIMTFAC
 40
1.0
  9
$DIMGAP
 40
0.09
  9
$DIMJUST
 70
     0
  9
$DIMSD1
 70
     0
  9
$DIMSD2
 70
     0
  9
$DIMTOLJ
 70
     1
  9
$DIMTZIN
 70
     0
  9
$DIMALTZ
 70
     0
  9
$DIMALTTZ
 70
     0
  9
$DIMUPT
 70
     0
  9
$DIMDEC
 70
     4
  9
$DIMTDEC
 70
     4
  9
$DIMALTU
 70
     2
  9
$DIMALTTD
 70
     2
  9
$DIMTXSTY
  7
Standard
  9
$DIMAUNIT
 70
     0
  9
$DIMADEC
 70
     0
  9
$DIMALTRND
 40
0.0
  9
$DIMAZIN
 70
     0
  9
$DIMDSEP
 70
    46
  9
$DIMATFIT
 70
     3
  9
$DIMFRAC
 70
     0
  9
$DIMLDRBLK
  1

  9
$DIMLUNIT
 70
     2
  9
$DIMLWD
 70
    -2
  9
$DIMLWE
 70
    -2
  9
$DIMTMOVE
 70
     0
  9
$DIMFXL
 40
1.0
  9
$DIMFXLON
 70
     0
  9
$DIMJOGANG
 40
0.785398
  9
$DIMTFILL
 70
     0
  9
$DIMTFILLCLR
 70
     0
  9
$DIMARCSYM
 70
     0
  9
$DIMLTYPE
  6

  9
$DIMLTEX1
  6

  9
$DIMLTEX2
  6

  9
$DIMTXTDIRECTION
 70
     0
  9
$LUNITS
 70
     2
  9
$LUPREC
 70
     4
  9
$SKETCHINC
 40
0.1
  9
$FILLETRAD
 40
0.5
  9
$AUNITS
 70
     0
  9
$AUPREC
 70
     0
  9
$MENU
  1
.
  9
$ELEVATION
 40
0.0
  9
$PELEVATION
 40
0.0
  9
$THICKNESS
 40
0.0
  9
$LIMCHECK
 70
     0
  9
$CHAMFERA
 40
0.0
  9
$CHAMFERB
 40
0.0
  9
$CHAMFERC
 40
0.0
  9
$CHAMFERD
 40
0.0
  9
$SKPOLY
 70
     0
  9
$TDCREATE
 40
2459144.589945961
  9
$TDUCREATE
 40
2459144.506612627
  9
$TDUPDATE
 40
2459144.589957535
  9
$TDUUPDATE
 40
2459144.506624201
  9
$TDINDWG
 40
0.0000000116
  9
$TDUSRTIMER
 40
0.0000000116
  9
$USRTIMER
 70
     1
  9
$ANGBASE
 50
0.0
  9
$ANGDIR
 70
     0
  9
$PDMODE
 70
    65
  9
$PDSIZE
 40
0.0
  9
$PLINEWID
 40
0.0
  9
$SPLFRAME
 70
     0
  9
$SPLINETYPE
 70
     6
  9
$SPLINESEGS
 70
     8
  9
$HANDSEED
  5
12E
  9
$SURFTAB1
 70
     6
  9
$SURFTAB2
 70
     6
  9
$SURFTYPE
 70
     6
  9
$SURFU
 70
     6
  9
$SURFV
 70
     6
  9
$UCSBASE
  2

  9
$UCSNAME
  2

  9
$UCSORG
 10
0.0
 20
0.0
 30
0.0
  9
$UCSXDIR
 10
1.0
 20
0.0
 30
0.0
  9
$UCSYDIR
 10
0.0
 20
1.0
 30
0.0
  9
$UCSORTHOREF
  2

  9
$UCSORTHOVIEW
 70
     0
  9
$UCSORGTOP
 10
0.0
 20
0.0
 30
0.0
  9
$UCSORGBOTTOM
 10
0.0
 20
0.0
 30
0.0
  9
$UCSORGLEFT
 10
0.0
 20
0.0
 30
0.0
  9
$UCSORGRIGHT
 10
0.0
 20
0.0
 30
0.0
  9
$UCSORGFRONT
 10
0.0
 20
0.0
 30
0.0
  9
$UCSORGBACK
 10
0.0
 20
0.0
 30
0.0
  9
$PUCSBASE
  2

  9
$PUCSNAME
  2

  9
$PUCSORG
 10
0.0
 20
0.0
 30
0.0
  9
$PUCSXDIR
 10
1.0
 20
0.0
 30
0.0
  9
$PUCSYDIR
 10
0.0
 20
1.0
 30
0.0
  9
$PUCSORTHOREF
  2

  9
$PUCSORTHOVIEW
 70
     0
  9
$PUCSORGTOP
 10
0.0
 20
0.0
 30
0.0
  9
$PUCSORGBOTTOM
 10
0.0
 20
0.0
 30
0.0
  9
$PUCSORGLEFT
 10
0.0
 20
0.0
 30
0.0
  9
$PUCSORGRIGHT
 10
0.0
 20
0.0
 30
0.0
  9
$PUCSORGFRONT
 10
0.0
 20
0.0
 30
0.0
  9
$PUCSORGBACK
 10
0.0
 20
0.0
 30
0.0
  9
$USERI1
 70
     0
  9
$USERI2
 70
     0
  9
$USERI3
 70
     0
  9
$USERI4
 70
     0
  9
$USERI5
 70
     0
  9
$USERR1
 40
0.0
  9
$USERR2
 40
0.0
  9
$USERR3
 40
0.0
  9
$USERR4
 40
0.0
  9
$USERR5
 40
0.0
  9
$WORLDVIEW
 70
     1
  9
$SHADEDGE
 70
     3
  9
$SHADEDIF
 70
    70
  9
$TILEMODE
 70
     0
  9
$MAXACTVP
 70
    64
  9
$PINSBASE
 10
0.0
 20
0.0
 30
0.0
  9
$PLIMCHECK
 70
     0
  9
$PEXTMIN
 10
-0.0001
 20
-0.0001
 30
0.0
  9
$PEXTMAX
 10
0.210102
 20
0.297097
 30
0.0
  9
$PLIMMIN
 10
-0.0001
 20
-0.0001
  9
$PLIMMAX
 10
0.210102
 20
0.297097
  9
$UNITMODE
 70
     0
  9
$VISRETAIN
 70
     1
  9
$PLINEGEN
 70
     0
  9
$PSLTSCALE
 70
     0
  9
$TREEDEPTH
 70
  3020
  9
$CMLSTYLE
  2
Standard
  9
$CMLJUST
 70
     0
  9
$CMLSCALE
 40
1.0
  9
$PROXYGRAPHICS
 70
     1
  9
$MEASUREMENT
 70
     1
  9
$CELWEIGHT
370
    -1
  9
$ENDCAPS
280
     0
  9
$JOINSTYLE
280
     0
  9
$LWDISPLAY
290
     0
  9
$INSUNITS
 70
     6
  9
$HYPERLINKBASE
  1

  9
$STYLESHEET
  1

  9
$XEDIT
290
     1
  9
$CEPSNTYPE
380
     0
  9
$PSTYLEMODE
290
     1
  9
$FINGERPRINTGUID
  2
{0a27471f-6004-428c-b011-daa03fc079a5}
  9
$VERSIONGUID
  2
{FAEB1C32-E019-11D5-929B-00C0DF256EC4}
  9
$EXTNAMES
290
     1
  9
$PSVPSCALE
 40
0.0
  9
$OLESTARTUP
290
     0
  9
$SORTENTS
280
   127
  9
$INDEXCTL
280
     0
  9
$HIDETEXT
280
     1
  9
$XCLIPFRAME
280
     2
  9
$HALOGAP
280
     0
  9
$OBSCOLOR
 70
   257
  9
$OBSLTYPE
280
     0
  9
$INTERSECTIONDISPLAY
280
     0
  9
$INTERSECTIONCOLOR
 70
   257
  9
$DIMASSOC
280
     2
  9
$PROJECTNAME
  1

  9
$CAMERADISPLAY
290
     0
  9
$LENSLENGTH
 40
50.0
  9
$CAMERAHEIGHT
 40
0.0
  9
$STEPSPERSEC
 40
2.0
  9
$STEPSIZE
 40
6.0
  9
$3DDWFPREC
 40
2.0
  9
$PSOLWIDTH
 40
0.25
  9
$PSOLHEIGHT
 40
4.0
  9
$LOFTANG1
 40
1.570796
  9
$LOFTANG2
 40
1.570796
  9
$LOFTMAG1
 40
0.0
  9
$LOFTMAG2
 40
0.0
  9
$LOFTPARAM
 70
     7
  9
$LOFTNORMALS
280
     1
  9
$LATITUDE
 40
37.795
  9
$LONGITUDE
 40
-122.394
  9
$NORTHDIRECTION
 40
0.0
  9
$TIMEZONE
 70
 -8000
  9
$LIGHTGLYPHDISPLAY
280
     1
  9
$TILEMODELIGHTSYNCH
280
     1
  9
$CMATERIAL
347
44
  9
$SOLIDHIST
280
     0
  9
$SHOWHIST
280
     1
  9
$DWFFRAME
280
     2
  9
$DGNFRAME
280
     2
  9
$REALWORLDSCALE
290
     1
  9
$INTERFERECOLOR
 62
   256
  9
$CSHADOW
280
     0
  9
$SHADOWPLANELOCATION
 40
0.0
  0
ENDSEC
  0
SECTION
  2
CLASSES
  0
CLASS
  1
ACDBDICTIONARYWDFLT
  2
AcDbDictionaryWithDefault
  3
ObjectDBX Classes
 90
        0
 91
        3
280
     0
281
     0
  0
CLASS
  1
VISUALSTYLE
  2
AcDbVisualStyle
  3
ObjectDBX Classes
 90
     4095
 91
        3
280
     0
281
     0
  0
CLASS
  1
MATERIAL
  2
AcDbMaterial
  3
ObjectDBX Classes
 90
     1153
 91
        3
280
     0
281
     0
  0
CLASS
  1
SCALE
  2
AcDbScale
  3
ObjectDBX Classes
 90
     1153
 91
        3
280
     0
281
     0
  0
CLASS
  1
TABLESTYLE
  2
AcDbTableStyle
  3
ObjectDBX Classes
 90
     4095
 91
        3
280
     0
281
     0
  0
CLASS
  1
MLEADERSTYLE
  2
AcDbMLeaderStyle
  3
ACDB_MLEADERSTYLE_CLASS
 90
     4095
 91
        3
280
     0
281
     0
  0
CLASS
  1
SUN
  2
AcDbSun
  3
SCENEOE
 90
     1153
 91
        3
280
     0
281
     0
  0
CLASS
  1
SORTENTSTABLE
  2
AcDbSortentsTable
  3
ObjectDBX Classes
 90
        0
 91
        3
280
     0
281
     0
  0
CLASS
  1
DICTIONARYVAR
  2
AcDbDictionaryVar
  3
ObjectDBX Classes
 90
        0
 91
        3
280
     0
281
     0
  0
CLASS
  1
CELLSTYLEMAP
  2
AcDbCellStyleMap
  3
ObjectDBX Classes
 90
     1152
 91
        3
280
     0
281
     0
  0
ENDSEC
  0
SECTION
  2
TABLES
  0
TABLE
  2
VPORT
  5
8
330
0
100
AcDbSymbolTable
 70
     1
  0
VPORT
  5
29
330
8
100
AcDbSymbolTableRecord
100
AcDbViewportTableRecord
  2
*Active
 70
     0
 10
0.0
 20
0.0
 11
1.0
 21
1.0
 12
3.707549
 22
4.306338
 13
0.0
 23
0.0
 14
0.5
 24
0.5
 15
0.5
 25
0.5
 16
0.0
 26
0.0
 36
1.0
 17
0.0
 27
0.0
 37
0.0
 40
1.781982
 41
0.848502
 42
50.0
 43
0.0
 44
0.0
 50
0.0
 51
0.0
 71
     0
 72
   100
 73
     1
 74
     3
 75
     0
 76
     0
 77
     0
 78
     0
281
     0
 65
     1
110
0.0
120
0.0
130
0.0
111
1.0
121
0.0
131
0.0
112
0.0
122
1.0
132
0.0
 79
     0
146
0.0
348
2F
 60
     3
 61
     5
292
     1
282
     1
141
0.0
142
0.0
 63
   250
361
6D
  0
ENDTAB
  0
TABLE
  2
LTYPE
  5
5
330
0
100
AcDbSymbolTable
 70
     4
  0
LTYPE
  5
14
330
5
100
AcDbSymbolTableRecord
100
AcDbLinetypeTableRecord
  2
ByBlock
 70
     0
  3

 72
    65
 73
     0
 40
0.0
  0
LTYPE
  5
15
330
5
100
AcDbSymbolTableRecord
100
AcDbLinetypeTableRecord
  2
ByLayer
 70
     0
  3

 72
    65
 73
     0
 40
0.0
  0
LTYPE
  5
16
330
5
100
AcDbSymbolTableRecord
100
AcDbLinetypeTableRecord
  2
Continuous
 70
     0
  3
Solid line
 72
    65
 73
     0
 40
0.0
  0
LTYPE
  5
74
330
5
100
AcDbSymbolTableRecord
100
AcDbLinetypeTableRecord
  2
AUSGEZOGEN
 70
     0
  3
durchgezogene Linie
 72
    65
 73
     0
 40
0.0
  0
LTYPE
  5
7A
330
5
100
AcDbSymbolTableRecord
100
AcDbLinetypeTableRecord
  2
STRICHPUNKT2_S5
 70
     0
  3
Lang eng gestrichelt bzw. punktiert
 72
    65
 73
     4
 40
0.05
 49
0.035
 74
     0
 49
-0.005
 74
     0
 49
0.005
 74
     0
 49
-0.005
 74
     0
  0
LTYPE
  5
7B
330
5
100
AcDbSymbolTableRecord
100
AcDbLinetypeTableRecord
  2
VERDECKT2_S2
 70
     0
  3
Kurzgestrichelt
 72
    65
 73
     2
 40
0.015
 49
0.01
 74
     0
 49
-0.005
 74
     0
  0
ENDTAB
  0
TABLE
  2
LAYER
  5
2
330
0
100
AcDbSymbolTable
 70
     4
  0
LAYER
  5
10
330
2
100
AcDbSymbolTableRecord
100
AcDbLayerTableRecord
  2
0
 70
     0
 62
     7
  6
Continuous
370
    -3
390
F
347
46
  0
LAYER
  5
76
330
2
100
AcDbSymbolTableRecord
100
AcDbLayerTableRecord
  2
PLAN_1408
 70
     0
 62
     7
  6
AUSGEZOGEN
370
    -3
390
F
347
46
1001
AcCmTransparency
1071
 33554687
1001
AcAecLayerStandard
1000

1000
Dokument-Layer
  0
LAYER
  5
78
330
2
100
AcDbSymbolTableRecord
100
AcDbLayerTableRecord
  2
TB_1408
 70
     0
 62
     7
  6
AUSGEZOGEN
370
    -3
390
F
347
46
1001
AcCmTransparency
1071
 33554687
1001
AcAecLayerStandard
1000

1000
Dokument-Layer
  0
LAYER
  5
7C
330
2
100
AcDbSymbolTableRecord
100
AcDbLayerTableRecord
  2
XR$1$TB_1408_1
 70
     0
 62
     7
  6
AUSGEZOGEN
370
    -3
390
F
347
46
1001
AcCmTransparency
1071
 33554687
1001
AcAecLayerStandard
1000

1000
Dokument-Layer
  0
ENDTAB
  0
TABLE
  2
STYLE
  5
3
330
0
100
AcDbSymbolTable
 70
     2
  0
STYLE
  5
11
330
3
100
AcDbSymbolTableRecord
100
AcDbTextStyleTableRecord
  2
Standard
 70
     0
 40
0.0
 41
1.0
 50
0.0
 71
     0
 42
0.2
  3
txt
  4

  0
STYLE
  5
79
330
3
100
AcDbSymbolTableRecord
100
AcDbTextStyleTableRecord
  2
ARIAL
 70
     0
 40
0.0
 41
1.0
 50
0.0
 71
     0
 42
0.2
  3
ARIAL.TTF
  4

1001
ACAD
1000
Arial
1071
       34
  0
ENDTAB
  0
TABLE
  2
VIEW
  5
6
330
0
100
AcDbSymbolTable
 70
     0
  0
ENDTAB
  0
TABLE
  2
UCS
  5
7
330
0
100
AcDbSymbolTable
 70
     0
  0
ENDTAB
  0
TABLE
  2
APPID
  5
9
330
0
100
AcDbSymbolTable
 70
     4
  0
APPID
  5
12
330
9
100
AcDbSymbolTableRecord
100
AcDbRegAppTableRecord
  2
ACAD
 70
     0
  0
APPID
  5
75
330
9
100
AcDbSymbolTableRecord
100
AcDbRegAppTableRecord
  2
AcCmTransparency
 70
     0
  0
APPID
  5
77
330
9
100
AcDbSymbolTableRecord
100
AcDbRegAppTableRecord
  2
AcAecLayerStandard
 70
     0
  0
APPID
  5
94
330
9
100
AcDbSymbolTableRecord
100
AcDbRegAppTableRecord
  2
NEM_ODX
 70
     0
  0
ENDTAB
  0
TABLE
  2
DIMSTYLE
  5
A
330
0
100
AcDbSymbolTable
 70
     1
100
AcDbDimStyleTable
  0
DIMSTYLE
105
27
330
A
100
AcDbSymbolTableRecord
100
AcDbDimStyleTableRecord
  2
Standard
 70
     0
178
     0
340
11
  0
ENDTAB
  0
TABLE
  2
BLOCK_RECORD
  5
1
330
0
100
AcDbSymbolTable
 70
     0
  0
BLOCK_RECORD
  5
1F
102
{ACAD_XDICTIONARY
360
F1
102
}
330
1
100
AcDbSymbolTableRecord
100
AcDbBlockTableRecord
  2
*Model_Space
340
22
 70
     0
280
     1
281
     0
  0
BLOCK_RECORD
  5
6E
330
1
100
AcDbSymbolTableRecord
100
AcDbBlockTableRecord
  2
*Paper_Space
340
6F
 70
     0
280
     1
281
     0
  0
ENDTAB
  0
ENDSEC
  0
SECTION
  2
BLOCKS
  0
BLOCK
  5
20
330
1F
100
AcDbEntity
  8
0
100
AcDbBlockBegin
  2
*Model_Space
 70
     0
 10
0.0
 20
0.0
 30
0.0
  3
*Model_Space
  1

  0
ENDBLK
  5
21
330
1F
100
AcDbEntity
  8
0
100
AcDbBlockEnd
  0
BLOCK
  5
70
330
6E
100
AcDbEntity
 67
     1
  8
0
100
AcDbBlockBegin
  2
*Paper_Space
 70
     0
 10
0.0
 20
0.0
 30
0.0
  3
*Paper_Space
  1

  0
ENDBLK
  5
71
330
6E
100
AcDbEntity
 67
     1
  8
0
100
AcDbBlockEnd
  0
ENDSEC
  0
SECTION
  2
ENTITIES
  0
HATCH
  5
7D
330
1F
100
AcDbEntity
  8
XR$1$TB_1408_1
  6
AUSGEZOGEN
 62
    18
420
        0
440
 33554687
370
    35
100
AcDbHatch
 10
0.0
 20
0.0
 30
0.0
210
0.0
220
0.0
230
1.0
  2
SOLID
 70
     1
 71
     0
 91
       18
 92
        3
 72
     0
 73
     1
 93
       27
 10
3.301810138957316
 20
3.701846930763919
 10
3.305803882418258
 20
3.701846930763919
 10
3.306381008808809
 20
3.701874327144731
 10
3.306911993926419
 20
3.701956876765866
 10
3.307406931174532
 20
3.702085207181253
 10
3.307855727149696
 20
3.702268330358273
 10
3.308267754297983
 20
3.702488222362172
 10
3.308634000652014
 20
3.702762907127693
 10
3.309266280282888
 20
3.703413210693308
 10
3.309513568667603
 20
3.703788829493411
 10
3.309733460671489
 20
3.704200856641694
 10
3.31007231064471
 20
3.70509880907072
 10
3.3102644457891
 20
3.70609697457694
 10
3.310328610996791
 20
3.70716867773691
 10
3.3102644457891
 20
3.70831391855065
 10
3.31007231064471
 20
3.709348852883743
 10
3.309916583848513
 20
3.709816033272348
 10
3.309733460671489
 20
3.710255456801449
 10
3.309513568667603
 20
3.710658832461055
 10
3.309266280282888
 20
3.711025078815083
 10
3.308634000652014
 20
3.711647985999893
 10
3.308267754297983
 20
3.711895274384601
 10
3.307855727149696
 20
3.712105793942423
 10
3.307406931174532
 20
3.712270893184703
 10
3.306911993926419
 20
3.712389851154025
 10
3.305803882418258
 20
3.712490785188602
 10
3.301810138957316
 20
3.712490785188602
 97
        0
 92
        3
 72
     0
 73
     1
 93
       12
 10
3.313516324095907
 20
3.701846930763919
 10
3.321238138219621
 20
3.701846930763919
 10
3.321238138219621
 20
3.703175294754672
 10
3.315119372852179
 20
3.703175294754672
 10
3.315119372852179
 20
3.706637692619306
 10
3.320166435059646
 20
3.706637692619306
 10
3.320166435059646
 20
3.707965696131363
 10
3.315119372852179
 20
3.707965696131363
 10
3.315119372852179
 20
3.711162421197844
 10
3.320972465421469
 20
3.711162421197844
 10
3.320972465421469
 20
3.712490785188602
 10
3.313516324095907
 20
3.712490785188602
 97
        0
 92
        3
 72
     0
 73
     1
 93
       38
 10
3.330809929005634
 20
3.712490785188602
 10
3.330809929005634
 20
3.705575001426701
 10
3.330773160178748
 20
3.704924697861085
 10
3.330663574655503
 20
3.70437496785134
 10
3.330461706586352
 20
3.703907787462733
 10
3.330178009853447
 20
3.703541541108696
 10
3.329811403020725
 20
3.703266856343174
 10
3.329353595078183
 20
3.703065348752721
 10
3.328803865068446
 20
3.702946030304702
 10
3.328153561502825
 20
3.70290962195652
 10
3.327503257937201
 20
3.702946030304702
 10
3.326953527927463
 20
3.703065348752721
 10
3.326495719984919
 20
3.703266856343174
 10
3.326120101184824
 20
3.703541541108696
 10
3.325845416419294
 20
3.703907787462733
 10
3.325643908828842
 20
3.70437496785134
 10
3.325533962826895
 20
3.704924697861085
 10
3.32548818203264
 20
3.705575001426701
 10
3.32548818203264
 20
3.712490785188602
 10
3.324159818041894
 20
3.712490785188602
 10
3.324159818041894
 20
3.705309328628555
 10
3.324233355695661
 20
3.704457517472476
 10
3.324443875253484
 20
3.703715652318348
 10
3.324792097672761
 20
3.703074360720099
 10
3.325259278061369
 20
3.702543015123791
 10
3.325836043973227
 20
3.702130987975512
 10
3.326523116365733
 20
3.701828546350482
 10
3.327292738379375
 20
3.701645423173463
 10
3.328153561502825
 20
3.701581257965767
 10
3.329014745104974
 20
3.701645423173463
 10
3.329784006639907
 20
3.701828546350482
 10
3.330471079032416
 20
3.702130987975512
 10
3.331048205422968
 20
3.702543015123791
 10
3.33151538581158
 20
3.703074360720099
 10
3.331854235784801
 20
3.703715652318348
 10
3.332074127788691
 20
3.704457517472476
 10
3.332147304963756
 20
3.705309328628555
 10
3.332147304963756
 20
3.712490785188602
 97
        0
 92
        3
 72
     0
 73
     1
 93
        8
 10
3.334803672466568
 20
3.712490785188602
 10
3.334803672466568
 20
3.711162421197844
 10
3.33800039753305
 20
3.711162421197844
 10
3.33800039753305
 20
3.701846930763919
 10
3.339328401045105
 20
3.701846930763919
 10
3.339328401045105
 20
3.711162421197844
 10
3.342516114144218
 20
3.711162421197844
 10
3.342516114144218
 20
3.712490785188602
 97
        0
 92
        3
 72
     0
 73
     1
 93
       96
 10
3.345520704066311
 20
3.708927453289394
 10
3.345731223624133
 20
3.708405480139156
 10
3.346061061629981
 20
3.707993092512174
 10
3.346482461224342
 20
3.707654242538958
 10
3.346986049961131
 20
3.707388569740813
 10
3.347554164384316
 20
3.707187062150351
 10
3.348772221894428
 20
3.706866596590573
 10
3.349990639883224
 20
3.706591551346364
 10
3.350558393827711
 20
3.706436185028846
 10
3.351062343043205
 20
3.706234677438391
 10
3.351483382158857
 20
3.705987028574991
 10
3.351813220164705
 20
3.705666563015213
 10
3.352024100201229
 20
3.705272559801668
 10
3.352097277376298
 20
3.704777983032249
 10
3.352042124135968
 20
3.704310802643644
 10
3.351868373405027
 20
3.703926171876174
 10
3.351602700606868
 20
3.703596333870328
 10
3.351263850633662
 20
3.703340033518247
 10
3.350860835452745
 20
3.70314753789516
 10
3.350411678998887
 20
3.703019567958467
 10
3.349935486642905
 20
3.702937018337336
 10
3.349440909873489
 20
3.70290962195652
 10
3.348772221894428
 20
3.702946030304702
 10
3.348186083536496
 20
3.703065348752721
 10
3.34768213432101
 20
3.703266856343174
 10
3.347242710791909
 20
3.703541541108696
 10
3.346885476405251
 20
3.703907787462733
 10
3.346592046747594
 20
3.70437496785134
 10
3.346381527189765
 20
3.704924697861085
 10
3.346244184807
 20
3.705575001426701
 10
3.344915820816251
 20
3.705309328628555
 10
3.345007742883451
 20
3.704384340297405
 10
3.345126700852782
 20
3.70397195267043
 10
3.34528242764898
 20
3.703605706316395
 10
3.345483935239433
 20
3.703266856343174
 10
3.3457128392107
 20
3.702955402750773
 10
3.346280953633885
 20
3.702442441567912
 10
3.346949281134256
 20
3.702057810800445
 10
3.347718903147895
 20
3.701792138002293
 10
3.348552329890531
 20
3.701636411206089
 10
3.349440909873489
 20
3.701581257965767
 10
3.350219543854494
 20
3.701636411206089
 10
3.350961409008632
 20
3.701782765556225
 10
3.351639108955066
 20
3.702048438354372
 10
3.352234619759059
 20
3.702415045187099
 10
3.352729196528474
 20
3.702891237543079
 10
3.353104815328577
 20
3.703486748347073
 10
3.353242157711345
 20
3.703834610287666
 10
3.353343091745908
 20
3.704200856641694
 10
3.353425280888357
 20
3.705043655830403
 10
3.353352103713291
 20
3.705767497049785
 10
3.353141584155462
 20
3.706362647375086
 10
3.352811746149614
 20
3.706839200209766
 10
3.352390346555253
 20
3.707214458531167
 10
3.351886397339774
 20
3.707507527710131
 10
3.351327655362659
 20
3.707736792160087
 10
3.35010058588517
 20
3.70806663016594
 10
3.348882167896372
 20
3.708331942485394
 10
3.348323425919264
 20
3.708487669281594
 10
3.347819476703774
 20
3.708671152937308
 10
3.347389065142047
 20
3.708909068875952
 10
3.347059227136207
 20
3.70921151050098
 10
3.34684870757837
 20
3.709605153235823
 10
3.346775530403308
 20
3.710100090483938
 10
3.346839695611
 20
3.710457324870597
 10
3.347004434374568
 20
3.710750394049561
 10
3.347251722759283
 20
3.710988309988203
 10
3.347572188319059
 20
3.711162421197844
 10
3.347947807119162
 20
3.711281379167171
 10
3.348350822300067
 20
3.711363928788304
 10
3.349175237075337
 20
3.711428093995997
 10
3.34974335149852
 20
3.711400697615185
 10
3.350255952202685
 20
3.71131814799405
 10
3.35071412062392
 20
3.711171433165224
 10
3.351098751391381
 20
3.710960913607387
 10
3.351410204983792
 20
3.710667844428424
 10
3.351639108955066
 20
3.710301598074395
 10
3.351785823783887
 20
3.709843429653159
 10
3.351831604578146
 20
3.709293699643422
 10
3.353425280888357
 20
3.709293699643422
 10
3.353177992503642
 20
3.710136498832127
 10
3.352839142530428
 20
3.710850967605444
 10
3.352408730968694
 20
3.711446478409436
 10
3.351895769785838
 20
3.711922670765418
 10
3.351309631427913
 20
3.712289277598144
 10
3.350659327862289
 20
3.712554589917598
 10
3.349944859088976
 20
3.712701304746422
 10
3.349175237075337
 20
3.712756097508052
 10
3.348479152715466
 20
3.712710316713803
 10
3.347801452769024
 20
3.712554589917598
 10
3.347178545584214
 20
3.712307301532884
 10
3.346610431161031
 20
3.711959439592298
 10
3.346134238805057
 20
3.71151064361713
 10
3.345767992451019
 20
3.710960913607387
 10
3.345529716033688
 20
3.710310610041761
 10
3.345447166412548
 20
3.709559372441569
 97
        0
 92
        3
 72
     0
 73
     1
 93
       78
 10
3.357748862355135
 20
3.708038873306432
 10
3.357931985532147
 20
3.708844903668254
 10
3.358243439124554
 20
3.709568744887642
 10
3.358683223132345
 20
3.71019165207245
 10
3.359241965109463
 20
3.710713625222679
 10
3.359928677023268
 20
3.711098255990148
 10
3.360744079831165
 20
3.711336532407491
 10
3.361678440608375
 20
3.711428093995997
 10
3.362182029345163
 20
3.711391325169114
 10
3.36269499052803
 20
3.711272367199792
 10
3.363198939743516
 20
3.711089244022782
 10
3.363675132099487
 20
3.710823571224622
 10
3.364096531693848
 20
3.710493733218782
 10
3.364444754113137
 20
3.710081706070496
 10
3.364710066432591
 20
3.70959614126845
 10
3.364865793228796
 20
3.709028387323959
 10
3.366203169186912
 20
3.709293699643422
 10
3.365937496388763
 20
3.710136498832127
 10
3.365571250034732
 20
3.710850967605444
 10
3.36509505767875
 20
3.711446478409436
 10
3.364536315701636
 20
3.711922670765418
 10
3.363904036070761
 20
3.712289277598144
 10
3.363207951710882
 20
3.712554589917598
 10
3.362457074589379
 20
3.712701304746422
 10
3.361678440608375
 20
3.712756097508052
 10
3.361046160977504
 20
3.712728701127246
 10
3.360451010652202
 20
3.712646511984804
 10
3.359901280642457
 20
3.712518181569418
 10
3.35938831945959
 20
3.712335058392398
 10
3.358912127103623
 20
3.712105793942423
 10
3.35847234309581
 20
3.711831109176905
 10
3.358078700360976
 20
3.71151064361713
 10
3.357721465974325
 20
3.711162421197844
 10
3.357400639935851
 20
3.710768417984303
 10
3.357125955170325
 20
3.710338006422584
 10
3.356897051199055
 20
3.70988019848004
 10
3.356704555575972
 20
3.709385621710622
 10
3.35643888277783
 20
3.708322930518016
 10
3.356356693635385
 20
3.70716867773691
 10
3.35643888277783
 20
3.7060147854345
 10
3.356704555575972
 20
3.704952094241891
 10
3.356897051199055
 20
3.704457517472476
 10
3.357125955170325
 20
3.703999349051244
 10
3.357400639935851
 20
3.703568937489512
 10
3.357721465974325
 20
3.703175294754672
 10
3.358078700360976
 20
3.702827072335393
 10
3.35847234309581
 20
3.702506606775604
 10
3.358912127103623
 20
3.702231561531393
 10
3.35938831945959
 20
3.70200265756012
 10
3.359901280642457
 20
3.701819534383105
 10
3.360451010652202
 20
3.701691203967719
 10
3.361046160977504
 20
3.701608654346582
 10
3.361678440608375
 20
3.701581257965767
 10
3.362475098524125
 20
3.701654795619526
 10
3.363244720537768
 20
3.701874327144731
 10
3.363986585691898
 20
3.702222549564014
 10
3.364673658084397
 20
3.702708114366058
 10
3.365278180855762
 20
3.703321649104806
 10
3.365791142038629
 20
3.704054502291569
 10
3.366194157219542
 20
3.704887929034201
 10
3.36646884198506
 20
3.705840674224854
 10
3.364865793228796
 20
3.705840674224854
 10
3.364719438878655
 20
3.705180998213162
 10
3.36448116246132
 20
3.704594859855237
 10
3.364160696901544
 20
3.704091271118441
 10
3.363776066134075
 20
3.703678883491468
 10
3.363317897712833
 20
3.703349045485613
 10
3.362814308976041
 20
3.703111129546969
 10
3.362264578966303
 20
3.702964414718152
 10
3.361678440608375
 20
3.70290962195652
 10
3.360744079831165
 20
3.702991811098962
 10
3.359928677023268
 20
3.703239099483673
 10
3.359241965109463
 20
3.703624090729836
 10
3.358683223132345
 20
3.704146063880069
 10
3.358243439124554
 20
3.704768971064883
 10
3.357931985532147
 20
3.705492451805571
 10
3.357748862355135
 20
3.706298482167389
 10
3.35768469714744
 20
3.70716867773691
 97
        0
 92
        3
 72
     0
 73
     1
 93
       12
 10
3.36965655508418
 20
3.701846930763919
 10
3.370984558596239
 20
3.701846930763919
 10
3.370984558596239
 20
3.706637692619306
 10
3.376571978367377
 20
3.706637692619306
 10
3.376571978367377
 20
3.701846930763919
 10
3.378175027123655
 20
3.701846930763919
 10
3.378175027123655
 20
3.712490785188602
 10
3.376571978367377
 20
3.712490785188602
 10
3.376571978367377
 20
3.707965696131363
 10
3.370984558596239
 20
3.707965696131363
 10
3.370984558596239
 20
3.712490785188602
 10
3.36965655508418
 20
3.712490785188602
 97
        0
 92
        3
 72
     0
 73
     1
 93
       12
 10
3.381628413020916
 20
3.701846930763919
 10
3.389084193867787
 20
3.701846930763919
 10
3.389084193867787
 20
3.703175294754672
 10
3.382965788979028
 20
3.703175294754672
 10
3.382965788979028
 20
3.706637692619306
 10
3.388278163505957
 20
3.706637692619306
 10
3.388278163505957
 20
3.707965696131363
 10
3.382965788979028
 20
3.707965696131363
 10
3.382965788979028
 20
3.711162421197844
 10
3.389084193867787
 20
3.711162421197844
 10
3.389084193867787
 20
3.712490785188602
 10
3.381628413020916
 20
3.712490785188602
 97
        0
 92
        3
 72
     0
 73
     1
 93
       90
 10
3.304338176044744
 20
3.694280843436402
 10
3.304036094898397
 20
3.694574273094058
 10
3.303962557244641
 20
3.694739011857633
 10
3.303944533309891
 20
3.694931507480717
 10
3.303990314104146
 20
3.695206192246244
 10
3.304118284040847
 20
3.695435096217512
 10
3.304301767696549
 20
3.695618219394524
 10
3.304539683635193
 20
3.69576493422336
 10
3.305062017264124
 20
3.695939045432993
 10
3.305538209620098
 20
3.695993838194632
 10
3.306325855568483
 20
3.695902276606126
 10
3.306710486335959
 20
3.695783318636792
 10
3.307067720722621
 20
3.695627591840597
 10
3.307709012320861
 20
3.695206192246244
 10
3.308194577122907
 20
3.69466583468257
 10
3.310328610996791
 20
3.695993838194632
 10
3.309815649813935
 20
3.696470030550605
 10
3.309284664696329
 20
3.69689143014496
 10
3.308734934686588
 20
3.697248664531611
 10
3.308167180742104
 20
3.697560118124022
 10
3.307580681905473
 20
3.697798394541358
 10
3.306994543547552
 20
3.697981517718374
 10
3.30639903274356
 20
3.698082451752953
 10
3.305803882418258
 20
3.698118860101137
 10
3.304933686848744
 20
3.698073079306878
 10
3.304127656486914
 20
3.697917352510674
 10
3.30340381526753
 20
3.697661052158594
 10
3.302780908082713
 20
3.69729444532587
 10
3.302258934932491
 20
3.696809241002518
 10
3.301874304165019
 20
3.696213730198519
 10
3.301736961782258
 20
3.695874880225307
 10
3.301627015780304
 20
3.695499261425208
 10
3.301544466159178
 20
3.69466583468257
 10
3.301599619399493
 20
3.694088708292007
 10
3.301755346195695
 20
3.693566374663087
 10
3.30200263458041
 20
3.693099554753173
 10
3.302341484553613
 20
3.692687167126196
 10
3.302762884147974
 20
3.692339305185604
 10
3.303266472884762
 20
3.692064259941388
 10
3.303852611242694
 20
3.691853740383553
 10
3.304493902840938
 20
3.691716398000794
 10
3.306628297193517
 20
3.691276613993005
 10
3.307095477582122
 20
3.691166667991054
 10
3.307415943141902
 20
3.690992556781413
 10
3.307608438764985
 20
3.690754640842766
 10
3.307663231526613
 20
3.690406418423483
 10
3.307617450732355
 20
3.690122361211894
 10
3.307489120316975
 20
3.689866060859811
 10
3.307287612726507
 20
3.689637156888546
 10
3.307031312374426
 20
3.689444661265454
 10
3.306747255162837
 20
3.68928893446925
 10
3.306426789603061
 20
3.689169976499937
 10
3.305803882418258
 20
3.689078414911422
 10
3.304896918021851
 20
3.689169976499937
 10
3.304503275287013
 20
3.68928893446925
 10
3.304136668454284
 20
3.689444661265454
 10
3.30348636488867
 20
3.689866060859811
 10
3.302872830149921
 20
3.690406418423483
 10
3.300747447764719
 20
3.689343727230882
 10
3.301333946601338
 20
3.688794357699837
 10
3.301911072991886
 20
3.688336189278605
 10
3.302469814969008
 20
3.687969942924568
 10
3.303046580880861
 20
3.6876768737456
 10
3.303623707271421
 20
3.68746599370908
 10
3.30422823004279
 20
3.687319639358948
 10
3.304860509673667
 20
3.687237089737815
 10
3.305538209620098
 20
3.687209693356999
 10
3.306280074774239
 20
3.687246462183879
 10
3.307067720722621
 20
3.687347035739762
 10
3.307873751084436
 20
3.68754854333022
 10
3.308634000652014
 20
3.687878381336062
 10
3.308982223071299
 20
3.688098273339961
 10
3.309302688631075
 20
3.688354573692042
 10
3.309586745842665
 20
3.688657015317074
 10
3.309843406673444
 20
3.689014249703727
 10
3.310044914263897
 20
3.689407892438576
 10
3.310200641060094
 20
3.689866060859811
 10
3.310292202648611
 20
3.690369649596603
 10
3.310328610996791
 20
3.690937764019784
 10
3.310292202648611
 20
3.691368175581509
 10
3.31019126861403
 20
3.691752806348986
 10
3.310035541817821
 20
3.69208264435483
 10
3.309834034227372
 20
3.692375713533786
 10
3.309577733875284
 20
3.692632374364568
 10
3.309293676663702
 20
3.692851905889769
 10
3.308615976717268
 20
3.693200128309056
 10
3.307855727149696
 20
3.693438404726394
 10
3.307049696787864
 20
3.69361251593604
 10
3.305538209620098
 20
3.693868816288121
 10
3.30484212526023
 20
3.694051939465133
 97
        0
 92
        3
 72
     0
 73
     1
 93
        8
 10
3.316713049162386
 20
3.695728165396476
 10
3.319369416665194
 20
3.695728165396476
 10
3.319369416665194
 20
3.697853187302988
 10
3.3113913021894
 20
3.697853187302988
 10
3.3113913021894
 20
3.695728165396476
 10
3.314047669692201
 20
3.695728165396476
 10
3.314047669692201
 20
3.687484378122523
 10
3.316713049162386
 20
3.687484378122523
 97
        0
 92
        3
 72
     0
 73
     1
 93
       12
 10
3.321238138219621
 20
3.687484378122523
 10
3.329216252695423
 20
3.687484378122523
 10
3.329216252695423
 20
3.689343727230882
 10
3.323628832924284
 20
3.689343727230882
 10
3.323628832924284
 20
3.691734421935545
 10
3.328419234300974
 20
3.691734421935545
 10
3.328419234300974
 20
3.693868816288121
 10
3.323628832924284
 20
3.693868816288121
 10
3.323628832924284
 20
3.695728165396476
 10
3.328684907099126
 20
3.695728165396476
 10
3.328684907099126
 20
3.697853187302988
 10
3.321238138219621
 20
3.697853187302988
 97
        0
 92
        3
 72
     0
 73
     1
 93
        4
 10
3.331075601803782
 20
3.687484378122523
 10
3.333740981273964
 20
3.687484378122523
 10
3.333740981273964
 20
3.697853187302988
 10
3.331075601803782
 20
3.697853187302988
 97
        0
 92
        3
 72
     0
 73
     1
 93
       10
 10
3.338531743129354
 20
3.687484378122523
 10
3.338531743129354
 20
3.693868816288121
 10
3.342250441346066
 20
3.687484378122523
 10
3.344915820816251
 20
3.687484378122523
 10
3.344915820816251
 20
3.697853187302988
 10
3.342516114144218
 20
3.697853187302988
 10
3.342516114144218
 20
3.69120343681793
 10
3.338797415927506
 20
3.697853187302988
 10
3.336131675978627
 20
3.697853187302988
 10
3.336131675978627
 20
3.687484378122523
 97
        0
 92
        3
 72
     0
 73
     1
 93
       10
 10
3.355825348039084
 20
3.695728165396476
 10
3.355825348039084
 20
3.697853187302988
 10
3.347306515520914
 20
3.697853187302988
 10
3.347306515520914
 20
3.695728165396476
 10
3.352628622972595
 20
3.695728165396476
 10
3.347041203201453
 20
3.689343727230882
 10
3.347041203201453
 20
3.687484378122523
 10
3.355825348039084
 20
3.687484378122523
 10
3.355825348039084
 20
3.689343727230882
 10
3.350237928267931
 20
3.689343727230882
 97
        0
 92
        3
 72
     0
 73
     1
 93
       12
 10
3.357950369945588
 20
3.687484378122523
 10
3.365937496388763
 20
3.687484378122523
 10
3.365937496388763
 20
3.689343727230882
 10
3.360615749415777
 20
3.689343727230882
 10
3.360615749415777
 20
3.691734421935545
 10
3.365131466026937
 20
3.691734421935545
 10
3.365131466026937
 20
3.693868816288121
 10
3.360615749415777
 20
3.693868816288121
 10
3.360615749415777
 20
3.695728165396476
 10
3.365662811623241
 20
3.695728165396476
 10
3.365662811623241
 20
3.697853187302988
 10
3.357950369945588
 20
3.697853187302988
 97
        0
 92
        3
 72
     0
 73
     1
 93
       42
 10
3.370453573478633
 20
3.697853187302988
 10
3.367797205975824
 20
3.697853187302988
 10
3.367797205975824
 20
3.690937764019784
 10
3.367824602356627
 20
3.690461211185113
 10
3.36790715197776
 20
3.690012415209945
 10
3.368035121914461
 20
3.689609400029031
 10
3.368200221156726
 20
3.689234141707626
 10
3.368667401545331
 20
3.688592850109379
 10
3.36926255187064
 20
3.688079888926521
 10
3.369949624263146
 20
3.68769525815905
 10
3.370709873830713
 20
3.687420212914827
 10
3.371515904192532
 20
3.687264486118631
 10
3.372321934554358
 20
3.687209693356999
 10
3.373036403327666
 20
3.687264486118631
 10
3.373769256514434
 20
3.687420212914827
 10
3.37448372528775
 20
3.68769525815905
 10
3.375143040820737
 20
3.688079888926521
 10
3.375720167211303
 20
3.688592850109379
 10
3.376168963186464
 20
3.689234141707626
 10
3.37634307439611
 20
3.689609400029031
 10
3.37647140481149
 20
3.690012415209945
 10
3.37654458198657
 20
3.690461211185113
 10
3.376571978367377
 20
3.690937764019784
 10
3.376571978367377
 20
3.697853187302988
 10
3.374181283662713
 20
3.697853187302988
 10
3.374181283662713
 20
3.69120343681793
 10
3.374153887281903
 20
3.690809433604396
 10
3.374080710106834
 20
3.69042480283692
 10
3.373943367724073
 20
3.69006756845027
 10
3.373750872100993
 20
3.689737730444425
 10
3.373494571748906
 20
3.689472057646273
 10
3.373173745710435
 20
3.68926153808844
 10
3.372780102975593
 20
3.689124195705683
 10
3.372321934554358
 20
3.689078414911422
 10
3.371854754165749
 20
3.689124195705683
 10
3.371470123398284
 20
3.68926153808844
 10
3.371149657838501
 20
3.689472057646273
 10
3.370892997007725
 20
3.689737730444425
 10
3.370691489417272
 20
3.69006756845027
 10
3.370563159001878
 20
3.69042480283692
 10
3.370480969859436
 20
3.690809433604396
 10
3.370453573478633
 20
3.69120343681793
 97
        0
 92
        3
 72
     0
 73
     1
 93
       75
 10
3.378779549895021
 20
3.691386559994951
 10
3.378999441898918
 20
3.690360637629232
 10
3.379173553108557
 20
3.68988444527325
 10
3.379375060699013
 20
3.689444661265454
 10
3.379622349083728
 20
3.689041646084546
 10
3.379906406295314
 20
3.688675399730515
 10
3.380575094274382
 20
3.688052492545709
 10
3.380968737009225
 20
3.687805204160999
 10
3.381399148570951
 20
3.687594324124473
 10
3.381866328959549
 20
3.687429585360898
 10
3.382370278175043
 20
3.687310266912879
 10
3.383496774096638
 20
3.687209693356999
 10
3.384440507319919
 20
3.687264486118631
 10
3.385255549649114
 20
3.687447969774341
 10
3.385612784035783
 20
3.687594324124473
 10
3.385924237628183
 20
3.687777447301494
 10
3.386198922393708
 20
3.68800671175145
 10
3.386418814397609
 20
3.688281396516975
 10
3.386418814397609
 20
3.687484378122523
 10
3.388553208750177
 20
3.687484378122523
 10
3.388553208750177
 20
3.693071797893668
 10
3.384028119692946
 20
3.693071797893668
 10
3.384028119692946
 20
3.69120343681793
 10
3.38615314159945
 20
3.69120343681793
 10
3.386098348837825
 20
3.690745268396699
 10
3.385933249595556
 20
3.690351625661859
 10
3.385695333656905
 20
3.690030799623388
 10
3.385392892031886
 20
3.6897744992713
 10
3.385054042058665
 20
3.689582003648224
 10
3.384696807672014
 20
3.689444661265454
 10
3.384028119692946
 20
3.689343727230882
 10
3.383377816127318
 20
3.689398880471205
 10
3.382828086117576
 20
3.689582003648224
 10
3.382361266207673
 20
3.689866060859811
 10
3.381994659374947
 20
3.690241679659906
 10
3.381719974609422
 20
3.690708860048517
 10
3.381518467018958
 20
3.691249217612187
 10
3.381399148570951
 20
3.691862752350933
 10
3.38136274022276
 20
3.692531440329989
 10
3.381417532984389
 20
3.693374239518698
 10
3.381554875367149
 20
3.694088708292007
 10
3.381784139817125
 20
3.694683858617313
 10
3.382095593409517
 20
3.695160411451992
 10
3.38248022417699
 20
3.695526657806018
 10
3.382938032119527
 20
3.69579233060417
 10
3.383450993302383
 20
3.695948057400372
 10
3.384028119692946
 20
3.695993838194632
 10
3.384769984847072
 20
3.695902276606126
 10
3.385109195298991
 20
3.695783318636792
 10
3.385420288412696
 20
3.695627591840597
 10
3.385970018422434
 20
3.695206192246244
 10
3.386418814397609
 20
3.69466583468257
 10
3.388553208750177
 20
3.695462492598324
 10
3.388122436709763
 20
3.696112796163947
 10
3.387646244353778
 20
3.696662526173692
 10
3.387124271203545
 20
3.697120694594923
 10
3.386556156780359
 20
3.697486940948953
 10
3.385933249595556
 20
3.697770998160538
 10
3.385255549649114
 20
3.697972505750999
 10
3.384532068908439
 20
3.698082451752953
 10
3.383762446894797
 20
3.698118860101137
 10
3.38313052774261
 20
3.698091463720321
 10
3.382553401352055
 20
3.698008914099181
 10
3.382013043788385
 20
3.697880944162493
 10
3.381509094572894
 20
3.697697460506788
 10
3.381051286630353
 20
3.69746855653551
 10
3.380638899003376
 20
3.697193871769992
 10
3.380263640681979
 20
3.69688241817758
 10
3.379933802676139
 20
3.696525183790929
 10
3.379640733497165
 20
3.696131180577389
 10
3.379393445112451
 20
3.695709780983039
 10
3.37918256507593
 20
3.695242961073121
 10
3.379008453866288
 20
3.694757396271076
 10
3.378779549895021
 20
3.693694705078475
 10
3.378706372719952
 20
3.692531440329989
 97
        0
 92
       18
 72
     0
 73
     1
 93
       19
 10
3.305538209620098
 20
3.711162421197844
 10
3.306371636362738
 20
3.711089244022782
 10
3.307086105136058
 20
3.710869352018881
 10
3.307681615940058
 20
3.710530502045664
 10
3.308167180742104
 20
3.710063321657055
 10
3.308533427096135
 20
3.709486195266507
 10
3.308789727448208
 20
3.708799122873998
 10
3.308945454244414
 20
3.708029861339061
 10
3.308991235038672
 20
3.70716867773691
 10
3.308945454244414
 20
3.706307854613466
 10
3.308789727448208
 20
3.705538232599816
 10
3.308533427096135
 20
3.704851520686009
 10
3.308167180742104
 20
3.704274394295461
 10
3.307681615940058
 20
3.703807213906854
 10
3.307086105136058
 20
3.703468363933634
 10
3.306371636362738
 20
3.703248471929741
 10
3.305538209620098
 20
3.703175294754672
 10
3.303138142469382
 20
3.703175294754672
 10
3.303138142469382
 20
3.711162421197844
 97
        0
 75
     0
 76
     1
 98
        0
  0
HATCH
  5
7E
330
1F
100
AcDbEntity
  8
XR$1$TB_1408_1
  6
AUSGEZOGEN
 62
    18
420
        0
440
 33554687
370
    35
100
AcDbHatch
 10
0.0
 20
0.0
 30
0.0
210
0.0
220
0.0
230
1.0
  2
SOLID
 70
     1
 71
     0
 91
       20
 92
        3
 72
     0
 73
     1
 93
        8
 10
3.434846603708225
 20
3.712225112390445
 10
3.424999767677992
 20
3.687484378122523
 10
3.427390462382649
 20
3.687484378122523
 10
3.430321514650986
 20
3.694931507480717
 10
3.441231041873815
 20
3.694931507480717
 10
3.443887409376623
 20
3.687484378122523
 10
3.446552788846809
 20
3.687484378122523
 10
3.436971625614729
 20
3.712225112390445
 97
        0
 92
        3
 72
     0
 73
     1
 93
      116
 10
3.449474829147773
 20
3.699721908857415
 10
3.449511237495956
 20
3.700674654048065
 10
3.449602799084466
 20
3.701636411206089
 10
3.449758525880664
 20
3.702607180331494
 10
3.449987790330625
 20
3.703559925522146
 10
3.450280859509591
 20
3.70448491385329
 10
3.45063809389625
 20
3.70539187824969
 10
3.451068505457976
 20
3.706252701373143
 10
3.45157245467347
 20
3.707068104181033
 10
3.45214922058532
 20
3.707818981302527
 10
3.452790512183571
 20
3.708506053695033
 10
3.45350498095688
 20
3.709119948912468
 10
3.454301999351344
 20
3.709632910095328
 10
3.455172194920861
 20
3.710053949210987
 10
3.456124579632821
 20
3.710365402803393
 10
3.457150501998537
 20
3.710557898426476
 10
3.458258973985397
 20
3.710631075601545
 10
3.459577965530075
 20
3.710548886459103
 10
3.460759614691999
 20
3.710319622009136
 10
3.461299972255677
 20
3.710145871278195
 10
3.461803560992473
 20
3.709925979274294
 10
3.46227074138107
 20
3.709669318443519
 10
3.462710525388869
 20
3.709367237297183
 10
3.463498171337257
 20
3.708625372143053
 10
3.464166859316308
 20
3.707709395779282
 10
3.464725601293429
 20
3.706600923792428
 10
3.465174397268594
 20
3.705309328628555
 10
3.46756509197325
 20
3.706637692619306
 10
3.466823226819127
 20
3.708048245752499
 10
3.46596240369567
 20
3.709275675708674
 10
3.465000646537646
 20
3.710328994455211
 10
3.464469300941341
 20
3.710786802397748
 10
3.463910558964223
 20
3.711189817578665
 10
3.463324420606309
 20
3.711556424411387
 10
3.462701513421488
 20
3.711867878003783
 10
3.4620418374098
 20
3.712142562769315
 10
3.461354765017298
 20
3.712362454773209
 10
3.459880046676414
 20
3.712655523952171
 10
3.458258973985397
 20
3.712756097508052
 10
3.456857432819571
 20
3.712682920332985
 10
3.455565837655703
 20
3.712472400775159
 10
3.454356792112964
 20
3.712124178355872
 10
3.453257692572183
 20
3.711656997967266
 10
3.452250154619901
 20
3.711070859609336
 10
3.451334178256125
 20
3.710383787216835
 10
3.450509763480865
 20
3.709605153235823
 10
3.449776910294105
 20
3.708734957666306
 10
3.44913561869585
 20
3.707782572954346
 10
3.44858624916481
 20
3.706765662555996
 10
3.448119068776202
 20
3.705693959396023
 10
3.447743449976107
 20
3.704558091028359
 10
3.447450380797151
 20
3.703394826279875
 10
3.447248873206684
 20
3.702185780737133
 10
3.447120542791304
 20
3.700958350780957
 10
3.447084134443109
 20
3.699721908857415
 10
3.447120542791304
 20
3.698384532899289
 10
3.447248873206684
 20
3.69709293773542
 10
3.447450380797151
 20
3.695847483844491
 10
3.447734438008726
 20
3.694647450269129
 10
3.448100684362757
 20
3.693511581901459
 10
3.448558852783997
 20
3.692439878741483
 10
3.449089837901596
 20
3.691432340789208
 10
3.449712745086413
 20
3.690507352458057
 10
3.450408829446288
 20
3.689664553269349
 10
3.45119683587336
 20
3.688913315669155
 10
3.452076043410255
 20
3.688263012103531
 10
3.453028788600906
 20
3.687704270126424
 10
3.454072734901371
 20
3.687273858564693
 10
3.455208603269045
 20
3.686944020558853
 10
3.45641764881178
 20
3.686751524935767
 10
3.4577276283891
 20
3.6866783477607
 10
3.458826727929885
 20
3.686742512968396
 10
3.459935199916737
 20
3.686935008591476
 10
3.461015915044084
 20
3.687255474151256
 10
3.462051209855868
 20
3.687713282093786
 10
3.463003594567827
 20
3.688308792897786
 10
3.463864778169979
 20
3.689041646084546
 10
3.464597631356736
 20
3.689911841654057
 10
3.464899712503076
 20
3.690406418423483
 10
3.465174397268594
 20
3.690937764019784
 10
3.465174397268594
 20
3.687484378122523
 10
3.467299419175109
 20
3.687484378122523
 10
3.467299419175109
 20
3.700253254453712
 10
3.456124579632821
 20
3.700253254453712
 10
3.456124579632821
 20
3.698118860101137
 10
3.465174397268594
 20
3.698118860101137
 10
3.465174397268594
 20
3.696790856589081
 10
3.465073823712714
 20
3.695453480630951
 10
3.464762370120308
 20
3.694088708292007
 10
3.464515081735596
 20
3.693411008345578
 10
3.464222012556637
 20
3.692751332333888
 10
3.463864778169979
 20
3.692110040735641
 10
3.463443378575626
 20
3.691505517964275
 10
3.46296718621964
 20
3.690937764019784
 10
3.462417456209906
 20
3.69042480283692
 10
3.461812933438533
 20
3.689966634415689
 10
3.461135233492102
 20
3.689572991680847
 10
3.460393007859274
 20
3.689252165642376
 10
3.459568593084007
 20
3.689014249703727
 10
3.458689385547116
 20
3.688858522907531
 10
3.4577276283891
 20
3.688812742113276
 10
3.456664937196495
 20
3.688876907320968
 10
3.455694168071094
 20
3.689069042465359
 10
3.454787203674684
 20
3.689380496057764
 10
3.453963149378123
 20
3.689801895652112
 10
3.453220923745306
 20
3.69032386880235
 10
3.452543223798856
 20
3.69092839157372
 10
3.451938701027498
 20
3.691615463966218
 10
3.451407355431197
 20
3.692366701566414
 10
3.450940175042589
 20
3.693181743895615
 10
3.450546532307743
 20
3.694042927497764
 10
3.450207321855824
 20
3.69494953141547
 10
3.44994200953637
 20
3.695883892192682
 10
3.449740501945925
 20
3.696836637383325
 10
3.449593787117093
 20
3.697798394541358
 10
3.449502225528576
 20
3.698760151699384
 97
        0
 92
        3
 72
     0
 73
     1
 93
       37
 10
3.470761817039735
 20
3.687484378122523
 10
3.473152511744399
 20
3.687484378122523
 10
3.473152511744399
 20
3.698384532899289
 10
3.478740291994235
 20
3.698384532899289
 10
3.486727418437403
 20
3.687484378122523
 10
3.489649458738374
 20
3.687484378122523
 10
3.481671344262569
 20
3.698384532899289
 10
3.48327439301884
 20
3.698586040489743
 10
3.484016258172974
 20
3.698760151699384
 10
3.484702970086782
 20
3.698980043703281
 10
3.485344261685029
 20
3.699254728468806
 10
3.485930400042965
 20
3.699575194028583
 10
3.486471118085329
 20
3.699941800861307
 10
3.486956322408673
 20
3.700353828009591
 10
3.487396106416468
 20
3.700811996430824
 10
3.48777172521657
 20
3.701315585167618
 10
3.488101563222418
 20
3.701865315177362
 10
3.488366875541872
 20
3.702469837948729
 10
3.488577755578393
 20
3.703111129546969
 10
3.488733482374594
 20
3.703797841460786
 10
3.4888250439631
 20
3.704530694647543
 10
3.488852440343911
 20
3.705309328628555
 10
3.488751866788031
 20
3.706600923792428
 10
3.488440413195632
 20
3.707846738162041
 10
3.488202136778297
 20
3.708441888487347
 10
3.487918079566701
 20
3.709019014877895
 10
3.487560845180046
 20
3.709559372441569
 10
3.487157829999137
 20
3.710063321657055
 10
3.486690649610532
 20
3.710530502045664
 10
3.486168676460292
 20
3.71094252919395
 10
3.485573165656299
 20
3.71131814799405
 10
3.484922862090675
 20
3.71162960158645
 10
3.484208393317359
 20
3.711885901938536
 10
3.483429759336351
 20
3.712069385594245
 10
3.482587320626345
 20
3.712188343563563
 10
3.481671344262569
 20
3.712225112390445
 10
3.470761817039735
 20
3.712225112390445
 97
        0
 92
        3
 72
     0
 73
     1
 93
       64
 10
3.490611215896398
 20
3.697248664531611
 10
3.49082173545422
 20
3.696048991434949
 10
3.491105792665821
 20
3.694876354240396
 10
3.491481411465908
 20
3.693749858318799
 10
3.49193921940845
 20
3.692668782712754
 10
3.492479937450821
 20
3.691652232793098
 10
3.493111856602997
 20
3.690708860048517
 10
3.493826325376317
 20
3.689838664478999
 10
3.494632355738143
 20
3.689050658051918
 10
3.495529947688471
 20
3.68836394613811
 10
3.496510089259943
 20
3.687786819747557
 10
3.497590804387298
 20
3.687319639358948
 10
3.498754069135771
 20
3.686971416939667
 10
3.500009255951455
 20
3.686751524935767
 10
3.501345910952193
 20
3.6866783477607
 10
3.502655890529502
 20
3.686751524935767
 10
3.503874308518304
 20
3.686971416939667
 10
3.50500080443991
 20
3.687319639358948
 10
3.506045111219067
 20
3.687786819747557
 10
3.506997495931034
 20
3.68836394613811
 10
3.507877063946612
 20
3.689050658051918
 10
3.508664709895001
 20
3.689838664478999
 10
3.509360794254876
 20
3.690708860048517
 10
3.509983701439675
 20
3.691652232793098
 10
3.510515047035987
 20
3.692668782712754
 10
3.510972854978524
 20
3.693749858318799
 10
3.51133946181125
 20
3.694876354240396
 10
3.511623158544145
 20
3.696048991434949
 10
3.511834038580665
 20
3.697248664531611
 10
3.511952996549985
 20
3.698476094487787
 10
3.511989765376867
 20
3.699721908857415
 10
3.511952996549985
 20
3.700958350780957
 10
3.511834038580665
 20
3.702185780737133
 10
3.511623158544145
 20
3.703394826279875
 10
3.51133946181125
 20
3.704558091028359
 10
3.510972854978524
 20
3.705693959396023
 10
3.510515047035987
 20
3.706765662555996
 10
3.509983701439675
 20
3.707782572954346
 10
3.509360794254876
 20
3.708734957666306
 10
3.508664709895001
 20
3.709605153235823
 10
3.507877063946612
 20
3.710383787216835
 10
3.506997495931034
 20
3.711070859609336
 10
3.506045111219067
 20
3.711656997967266
 10
3.50500080443991
 20
3.712124178355872
 10
3.503874308518304
 20
3.712472400775159
 10
3.502655890529502
 20
3.712682920332985
 10
3.501345910952193
 20
3.712756097508052
 10
3.500009255951455
 20
3.712682920332985
 10
3.498754069135771
 20
3.712472400775159
 10
3.497590804387298
 20
3.712124178355872
 10
3.496510089259943
 20
3.711656997967266
 10
3.495529947688471
 20
3.711070859609336
 10
3.494632355738143
 20
3.710383787216835
 10
3.493826325376317
 20
3.709605153235823
 10
3.493111856602997
 20
3.708734957666306
 10
3.492479937450821
 20
3.707782572954346
 10
3.49193921940845
 20
3.706765662555996
 10
3.491481411465908
 20
3.705693959396023
 10
3.491105792665821
 20
3.704558091028359
 10
3.49082173545422
 20
3.703394826279875
 10
3.490611215896398
 20
3.702185780737133
 10
3.490492257927074
 20
3.700958350780957
 10
3.490455489100189
 20
3.699721908857415
 10
3.490492257927074
 20
3.698476094487787
 97
        0
 92
        3
 72
     0
 73
     1
 93
       57
 10
3.525829984389336
 20
3.687484378122523
 10
3.526837522341614
 20
3.687521146949404
 10
3.527771883118828
 20
3.687621720505283
 10
3.528642078688349
 20
3.68779583171493
 10
3.529430085115436
 20
3.688034108132268
 10
3.530153565856114
 20
3.68832717731123
 10
3.530812881389116
 20
3.688675399730515
 10
3.531399380225731
 20
3.689069042465359
 10
3.531912341408598
 20
3.689508826473149
 10
3.532370149351135
 20
3.689994391275197
 10
3.532754780118611
 20
3.690507352458057
 10
3.533084618124452
 20
3.691056721989107
 10
3.533350290922607
 20
3.691633848379657
 10
3.533551798513057
 20
3.692229359183655
 10
3.533698513341885
 20
3.692851905889769
 10
3.53378070248432
 20
3.693484185520644
 10
3.533808098865145
 20
3.694134489086266
 10
3.533734921690072
 20
3.695389315423259
 10
3.533506017718802
 20
3.69655258017174
 10
3.533322894541793
 20
3.697102310181486
 10
3.533112014505258
 20
3.697615271364346
 10
3.53284634170711
 20
3.698100475687692
 10
3.532544260560778
 20
3.698558644108927
 10
3.532196038141497
 20
3.698970671257212
 10
3.531811407374025
 20
3.699355662503376
 10
3.531371623366226
 20
3.69970352444397
 10
3.530895431010248
 20
3.700005966069004
 10
3.53036408541394
 20
3.700271638867149
 10
3.529786959023389
 20
3.700482158424986
 10
3.52916441231728
 20
3.700656269634619
 10
3.528486351892144
 20
3.700784600050016
 10
3.529603835846373
 20
3.701040900402097
 10
3.530089400648419
 20
3.701224023579114
 10
3.530538196623586
 20
3.70143490361564
 10
3.531325842571968
 20
3.701938492352425
 10
3.531948749756782
 20
3.702579783950678
 10
3.53242530259145
 20
3.703340033518247
 10
3.53260842576847
 20
3.703770445079974
 10
3.532754780118611
 20
3.704228613501202
 10
3.532947275741694
 20
3.705236151453486
 10
3.533011440949386
 20
3.706372019821156
 10
3.532965660155131
 20
3.707003938973336
 10
3.532782536978119
 20
3.707846738162041
 10
3.53262681018191
 20
3.70831391855065
 10
3.53240691817801
 20
3.708808495320072
 10
3.532131872933801
 20
3.709303072089486
 10
3.5317840109932
 20
3.70979764885891
 10
3.53135359943148
 20
3.710273841214888
 10
3.53084063824862
 20
3.710722637190056
 10
3.530236115477258
 20
3.711135024817033
 10
3.529530658671308
 20
3.711492259203691
 10
3.528715616342116
 20
3.71179434035003
 10
3.527790267532272
 20
3.712023604799995
 10
3.526745960753108
 20
3.712169959150122
 10
3.525564311591191
 20
3.712225112390445
 10
3.514920817645204
 20
3.712225112390445
 10
3.514920817645204
 20
3.687484378122523
 97
        0
 92
        3
 72
     0
 73
     1
 93
       56
 10
3.54179558578701
 20
3.687484378122523
 10
3.55297042532929
 20
3.687484378122523
 10
3.555232789618566
 20
3.687566927743657
 10
3.556268084430361
 20
3.687685885712983
 10
3.557238853555743
 20
3.687850984955249
 10
3.558136445506082
 20
3.688070516480451
 10
3.558970232727416
 20
3.688336189278605
 10
3.559730482294984
 20
3.688657015317074
 10
3.560417554687486
 20
3.689041646084546
 10
3.561031089426232
 20
3.689481430092337
 10
3.561562435022533
 20
3.689985018829133
 10
3.56202024296507
 20
3.690553133252315
 10
3.562395861765169
 20
3.691185052404498
 10
3.562688930944131
 20
3.691881136764372
 10
3.562899810980662
 20
3.692650398299316
 10
3.56303715336342
 20
3.693484185520644
 10
3.5630735617116
 20
3.694400161884421
 10
3.563046165330789
 20
3.695068849863481
 10
3.562954603742283
 20
3.695700769015666
 10
3.562808249392142
 20
3.696277895406214
 10
3.562606741801697
 20
3.696809241002518
 10
3.562359092938291
 20
3.69729444532587
 10
3.562066023759321
 20
3.697734229333659
 10
3.561727173786108
 20
3.6981282325472
 10
3.561351554986005
 20
3.698485466933862
 10
3.560930155391651
 20
3.698805932493633
 10
3.560481359416495
 20
3.699080617259164
 10
3.55999615509314
 20
3.699318893676496
 10
3.559483193910276
 20
3.699520401266955
 10
3.558393106336861
 20
3.699822842891981
 10
3.557220469142306
 20
3.699987581655563
 10
3.557220469142306
 20
3.700253254453712
 10
3.558356337509979
 20
3.700592104426929
 10
3.559363875462262
 20
3.701013504021277
 10
3.560225059064406
 20
3.70152646520414
 10
3.560948539805088
 20
3.702149372388951
 10
3.561516654228274
 20
3.702881865097015
 10
3.561745558199545
 20
3.703284880277923
 10
3.561938053822628
 20
3.703734036731783
 10
3.562194354174716
 20
3.70471381782456
 10
3.562276903795849
 20
3.705840674224854
 10
3.562240134968974
 20
3.706655716554051
 10
3.562121176999647
 20
3.707406954154247
 10
3.561928681376564
 20
3.708103038514126
 10
3.561663008578412
 20
3.708744330112373
 10
3.561333531051262
 20
3.709321456502927
 10
3.560930155391651
 20
3.709843429653159
 10
3.560472347449114
 20
3.710310610041761
 10
3.559950374298888
 20
3.710722637190056
 10
3.559373247908326
 20
3.711089244022782
 10
3.558741328756149
 20
3.711400697615185
 10
3.558063268331013
 20
3.711656997967266
 10
3.557339787590331
 20
3.71185850555772
 10
3.55576413521487
 20
3.71213355080194
 10
3.554033116521891
 20
3.712225112390445
 10
3.54179558578701
 20
3.712225112390445
 97
        0
 92
        3
 72
     0
 73
     1
 93
       58
 10
3.567332977970687
 20
3.695993838194632
 10
3.567397143178382
 20
3.694793804619259
 10
3.567580266355401
 20
3.693685693111102
 10
3.567882707980428
 20
3.692668782712754
 10
3.568285723161348
 20
3.691734421935545
 10
3.568780299930763
 20
3.690882610779465
 10
3.569357426321319
 20
3.690122361211894
 10
3.570007729886943
 20
3.689444661265454
 10
3.570722198660255
 20
3.688840138494093
 10
3.571500832641267
 20
3.688318165343853
 10
3.57232524741653
 20
3.687878381336062
 10
3.5731770585726
 20
3.68750276253596
 10
3.574065278076871
 20
3.687200681389633
 10
3.574972242473278
 20
3.686971416939667
 10
3.575888218837051
 20
3.686806678176088
 10
3.57680419520082
 20
3.686715116587582
 10
3.577711159597219
 20
3.6866783477607
 10
3.578617763514921
 20
3.686715116587582
 10
3.579533739878697
 20
3.686806678176088
 10
3.580449716242466
 20
3.686971416939667
 10
3.581347308192798
 20
3.687200681389633
 10
3.582235888175756
 20
3.68750276253596
 10
3.583097071777908
 20
3.687878381336062
 10
3.583921486553179
 20
3.688318165343853
 10
3.584690748088108
 20
3.688840138494093
 10
3.585414228828805
 20
3.689444661265454
 10
3.586064892873123
 20
3.690122361211894
 10
3.586641658784977
 20
3.690882610779465
 10
3.587136596033091
 20
3.691734421935545
 10
3.587539611214007
 20
3.692668782712754
 10
3.587841692360346
 20
3.693685693111102
 10
3.588024815537358
 20
3.694793804619259
 10
3.58808898074505
 20
3.695993838194632
 10
3.58808898074505
 20
3.712225112390445
 10
3.581970215377612
 20
3.712225112390445
 10
3.581970215377612
 20
3.696525183790929
 10
3.58191542261598
 20
3.695554054186838
 10
3.581750323373714
 20
3.694656462236499
 10
3.581466626640808
 20
3.693841419907301
 10
3.581035854600394
 20
3.693135963101355
 10
3.580459088688534
 20
3.692549824743435
 10
3.580110866269245
 20
3.692311548326099
 10
3.579726235501784
 20
3.692110040735641
 10
3.579286451493989
 20
3.691954313939439
 10
3.578810259138004
 20
3.691835355970115
 10
3.577711159597219
 20
3.691734421935545
 10
3.576611699577737
 20
3.691835355970115
 10
3.576135507221751
 20
3.691954313939439
 10
3.575695723213964
 20
3.692110040735641
 10
3.575311092446488
 20
3.692311548326099
 10
3.574963230505894
 20
3.692549824743435
 10
3.574386104115346
 20
3.693135963101355
 10
3.573955692553626
 20
3.693841419907301
 10
3.573671635342026
 20
3.694656462236499
 10
3.573506536099768
 20
3.695554054186838
 10
3.573451743338136
 20
3.696525183790929
 10
3.573451743338136
 20
3.712225112390445
 10
3.567332977970687
 20
3.712225112390445
 97
        0
 92
        3
 72
     0
 73
     1
 93
      105
 10
3.598467162371583
 20
3.699721908857415
 10
3.598494558752397
 20
3.700729446809692
 10
3.598586120340896
 20
3.7016638075869
 10
3.598732835169728
 20
3.702534003156417
 10
3.598934342760185
 20
3.703321649104806
 10
3.599181631144899
 20
3.70404549032419
 10
3.599483712291239
 20
3.704695793889807
 10
3.599831934710524
 20
3.705281932247735
 10
3.600225577445369
 20
3.705803905397976
 10
3.600656349485794
 20
3.706262073819207
 10
3.601123529874391
 20
3.706646704586681
 10
3.60162711861118
 20
3.706976542592527
 10
3.602167476174857
 20
3.707242215390675
 10
3.602735590598039
 20
3.707443722981134
 10
3.603330740923349
 20
3.707590077331262
 10
3.603944636140775
 20
3.707672626952399
 10
3.604585927739022
 20
3.707700023333217
 10
3.60538258565478
 20
3.707626846158142
 10
3.606161219635796
 20
3.707415966121616
 10
3.606903084789915
 20
3.707086488594472
 10
3.607608541595865
 20
3.706637692619306
 10
3.608249833194109
 20
3.706087962609565
 10
3.608808575171231
 20
3.705456043457378
 10
3.609275395081134
 20
3.704750586651442
 10
3.609642001913863
 20
3.70397195267043
 10
3.614689064121342
 20
3.706372019821156
 10
3.613754703344125
 20
3.707791584921724
 10
3.612737792945772
 20
3.70905578370478
 10
3.61162030899155
 20
3.710145871278195
 10
3.611025158666248
 20
3.710622063634175
 10
3.610402251481438
 20
3.711061847641964
 10
3.609751947915814
 20
3.711446478409436
 10
3.609073887490681
 20
3.711785328382657
 10
3.608359418717361
 20
3.71207839756162
 10
3.607617553563246
 20
3.712316673978957
 10
3.60684829202829
 20
3.712508809123343
 10
3.606042261666464
 20
3.712646511984804
 10
3.605199462477772
 20
3.712728701127246
 10
3.604320254940877
 20
3.712756097508052
 10
3.602909701807682
 20
3.712682920332985
 10
3.601590349784298
 20
3.712481412742531
 10
3.600344895893383
 20
3.712142562769315
 10
3.599190643112272
 20
3.711693766794151
 10
3.598118939952302
 20
3.711125652370965
 10
3.59713879838083
 20
3.710457324870597
 10
3.596241206430494
 20
3.709687702856963
 10
3.595435176068665
 20
3.708835891700883
 10
3.594720707295349
 20
3.707892518956292
 10
3.594097800110546
 20
3.706884981004014
 10
3.593566454514245
 20
3.705803905397976
 10
3.593127030985153
 20
3.704677409476369
 10
3.592787820533237
 20
3.703486748347073
 10
3.592540532148522
 20
3.702268330358273
 10
3.592394177798388
 20
3.701004131575215
 10
3.592339024558066
 20
3.699721908857415
 10
3.592394177798388
 20
3.698430313693541
 10
3.59254990459459
 20
3.697175487356546
 10
3.592815577392745
 20
3.695948057400372
 10
3.593172811779404
 20
3.694766408238449
 10
3.593639992168005
 20
3.693630539870779
 10
3.59419873414513
 20
3.692549824743435
 10
3.594849037710751
 20
3.691542286791155
 10
3.595599914832247
 20
3.690607926013936
 10
3.596451725988324
 20
3.689747102890493
 10
3.597386086765538
 20
3.688986492844222
 10
3.598412009131257
 20
3.688308792897786
 10
3.599529493085486
 20
3.687750050920675
 10
3.600729526660852
 20
3.687292242978136
 10
3.602021121824723
 20
3.68696240497229
 10
3.60339490613103
 20
3.686751524935767
 10
3.604851240058483
 20
3.6866783477607
 10
3.605593465691304
 20
3.686705744141511
 10
3.606325958399367
 20
3.686788293762647
 10
3.60777328035944
 20
3.687118131768493
 10
3.608469364719319
 20
3.687356047707135
 10
3.609156437111821
 20
3.687649477364797
 10
3.609825125090875
 20
3.687988327338013
 10
3.61046641668913
 20
3.688381970072855
 10
3.611693846645313
 20
3.68928893446925
 10
3.612820342566912
 20
3.690388034010041
 10
3.613818868551821
 20
3.691642860347032
 10
3.614276676494355
 20
3.692339305185604
 10
3.614689064121342
 20
3.693071797893668
 10
3.609907674712015
 20
3.695462492598324
 10
3.609449506290791
 20
3.69462906585569
 10
3.608890764313673
 20
3.69391459708237
 10
3.608258845161493
 20
3.693319086278374
 10
3.60757177276898
 20
3.692833881955028
 10
3.606866676441735
 20
3.692467275122302
 10
3.606161219635796
 20
3.692210974770218
 10
3.605483519689354
 20
3.692055247974015
 10
3.604851240058483
 20
3.69200009473369
 10
3.603944636140775
 20
3.692055247974015
 10
3.603120221365511
 20
3.692192590356774
 10
3.602378356211378
 20
3.692421494328046
 10
3.601718680199693
 20
3.692723935953074
 10
3.601123529874391
 20
3.693099554753173
 10
3.600610568691528
 20
3.6935299663149
 10
3.600152400270296
 20
3.694024543084323
 10
3.599758397056757
 20
3.694564900647993
 10
3.599428919529611
 20
3.69514202703855
 10
3.599153874285391
 20
3.695755561777291
 10
3.59892497031412
 20
3.69639685337554
 10
3.598750859104475
 20
3.697056529387226
 10
3.598531327579275
 20
3.698393905345349
 97
        0
 92
        3
 72
     0
 73
     1
 93
       12
 10
3.618151461985969
 20
3.687484378122523
 10
3.624270227353411
 20
3.687484378122523
 10
3.624270227353411
 20
3.697853187302988
 10
3.633585717787339
 20
3.697853187302988
 10
3.633585717787339
 20
3.687484378122523
 10
3.639704122676084
 20
3.687484378122523
 10
3.639704122676084
 20
3.712225112390445
 10
3.633585717787339
 20
3.712225112390445
 10
3.633585717787339
 20
3.703175294754672
 10
3.624270227353411
 20
3.703175294754672
 10
3.624270227353411
 20
3.712225112390445
 10
3.618151461985969
 20
3.712225112390445
 97
        0
 92
        3
 72
     0
 73
     1
 93
        8
 10
3.655669724073766
 20
3.707434350535061
 10
3.662054162239349
 20
3.707434350535061
 10
3.662054162239349
 20
3.712225112390445
 10
3.6428918357752
 20
3.712225112390445
 10
3.6428918357752
 20
3.707434350535061
 10
3.649550958706316
 20
3.707434350535061
 10
3.649550958706316
 20
3.687484378122523
 10
3.655669724073766
 20
3.687484378122523
 97
        0
 92
        3
 72
     0
 73
     1
 93
        8
 10
3.660185440684926
 20
3.687484378122523
 10
3.666844563616046
 20
3.687484378122523
 10
3.668172927606788
 20
3.69120343681793
 10
3.677213372796504
 20
3.69120343681793
 10
3.678550748754627
 20
3.687484378122523
 10
3.685200859718369
 20
3.687484378122523
 10
3.675885369284452
 20
3.712225112390445
 10
3.669500931118858
 20
3.712225112390445
 97
        0
 92
        3
 72
     0
 73
     1
 93
        6
 10
3.687857227221182
 20
3.687484378122523
 10
3.703822468140162
 20
3.687484378122523
 10
3.703822468140162
 20
3.692531440329989
 10
3.694241665386779
 20
3.692531440329989
 10
3.694241665386779
 20
3.712225112390445
 10
3.687857227221182
 20
3.712225112390445
 97
        0
 92
       18
 72
     0
 73
     1
 93
        3
 10
3.435908934422135
 20
3.709028387323959
 10
3.440434023479359
 20
3.696790856589081
 10
3.431118533045435
 20
3.696790856589081
 97
        0
 92
       18
 72
     0
 73
     1
 93
       29
 10
3.48087432586812
 20
3.709825045239723
 10
3.482349044209
 20
3.709751868064654
 10
3.483585486132549
 20
3.709531976060762
 10
3.48411683172885
 20
3.709367237297183
 10
3.484593384563525
 20
3.709165729706731
 10
3.485023796125252
 20
3.70893646525676
 10
3.485399414925352
 20
3.708661780491237
 10
3.485719880485128
 20
3.708359699344908
 10
3.485994565250646
 20
3.708020488892986
 10
3.486223829700614
 20
3.707654242538958
 10
3.48640695287763
 20
3.70725122735805
 10
3.486644868816277
 20
3.706344262961649
 10
3.486727418437403
 20
3.705309328628555
 10
3.486663253229718
 20
3.704411736678221
 10
3.486443361225817
 20
3.703550553076075
 10
3.486269610494869
 20
3.703138525927788
 10
3.486049718490976
 20
3.702735510746881
 10
3.485784045692824
 20
3.702359891946779
 10
3.485463580133043
 20
3.70201166952749
 10
3.485087961332956
 20
3.701691203967719
 10
3.48464817732515
 20
3.701398134788755
 10
3.48414422810966
 20
3.701141834436674
 10
3.483585486132549
 20
3.70093095440015
 10
3.482953566980366
 20
3.700756843190504
 10
3.482248470653121
 20
3.700628873253811
 10
3.481460464226041
 20
3.700546323632674
 10
3.48060865306996
 20
3.700518927251856
 10
3.473152511744399
 20
3.700518927251856
 10
3.473152511744399
 20
3.709825045239723
 97
        0
 92
       18
 72
     0
 73
     1
 93
       64
 10
3.492873580185663
 20
3.700674654048065
 10
3.492974514220244
 20
3.701636411206089
 10
3.493130241016445
 20
3.702607180331494
 10
3.493350133020339
 20
3.703559925522146
 10
3.493643202199305
 20
3.70448491385329
 10
3.494000436585967
 20
3.70539187824969
 10
3.494421475701619
 20
3.706252701373143
 10
3.494907040503661
 20
3.707068104181033
 10
3.495465782480779
 20
3.707818981302527
 10
3.496098062111661
 20
3.708506053695033
 10
3.496794146471529
 20
3.709119948912468
 10
3.497563408006473
 20
3.709632910095328
 10
3.498396834749113
 20
3.710053949210987
 10
3.499312811112886
 20
3.710365402803393
 10
3.500292592205652
 20
3.710557898426476
 10
3.501345910952193
 20
3.710631075601545
 10
3.50240860214479
 20
3.710557898426476
 10
3.503388743716259
 20
3.710365402803393
 10
3.504286335666587
 20
3.710053949210987
 10
3.505110750441857
 20
3.709632910095328
 10
3.505852615595983
 20
3.709119948912468
 10
3.506530676021113
 20
3.708506053695033
 10
3.507135198792485
 20
3.707818981302527
 10
3.507666183910095
 20
3.707068104181033
 10
3.508133364298693
 20
3.706252701373143
 10
3.508527367512233
 20
3.70539187824969
 10
3.50886621748545
 20
3.70448491385329
 10
3.50913189028361
 20
3.703559925522146
 10
3.509342409841432
 20
3.702607180331494
 10
3.509480112702887
 20
3.701636411206089
 10
3.509571674291397
 20
3.700674654048065
 10
3.50959907067221
 20
3.699721908857415
 10
3.509571674291397
 20
3.698760151699384
 10
3.509480112702887
 20
3.697798394541358
 10
3.509342409841432
 20
3.696836637383325
 10
3.50913189028361
 20
3.695883892192682
 10
3.50886621748545
 20
3.69494953141547
 10
3.508527367512233
 20
3.694042927497764
 10
3.508133364298693
 20
3.693181743895615
 10
3.507666183910095
 20
3.692366701566414
 10
3.507135198792485
 20
3.691615463966218
 10
3.506530676021113
 20
3.69092839157372
 10
3.505852615595983
 20
3.69032386880235
 10
3.505110750441857
 20
3.689801895652112
 10
3.504286335666587
 20
3.689380496057764
 10
3.503388743716259
 20
3.689069042465359
 10
3.50240860214479
 20
3.688876907320968
 10
3.501345910952193
 20
3.688812742113276
 10
3.500292592205652
 20
3.688876907320968
 10
3.499312811112886
 20
3.689069042465359
 10
3.498396834749113
 20
3.689380496057764
 10
3.497563408006473
 20
3.689801895652112
 10
3.496794146471529
 20
3.69032386880235
 10
3.496098062111661
 20
3.69092839157372
 10
3.495465782480779
 20
3.691615463966218
 10
3.494907040503661
 20
3.692366701566414
 10
3.494421475701619
 20
3.693181743895615
 10
3.494000436585967
 20
3.694042927497764
 10
3.493643202199305
 20
3.69494953141547
 10
3.493350133020339
 20
3.695883892192682
 10
3.493130241016445
 20
3.696836637383325
 10
3.492974514220244
 20
3.697798394541358
 10
3.492873580185663
 20
3.698760151699384
 10
3.492846183804852
 20
3.699721908857415
 97
        0
 92
       18
 72
     0
 73
     1
 93
       26
 10
3.525033326473574
 20
3.709825045239723
 10
3.526342945572199
 20
3.709788636891533
 10
3.527469801972492
 20
3.709650934030075
 10
3.528431559130527
 20
3.709413018091438
 10
3.52885295872488
 20
3.709238906881792
 10
3.529219205078904
 20
3.709028387323959
 10
3.529549043084752
 20
3.708790110906623
 10
3.529833100296334
 20
3.708506053695033
 10
3.530071016234982
 20
3.708176215689191
 10
3.530263511858061
 20
3.707809969335162
 10
3.530419238654266
 20
3.707388569740813
 10
3.530529184656224
 20
3.706930761798271
 10
3.53062074624473
 20
3.705840674224854
 10
3.530519812210146
 20
3.704887929034201
 10
3.530400854240829
 20
3.704457517472476
 10
3.53022674303118
 20
3.704054502291569
 10
3.530016223473353
 20
3.703669871524095
 10
3.529759562642575
 20
3.703321649104806
 10
3.529118631523025
 20
3.702708114366058
 10
3.528321613128565
 20
3.702222549564014
 10
3.527854432739968
 20
3.702030053940931
 10
3.527359855970538
 20
3.701874327144731
 10
3.526260756429757
 20
3.701654795619526
 10
3.525033326473574
 20
3.701581257965767
 10
3.517311512349857
 20
3.701581257965767
 10
3.517311512349857
 20
3.709825045239723
 97
        0
 92
       18
 72
     0
 73
     1
 93
       28
 10
3.525033326473574
 20
3.699456236059255
 10
3.526526429227913
 20
3.699355662503376
 10
3.527827036359154
 20
3.699071605291787
 10
3.528394790303634
 20
3.698860725255263
 10
3.528917123932569
 20
3.698613436870553
 10
3.529393316288551
 20
3.698320367691593
 10
3.529814715882897
 20
3.697990890164441
 10
3.530190334682992
 20
3.697624283331714
 10
3.530519812210146
 20
3.697221268150801
 10
3.530794857454365
 20
3.696781484143004
 10
3.531014388979568
 20
3.696314303754405
 10
3.531188500189214
 20
3.695810715017609
 10
3.531316830604602
 20
3.695279369421312
 10
3.531417404160474
 20
3.694134489086266
 10
3.531335215018043
 20
3.693328458724442
 10
3.531106311046772
 20
3.692531440329989
 10
3.530702935387158
 20
3.691762178795047
 10
3.530116797029236
 20
3.691075106402548
 10
3.529759562642575
 20
3.690763652810141
 10
3.529347535494296
 20
3.690479595598552
 10
3.528889367073064
 20
3.690232307213839
 10
3.528385778336268
 20
3.690012415209945
 10
3.527827036359154
 20
3.68984767644637
 10
3.527213141141724
 20
3.689719346030985
 10
3.526544453162652
 20
3.689637156888546
 10
3.525829984389336
 20
3.689609400029031
 10
3.517311512349857
 20
3.689609400029031
 10
3.517311512349857
 20
3.699456236059255
 97
        0
 92
       18
 72
     0
 73
     1
 93
       19
 10
3.55297042532929
 20
3.707434350535061
 10
3.553639113308355
 20
3.707406954154247
 10
3.554253008525792
 20
3.707324404533114
 10
3.554793366089466
 20
3.70716867773691
 10
3.555260546478071
 20
3.706939773765646
 10
3.555636165278174
 20
3.706619308205866
 10
3.555919862011072
 20
3.706197908611512
 10
3.556093973220714
 20
3.705675574982581
 10
3.556158138428406
 20
3.705043655830403
 10
3.556093973220714
 20
3.704393352264784
 10
3.555919862011072
 20
3.703834610287666
 10
3.555636165278174
 20
3.703376802345127
 10
3.555260546478071
 20
3.703010195512399
 10
3.554793366089466
 20
3.702726138300814
 10
3.554253008525792
 20
3.702534003156417
 10
3.553639113308355
 20
3.702415045187099
 10
3.55297042532929
 20
3.70237827636022
 10
3.547648678356308
 20
3.70237827636022
 10
3.547648678356308
 20
3.707434350535061
 97
        0
 92
       18
 72
     0
 73
     1
 93
       19
 10
3.554033116521891
 20
3.697853187302988
 10
3.554765969708652
 20
3.697807406508731
 10
3.555388516414757
 20
3.697661052158594
 10
3.555892465630251
 20
3.697422775741261
 10
3.556295480811164
 20
3.69709293773542
 10
3.556588549990126
 20
3.696671538141061
 10
3.556799430026657
 20
3.696176961371644
 10
3.556918387995966
 20
3.695590823013712
 10
3.556955156822852
 20
3.694931507480717
 10
3.556918387995966
 20
3.694345008644101
 10
3.556781045613209
 20
3.693795639113048
 10
3.556533757228505
 20
3.693301062343629
 10
3.556158138428406
 20
3.69287029030321
 10
3.555636165278174
 20
3.692504043949179
 10
3.554939720439607
 20
3.692238371151026
 10
3.554051500935336
 20
3.692064259941388
 10
3.55297042532929
 20
3.69200009473369
 10
3.547914351154456
 20
3.69200009473369
 10
3.547914351154456
 20
3.697853187302988
 97
        0
 92
       18
 72
     0
 73
     1
 93
        3
 10
3.672697656185336
 20
3.706106347023006
 10
3.675619696486297
 20
3.695728165396476
 10
3.669500931118858
 20
3.695728165396476
 97
        0
 75
     0
 76
     1
 98
        0
  0
HATCH
  5
80
102
{ACAD_REACTORS
330
7F
102
}
330
1F
100
AcDbEntity
  8
XR$1$TB_1408_1
  6
AUSGEZOGEN
 62
     3
440
 33554687
370
    35
100
AcDbHatch
 10
0.0
 20
0.0
 30
0.0
210
0.0
220
0.0
230
1.0
  2
SOLID
 70
     1
 71
     0
 91
        1
 92
        3
 72
     0
 73
     1
 93
       22
 10
3.395999977629682
 20
3.687209693356999
 10
3.4111685606329
 20
3.687209693356999
 10
3.409886337915096
 20
3.688052492545709
 10
3.408640523545483
 20
3.688968468909477
 10
3.407440489970111
 20
3.689976006861756
 10
3.406304621602437
 20
3.691075106402548
 10
3.405251302855918
 20
3.692265767531842
 10
3.404280533730514
 20
3.693575747109155
 10
3.403410338160999
 20
3.694995312209719
 10
3.402650088593425
 20
3.696525183790929
 10
3.40218290820482
 20
3.697523709775831
 10
3.401779893023907
 20
3.69853124772811
 10
3.401431670604611
 20
3.699538785680395
 10
3.401138601425659
 20
3.700546323632674
 10
3.400735586244747
 20
3.702570771983299
 10
3.40055246306772
 20
3.704576475441796
 10
3.400588871415918
 20
3.706555142998172
 10
3.40081813586588
 20
3.708497041727667
 10
3.401239535460233
 20
3.710393159662903
 10
3.401523232193135
 20
3.71131814799405
 10
3.401853070198972
 20
3.712225112390445
 10
3.395999977629682
 20
3.712225112390445
 97
        0
 75
     0
 76
     1
 98
        0
  0
HATCH
  5
81
102
{ACAD_REACTORS
330
7F
102
}
330
1F
100
AcDbEntity
  8
XR$1$TB_1408_1
  6
AUSGEZOGEN
 62
     3
440
 33554687
370
    35
100
AcDbHatch
 10
0.0
 20
0.0
 30
0.0
210
0.0
220
0.0
230
1.0
  2
SOLID
 70
     1
 71
     0
 91
        1
 92
        3
 72
     0
 73
     1
 93
       24
 10
3.408567346370407
 20
3.69092839157372
 10
3.409776391913142
 20
3.689810907619491
 10
3.411104395425204
 20
3.688803369667208
 10
3.412542344939214
 20
3.687942546543762
 10
3.414090600933864
 20
3.687209693356999
 10
3.421006024217069
 20
3.687209693356999
 10
3.421006024217069
 20
3.712225112390445
 10
3.407440489970111
 20
3.712225112390445
 10
3.406881747992999
 20
3.711583820792197
 10
3.406405555637025
 20
3.710860340051508
 10
3.405581140861758
 20
3.709293699643422
 10
3.405205522061663
 20
3.708497041727667
 10
3.404875684055815
 20
3.707681638919769
 10
3.404600999290297
 20
3.706866596590573
 10
3.40437209531902
 20
3.706042181815314
 10
3.404051269280545
 20
3.704393352264784
 10
3.403913926897784
 20
3.702744522714253
 10
3.403950695724669
 20
3.701095693163716
 10
3.404152203315122
 20
3.699483632440075
 10
3.404518449669157
 20
3.697898968097237
 10
3.405040783298081
 20
3.696360445027354
 10
3.405718483244523
 20
3.694885726686464
 10
3.406533886052409
 20
3.693474813074576
 10
3.407486270764365
 20
3.692155821529894
 97
        0
 75
     0
 76
     1
 98
        0
  0
MTEXT
  5
82
330
1F
100
AcDbEntity
  8
XR$1$TB_1408_1
  6
AUSGEZOGEN
 62
     7
440
 33554687
370
    -3
100
AcDbMText
 10
3.302605
 20
4.970459
 30
0.0
 40
0.025
 41
0.405443
 46
0.0
 71
     7
 72
     5
  1
\W1.00;BAUKERAMIKFASSADE
  7
ARIAL
 73
     1
 44
1.0
  0
MTEXT
  5
83
330
1F
100
AcDbEntity
  8
XR$1$TB_1408_1
  6
AUSGEZOGEN
 62
     7
440
 33554687
370
    -3
100
AcDbMText
 10
3.301538
 20
4.912892
 30
0.0
 40
0.0175
 41
0.434598
 46
0.0
 71
     7
 72
     5
  1
\W1.00;FACADE CERAMIQUE DE BATIMENT
  7
ARIAL
 73
     1
 44
1.0
  0
MTEXT
  5
84
330
1F
100
AcDbEntity
  8
XR$1$TB_1408_1
  6
AUSGEZOGEN
 62
     7
440
 33554687
370
    -3
100
AcDbMText
 10
3.301538
 20
4.939142
 30
0.0
 40
0.0175
 41
0.457071
 46
0.0
 71
     7
 72
     5
  1
\W1.00;ARCHITECTURAL CERAMICS FACADE
  7
ARIAL
 73
     1
 44
1.0
  0
MTEXT
  5
85
330
1F
100
AcDbEntity
  8
XR$1$TB_1408_1
  6
AUSGEZOGEN
 62
     7
440
 33554687
370
    -3
100
AcDbMText
 10
3.30071
 20
4.852544
 30
0.0
 40
0.025
 41
0.252119
 46
0.0
 71
     7
 72
     5
  1
\W1.00;AUSSENECKE
  7
ARIAL
 73
     1
 44
1.0
  0
MTEXT
  5
86
330
1F
100
AcDbEntity
  8
XR$1$TB_1408_1
  6
AUSGEZOGEN
 62
     7
440
 33554687
370
    -3
100
AcDbMText
 10
3.30071
 20
4.823889
 30
0.0
 40
0.0175
 41
0.228104
 46
0.0
 71
     7
 72
     5
  1
\W1.00;EXTERNAL ANGLE
  7
ARIAL
 73
     1
 44
1.0
  0
MTEXT
  5
87
330
1F
100
AcDbEntity
  8
XR$1$TB_1408_1
  6
AUSGEZOGEN
 62
     7
440
 33554687
370
    -3
100
AcDbMText
 10
3.30071
 20
4.797639
 30
0.0
 40
0.0175
 41
0.238892
 46
0.0
 71
     7
 72
     5
  1
\W1.00;ANGLE EXTERIEUR
  7
ARIAL
 73
     1
 44
1.0
  0
MTEXT
  5
88
330
1F
100
AcDbEntity
  8
XR$1$TB_1408_1
  6
AUSGEZOGEN
 62
     7
440
 33554687
370
    -3
100
AcDbMText
 10
3.30016
 20
3.80549
 30
0.0
 40
0.0175
 41
0.743802
 46
0.0
 71
     7
 72
     5
  1
\W1.01;Die Verlegevorschriften des Klebemittelherstellers sind einzuhalten!
  7
ARIAL
 73
     1
 44
1.0
  0
MTEXT
  5
89
330
1F
100
AcDbEntity
  8
XR$1$TB_1408_1
  6
AUSGEZOGEN
 62
     7
440
 33554687
370
    -3
100
AcDbMText
 10
3.30016
 20
3.776102
 30
0.0
 40
0.0175
 41
0.766251
 46
0.0
 71
     7
 72
     5
  1
\W1.00;The laying instructions of the adhesive producer have to be observed!
  7
ARIAL
 73
     1
 44
1.0
  0
MTEXT
  5
8A
330
1F
100
AcDbEntity
  8
XR$1$TB_1408_1
  6
AUSGEZOGEN
 62
     7
440
 33554687
370
    -3
100
AcDbMText
 10
3.30016
 20
3.746714
 30
0.0
 40
0.0175
 41
0.832461
 46
0.0
 71
     7
 72
     5
  1
\W1.01;Les instructions de pose du fabricant de l'adzhésive doivent être observées!
  7
ARIAL
 73
     1
 44
1.0
  0
LINE
  5
8B
330
1F
100
AcDbEntity
  8
XR$1$TB_1408_1
  6
AUSGEZOGEN
 62
     1
440
 33554687
370
    70
100
AcDbLine
 10
3.182554
 20
3.563845
 30
0.0
 11
4.232554
 21
3.563845
 31
0.0
  0
MTEXT
  5
8C
330
1F
100
AcDbEntity
  8
XR$1$TB_1408_1
  6
AUSGEZOGEN
 62
     7
440
 33554687
370
    -3
100
AcDbMText
 10
3.300362
 20
3.631224
 30
0.0
 40
0.009
 41
0.89646
 46
0.0
 71
     7
 72
     5
  1
\W0.85;THESE ARE NOT BINDING CONSTRUCTION PROPOSALS WHICH HAVE TO BE VERIFIED FOR EACH INDIVIDUAL PROJECT AS REGARDS APPLICABILITY AND CORRECTNESS.
  7
ARIAL
 73
     1
 44
1.0
  0
MTEXT
  5
8D
330
1F
100
AcDbEntity
  8
XR$1$TB_1408_1
  6
AUSGEZOGEN
 62
     7
440
 33554687
370
    -3
100
AcDbMText
 10
3.300362
 20
3.649223
 30
0.0
 40
0.009
 41
0.8975
 46
0.0
 71
     7
 72
     5
  1
\W0.91;DIES SIND UNVERBINDLICHE KONSTRUKTIONSVORSCHLÄGE, DIE FÜR JEDES PROJEKT AUF ANWENDBARKEIT UND RICHTIGKEIT GEPRÜFT WERDEN MÜSSEN.
  7
ARIAL
 73
     1
 44
1.0
  0
MTEXT
  5
8E
330
1F
100
AcDbEntity
  8
XR$1$TB_1408_1
  6
AUSGEZOGEN
 62
     7
440
 33554687
370
    -3
100
AcDbMText
 10
3.300362
 20
3.613224
 30
0.0
 40
0.009
 41
0.895804
 46
0.0
 71
     7
 72
     5
  1
\W0.80;IL S' AGIT DE PROPOSITIONS DE CONSTRUCTION SANS ENGAGEMENT DE NOTRE PART QUI DOIVENT ETRE VERIFIEES POUR CHAQUE PROJET A LEUR EXACTITUDE ET FAISABILITE.
  7
ARIAL
 73
     1
 44
1.0
  0
MTEXT
  5
8F
330
1F
100
AcDbEntity
  8
XR$1$TB_1408_1
  6
AUSGEZOGEN
 62
     7
440
 33554687
370
    -3
100
AcDbMText
 10
3.715023
 20
3.687152
 30
0.0
 40
0.009
 41
0.348436
 46
0.0
 71
     7
 72
     5
  1
\W0.92;Tel. 09435 / 391 3238   e-mail: as.fassade@deutsche-steinzeug.de
  7
ARIAL
 73
     1
 44
1.0
  0
LINE
  5
90
330
1F
100
AcDbEntity
  8
XR$1$TB_1408_1
  6
AUSGEZOGEN
 62
    52
440
 33554687
370
    70
100
AcDbLine
 10
3.182544
 20
5.04883
 30
0.0
 11
3.182544
 21
3.563845
 31
0.0
  0
LINE
  5
91
330
1F
100
AcDbEntity
  8
XR$1$TB_1408_1
  6
AUSGEZOGEN
 62
    52
440
 33554687
370
    70
100
AcDbLine
 10
4.232533
 20
3.563845
 30
0.0
 11
4.232533
 21
5.04883
 31
0.0
  0
LINE
  5
92
330
1F
100
AcDbEntity
  8
XR$1$TB_1408_1
  6
AUSGEZOGEN
 62
    52
440
 33554687
370
    70
100
AcDbLine
 10
4.232533
 20
5.04883
 30
0.0
 11
3.182544
 21
5.04883
 31
0.0
  0
MTEXT
  5
93
330
1F
100
AcDbEntity
  8
XR$1$TB_1408_1
  6
AUSGEZOGEN
 62
     7
440
 33554687
370
    -3
100
AcDbMText
 10
3.714571
 20
3.703394
 30
0.0
 40
0.009
 41
0.418059
 46
0.0
 71
     7
 72
     5
  1
\W1.00;AGROB BUCHTAL GmbH   Architektenservice   D - 92521 Schwarzenfeld
  7
ARIAL
 73
     1
 44
1.0
  0
HATCH
  5
95
330
1F
100
AcDbEntity
  8
XR$1$TB_1408_1
  6
AUSGEZOGEN
 62
    14
440
 33554687
370
    -3
100
AcDbHatch
 10
0.0
 20
0.0
 30
0.0
210
0.0
220
0.0
230
1.0
  2
_USER
 70
     0
 71
     0
 91
        1
 92
        0
 93
        6
 72
     1
 10
3.593308180450282
 20
3.973535815752256
 11
3.593308180450282
 21
4.400732431763459
 72
     1
 10
3.593308180450282
 20
4.400732431763459
 11
3.548508180450282
 21
4.445532431763461
 72
     1
 10
3.548508180450282
 20
4.445532431763461
 11
3.548508180450282
 21
4.365113751999359
 72
     1
 10
3.548508180450282
 20
4.365113751999359
 11
3.548308180450282
 21
4.365113751999359
 72
     1
 10
3.548308180450282
 20
4.365113751999359
 11
3.548308180450282
 21
3.973535815752256
 72
     1
 10
3.548308180450282
 20
3.973535815752256
 11
3.593308180450282
 21
3.973535815752256
 97
        0
 75
     0
 76
     0
 52
90.0
 41
0.06
 77
     1
 78
     2
 53
90.00000000000001
 43
0.0
 44
0.0
 45
-0.06
 46
0.0
 79
     0
 53
180.0
 43
0.0
 44
0.0
 45
0.0
 46
-0.06
 79
     0
 98
        0
1001
ACAD
1010
0.0
1020
0.0
1030
0.0
1001
NEM_ODX
1002
{
1000
BZM_DEPEND
1070
     1
1000
BZM_SCALE
1040
5.0
1000
MUSTER_415
1002
}
  0
HATCH
  5
96
330
1F
100
AcDbEntity
  8
XR$1$TB_1408_1
  6
AUSGEZOGEN
 62
    14
440
 33554687
370
    -3
100
AcDbHatch
 10
0.0
 20
0.0
 30
0.0
210
0.0
220
0.0
230
1.0
  2
_USER
 70
     0
 71
     0
 91
        1
 92
        0
 93
        6
 72
     1
 10
3.569721383885879
 20
4.466745635199056
 11
3.614521383885879
 21
4.421945635199055
 72
     1
 10
3.614521383885879
 20
4.421945635199056
 11
3.938117895628152
 21
4.421945635199056
 72
     1
 10
3.938117895628153
 20
4.421945635199056
 11
3.938117895628153
 21
4.466945635199056
 72
     1
 10
3.938117895628153
 20
4.466945635199056
 11
3.569521383885879
 21
4.466945635199056
 72
     1
 10
3.569521383885879
 20
4.466945635199056
 11
3.569241207840071
 21
4.466745635199057
 72
     1
 10
3.569241207840071
 20
4.466745635199056
 11
3.569721383885879
 21
4.466745635199056
 97
        0
 75
     0
 76
     0
 52
90.0
 41
0.06
 77
     1
 78
     2
 53
90.00000000000001
 43
0.0
 44
0.0
 45
-0.06
 46
0.0
 79
     0
 53
180.0
 43
0.0
 44
0.0
 45
0.0
 46
-0.06
 79
     0
 98
        0
1001
ACAD
1010
0.0
1020
0.0
1030
0.0
1001
NEM_ODX
1002
{
1000
BZM_DEPEND
1070
     1
1000
BZM_SCALE
1040
5.0
1000
MUSTER_415
1002
}
  0
HATCH
  5
97
330
1F
100
AcDbEntity
  8
XR$1$TB_1408_1
  6
AUSGEZOGEN
 62
     7
440
 33554687
370
    -3
100
AcDbHatch
 10
0.0
 20
0.0
 30
0.0
210
0.0
220
0.0
230
1.0
  2
SCHRAFFUR_12
 70
     0
 71
     0
 91
        1
 92
        0
 93
       89
 72
     1
 10
3.515985625471384
 20
4.449528936003841
 11
3.516685100993628
 21
4.449770179137547
 72
     1
 10
3.516685100993628
 20
4.449770179137547
 11
3.516807514032499
 21
4.449913506390998
 72
     1
 10
3.5168075140325
 20
4.449913506390998
 11
3.516934368685754
 21
4.450052917834628
 72
     1
 10
3.516934368685754
 20
4.450052917834628
 11
3.517065539763163
 21
4.450188275886176
 72
     1
 10
3.517065539763163
 20
4.450188275886176
 11
3.51720089781471
 21
4.450319446963586
 72
     1
 10
3.51720089781471
 20
4.450319446963586
 11
3.51734030925834
 21
4.450446301616839
 72
     1
 10
3.51734030925834
 20
4.450446301616839
 11
3.51748363651179
 21
4.45056871465571
 72
     1
 10
3.51748363651179
 20
4.45056871465571
 11
3.517630738128364
 21
4.45068656527331
 72
     1
 10
3.517630738128364
 20
4.45068656527331
 11
3.517781468936527
 21
4.450799737165305
 72
     1
 10
3.517781468936527
 20
4.450799737165306
 11
3.517935680183169
 21
4.450908118644704
 72
     1
 10
3.51793568018317
 20
4.450908118644704
 11
3.518093219680408
 21
4.451011602752069
 72
     1
 10
3.518093219680408
 20
4.451011602752069
 11
3.51825393195578
 21
4.451110087361079
 72
     1
 10
3.51825393195578
 20
4.451110087361079
 11
3.518417658405672
 21
4.451203475279319
 72
     1
 10
3.518417658405672
 20
4.451203475279319
 11
3.518584237451845
 21
4.451291674344185
 72
     1
 10
3.518584237451845
 20
4.451291674344185
 11
3.518743255174726
 21
4.45136976262481
 72
     1
 10
3.518743255174726
 20
4.45136976262481
 11
3.518753504700892
 21
4.451374597513851
 72
     1
 10
3.518753504700892
 20
4.451374597513852
 11
3.518925293106474
 21
4.451452162953159
 72
     1
 10
3.518925293106474
 20
4.451452162953159
 11
3.519099433134174
 21
4.451524294114386
 72
     1
 10
3.519099433134174
 20
4.451524294114386
 11
3.519275752928811
 21
4.451590919812781
 72
     1
 10
3.519275752928811
 20
4.451590919812781
 11
3.519454078484033
 21
4.451651974296826
 72
     1
 10
3.519454078484032
 20
4.451651974296826
 11
3.519634233814047
 21
4.451707397313117
 72
     1
 10
3.519634233814047
 20
4.451707397313117
 11
3.519816041127293
 21
4.451757134165828
 72
     1
 10
3.519816041127293
 20
4.451757134165828
 11
3.519999321001903
 21
4.451801135770689
 72
     1
 10
3.519999321001903
 20
4.451801135770689
 11
3.520183892562768
 21
4.451839358703428
 72
     1
 10
3.520183892562768
 20
4.451839358703428
 11
3.52036957366004
 21
4.451871765242628
 72
     1
 10
3.520369573660041
 20
4.451871765242628
 11
3.520556181048896
 21
4.451898323406944
 72
     1
 10
3.520556181048896
 20
4.451898323406944
 11
3.520743530570371
 21
4.451919006986675
 72
     1
 10
3.520743530570371
 20
4.451919006986675
 11
3.520931437333106
 21
4.451933795569627
 72
     1
 10
3.520931437333106
 20
4.451933795569627
 11
3.521119715895813
 21
4.451942674561251
 72
     1
 10
3.521119715895813
 20
4.451942674561251
 11
3.521308180450282
 21
4.451945635199056
 72
     1
 10
3.521308180450282
 20
4.451945635199055
 11
3.533308180450282
 21
4.451945635199055
 72
     1
 10
3.533308180450282
 20
4.451945635199055
 11
3.532848070781669
 21
4.452561120287095
 72
     1
 10
3.532848070781669
 20
4.452561120287095
 11
3.532407456774306
 21
4.453190709119006
 72
     1
 10
3.532407456774306
 20
4.453190709119006
 11
3.531986770441863
 21
4.453833784394885
 72
     1
 10
3.531986770441863
 20
4.453833784394885
 11
3.531586424259308
 21
4.454489715591629
 72
     1
 10
3.531586424259308
 20
4.45448971559163
 11
3.531206810758472
 21
4.45515785958115
 72
     1
 10
3.531206810758472
 20
4.45515785958115
 11
3.53084830214319
 21
4.455837561260948
 72
     1
 10
3.53084830214319
 20
4.455837561260947
 11
3.530511249924354
 21
4.456528154196421
 72
     1
 10
3.530511249924354
 20
4.456528154196421
 11
3.530195984575268
 21
4.457228961274308
 72
     1
 10
3.530195984575268
 20
4.457228961274308
 11
3.529902815207623
 21
4.457939295366566
 72
     1
 10
3.529902815207623
 20
4.457939295366566
 11
3.529632029268421
 21
4.458658460004102
 72
     1
 10
3.529632029268421
 20
4.458658460004102
 11
3.529383892258136
 21
4.459385750059635
 72
     1
 10
3.529383892258136
 20
4.459385750059635
 11
3.529158647470396
 21
4.460120452439068
 72
     1
 10
3.529158647470396
 20
4.460120452439069
 11
3.528956515753442
 21
4.460861846780665
 72
     1
 10
3.528956515753442
 20
4.460861846780665
 11
3.528777695293585
 21
4.461609206161343
 72
     1
 10
3.528777695293585
 20
4.461609206161343
 11
3.528622361420894
 21
4.462361797809413
 72
     1
 10
3.528622361420894
 20
4.462361797809414
 11
3.528490666437281
 21
4.463118883823048
 72
     1
 10
3.528490666437281
 20
4.463118883823048
 11
3.528382739467178
 21
4.46387972189378
 72
     1
 10
3.528382739467179
 20
4.46387972189378
 11
3.528298686330933
 21
4.46464356603432
 72
     1
 10
3.528298686330933
 20
4.46464356603432
 11
3.528238589441049
 21
4.465409667309985
 72
     1
 10
3.528238589441049
 20
4.465409667309985
 11
3.528202507721387
 21
4.466177274573014
 72
     1
 10
3.528202507721387
 20
4.466177274573014
 11
3.528190476549388
 21
4.466945635199056
 72
     1
 10
3.528190476549388
 20
4.466945635199056
 11
3.528202507721387
 21
4.467713995825098
 72
     1
 10
3.528202507721387
 20
4.467713995825098
 11
3.528238589441049
 21
4.468481603088127
 72
     1
 10
3.528238589441049
 20
4.468481603088127
 11
3.528298686330933
 21
4.469247704363794
 72
     1
 10
3.528298686330933
 20
4.469247704363794
 11
3.528382739467178
 21
4.470011548504334
 72
     1
 10
3.528382739467179
 20
4.470011548504334
 11
3.528490666437281
 21
4.470772386575065
 72
     1
 10
3.528490666437281
 20
4.470772386575065
 11
3.528622361420893
 21
4.4715294725887
 72
     1
 10
3.528622361420894
 20
4.4715294725887
 11
3.528777695293585
 21
4.47228206423677
 72
     1
 10
3.528777695293585
 20
4.47228206423677
 11
3.528956515753442
 21
4.473029423617446
 72
     1
 10
3.528956515753442
 20
4.473029423617447
 11
3.529158647470396
 21
4.473770817959045
 72
     1
 10
3.529158647470396
 20
4.473770817959045
 11
3.529383892258135
 21
4.474505520338478
 72
     1
 10
3.529383892258136
 20
4.474505520338478
 11
3.529632029268421
 21
4.475232810394011
 72
     1
 10
3.529632029268421
 20
4.475232810394011
 11
3.529902815207623
 21
4.475951975031545
 72
     1
 10
3.529902815207623
 20
4.475951975031545
 11
3.530195984575268
 21
4.476662309123803
 72
     1
 10
3.530195984575268
 20
4.476662309123803
 11
3.530511249924353
 21
4.47736311620169
 72
     1
 10
3.530511249924354
 20
4.47736311620169
 11
3.53084830214319
 21
4.478053709137167
 72
     1
 10
3.53084830214319
 20
4.478053709137166
 11
3.531206810758472
 21
4.478733410816961
 72
     1
 10
3.531206810758472
 20
4.478733410816962
 11
3.531586424259308
 21
4.479401554806484
 72
     1
 10
3.531586424259308
 20
4.479401554806484
 11
3.531986770441863
 21
4.480057486003228
 72
     1
 10
3.531986770441863
 20
4.480057486003228
 11
3.532407456774306
 21
4.480700561279107
 72
     1
 10
3.532407456774306
 20
4.480700561279107
 11
3.532848070781669
 21
4.481330150111017
 72
     1
 10
3.532848070781669
 20
4.481330150111017
 11
3.533308180450282
 21
4.481945635199057
 72
     1
 10
3.533308180450282
 20
4.481945635199056
 11
3.515308180450282
 21
4.481945635199056
 72
     1
 10
3.515308180450282
 20
4.481945635199056
 11
3.515827614027669
 21
4.479826822656774
 72
     1
 10
3.515827614027669
 20
4.479826822656775
 11
3.516280358123149
 21
4.477692765343897
 72
     1
 10
3.516280358123149
 20
4.477692765343896
 11
3.516665967535335
 21
4.475545561764384
 72
     1
 10
3.516665967535335
 20
4.475545561764384
 11
3.516984063079061
 21
4.473387323349448
 72
     1
 10
3.516984063079061
 20
4.473387323349449
 11
3.51723433195825
 21
4.4712201723813
 72
     1
 10
3.51723433195825
 20
4.4712201723813
 11
3.517416528073495
 21
4.469046239906215
 72
     1
 10
3.517416528073495
 20
4.469046239906215
 11
3.517530472264066
 21
4.466867663638999
 72
     1
 10
3.517530472264066
 20
4.466867663638999
 11
3.517576052484078
 21
4.464686585860886
 72
     1
 10
3.517576052484078
 20
4.464686585860886
 11
3.517553223912679
 21
4.46250515131294
 72
     1
 10
3.517553223912679
 20
4.46250515131294
 11
3.517462008998116
 21
4.460325505087059
 72
     1
 10
3.517462008998116
 20
4.460325505087059
 11
3.517302497435664
 21
4.458149790516606
 72
     1
 10
3.517302497435664
 20
4.458149790516606
 11
3.517074846079427
 21
4.455980147068791
 72
     1
 10
3.517074846079427
 20
4.455980147068791
 11
3.516779278788094
 21
4.45381870824085
 72
     1
 10
3.516779278788094
 20
4.453818708240849
 11
3.516416086204813
 21
4.451667599462081
 72
     1
 10
3.516416086204813
 20
4.451667599462082
 11
3.515985625471384
 21
4.449528936003841
 97
        0
 75
     0
 76
     2
 52
90.0
 41
0.001
 77
     0
 78
     2
 53
135.0
 43
0.0
 44
0.0
 45
-0.0017677669529664
 46
-0.0017677669529664
 79
     0
 53
225.0
 43
0.0
 44
0.0
 45
0.0017677669529664
 46
-0.0017677669529664
 79
     0
 98
        0
1001
ACAD
1010
0.0
1020
0.0
1030
0.0
1001
NEM_ODX
1002
{
1000
BZM_DEPEND
1070
     0
1000
SCHRAFFUR_12
1002
}
  0
HATCH
  5
98
330
1F
100
AcDbEntity
  8
XR$1$TB_1408_1
  6
AUSGEZOGEN
 62
     7
440
 33554687
370
    -3
100
AcDbHatch
 10
0.0
 20
0.0
 30
0.0
210
0.0
220
0.0
230
1.0
  2
SCHRAFFUR_304
 70
     0
 71
     0
 91
        1
 92
        0
 93
      138
 72
     1
 10
3.533308180450282
 20
4.451945635199055
 11
3.548308180450282
 21
4.451945635199055
 72
     1
 10
3.548308180450282
 20
4.451945635199055
 11
3.548308180450282
 21
4.451931173657565
 72
     1
 10
3.548308180450282
 20
4.451931173657566
 11
3.548508180450282
 21
4.451932314121192
 72
     1
 10
3.548508180450282
 20
4.451932314121192
 11
3.548600668225045
 21
4.451933743391155
 72
     1
 10
3.548600668225045
 20
4.451933743391155
 11
3.549068834592418
 21
4.451949737942139
 72
     1
 10
3.549068834592418
 20
4.451949737942139
 11
3.549536273227924
 21
4.451980343419359
 72
     1
 10
3.549536273227924
 20
4.451980343419359
 11
3.550002528253053
 21
4.452025529974228
 72
     1
 10
3.550002528253053
 20
4.452025529974228
 11
3.550467144943635
 21
4.452085253537697
 72
     1
 10
3.550467144943635
 20
4.452085253537696
 11
3.550929670173312
 21
4.452159455863208
 72
     1
 10
3.550929670173312
 20
4.452159455863208
 11
3.551389652855469
 21
4.45224806458352
 72
     1
 10
3.551389652855469
 20
4.452248064583521
 11
3.551846644383156
 21
4.452350993281278
 72
     1
 10
3.551846644383156
 20
4.452350993281278
 11
3.552300199066606
 21
4.452468141573287
 72
     1
 10
3.552300199066606
 20
4.452468141573287
 11
3.552749874567898
 21
4.452599395208427
 72
     1
 10
3.552749874567898
 20
4.452599395208426
 11
3.553195232332359
 21
4.452744626179068
 72
     1
 10
3.55319523233236
 20
4.452744626179069
 11
3.553635838016274
 21
4.452903692845918
 72
     1
 10
3.553635838016274
 20
4.452903692845918
 11
3.554071261910482
 21
4.453076440076147
 72
     1
 10
3.554071261910482
 20
4.453076440076147
 11
3.554501079359464
 21
4.453262699394707
 72
     1
 10
3.554501079359464
 20
4.453262699394707
 11
3.554924871175495
 21
4.453462289148614
 72
     1
 10
3.554924871175495
 20
4.453462289148614
 11
3.555342224047463
 21
4.45367501468413
 72
     1
 10
3.555342224047463
 20
4.45367501468413
 11
3.555752730943961
 21
4.453900668536583
 72
     1
 10
3.555752730943961
 20
4.453900668536583
 11
3.55615599151025
 21
4.454139030632722
 72
     1
 10
3.55615599151025
 20
4.454139030632721
 11
3.556551612458715
 21
4.454389868505332
 72
     1
 10
3.556551612458715
 20
4.454389868505332
 11
3.556939207952424
 21
4.454652937519957
 72
     1
 10
3.556939207952424
 20
4.454652937519957
 11
3.557318399981425
 21
4.454927981113488
 72
     1
 10
3.557318399981426
 20
4.454927981113488
 11
3.557688818731406
 21
4.455214731044373
 72
     1
 10
3.557688818731406
 20
4.455214731044372
 11
3.558050102944363
 21
4.455512907654232
 72
     1
 10
3.558050102944363
 20
4.455512907654232
 11
3.558401900270925
 21
4.4558222201406
 72
     1
 10
3.558401900270925
 20
4.4558222201406
 11
3.558743867613991
 21
4.456142366840531
 72
     1
 10
3.558743867613991
 20
4.456142366840531
 11
3.559075671463339
 21
4.456473035524803
 72
     1
 10
3.559075671463339
 20
4.456473035524803
 11
3.559396988220888
 21
4.456813903702429
 72
     1
 10
3.559396988220888
 20
4.456813903702429
 11
3.559707504516298
 21
4.457164638935168
 72
     1
 10
3.559707504516298
 20
4.457164638935168
 11
3.560006917512585
 21
4.457524899161745
 72
     1
 10
3.560006917512585
 20
4.457524899161744
 11
3.560294935201472
 21
4.457894333031454
 72
     1
 10
3.560294935201472
 20
4.457894333031454
 11
3.560571276688173
 21
4.458272580246814
 72
     1
 10
3.560571276688173
 20
4.458272580246814
 11
3.560835672465344
 21
4.458659271914962
 72
     1
 10
3.560835672465344
 20
4.458659271914962
 11
3.561087864675923
 21
4.459054030907415
 72
     1
 10
3.561087864675923
 20
4.459054030907415
 11
3.56132760736461
 21
4.459456472227885
 72
     1
 10
3.56132760736461
 20
4.459456472227885
 11
3.561554666717742
 21
4.459866203387737
 72
     1
 10
3.561554666717742
 20
4.459866203387738
 11
3.561580910009777
 21
4.4599155758853
 72
     1
 10
3.561580910009777
 20
4.459915575885299
 11
3.561768821291323
 21
4.460282824788788
 72
     1
 10
3.561768821291324
 20
4.460282824788789
 11
3.56196986222699
 21
4.460705930113012
 72
     1
 10
3.56196986222699
 20
4.460705930113012
 11
3.562157593455707
 21
4.46113510671881
 72
     1
 10
3.562157593455707
 20
4.461135106718809
 11
3.562331831888986
 21
4.461569936043452
 72
     1
 10
3.562331831888986
 20
4.461569936043452
 11
3.562492407597448
 21
4.462009994011284
 72
     1
 10
3.562492407597448
 20
4.462009994011283
 11
3.562639163976546
 21
4.462454851447315
 72
     1
 10
3.562639163976546
 20
4.462454851447315
 11
3.562771957899304
 21
4.462904074495787
 72
     1
 10
3.562771957899305
 20
4.462904074495787
 11
3.562890659855897
 21
4.463357225043288
 72
     1
 10
3.562890659855897
 20
4.463357225043288
 11
3.562995154079959
 21
4.463813861146042
 72
     1
 10
3.562995154079959
 20
4.463813861146042
 11
3.563085338661492
 21
4.464273537460913
 72
     1
 10
3.563085338661492
 20
4.464273537460913
 11
3.56316112564625
 21
4.464735805679743
 72
     1
 10
3.56316112564625
 20
4.464735805679744
 11
3.563222441121519
 21
4.465200214966572
 72
     1
 10
3.563222441121519
 20
4.465200214966571
 11
3.563269225288204
 21
4.465666312397317
 72
     1
 10
3.563269225288204
 20
4.465666312397317
 11
3.563301432519147
 21
4.466133643401505
 72
     1
 10
3.563301432519147
 20
4.466133643401505
 11
3.563319031403628
 21
4.466601752205592
 72
     1
 10
3.563319031403628
 20
4.466601752205592
 11
3.563321501528147
 21
4.466745635199056
 72
     1
 10
3.563321501528147
 20
4.466745635199056
 11
3.563322641991774
 21
4.466945635199055
 72
     1
 10
3.563322641991774
 20
4.466945635199056
 11
3.56332226571396
 21
4.467038393195197
 72
     1
 10
3.56332226571396
 20
4.467038393195197
 11
3.563302091991031
 21
4.467716206023226
 72
     1
 10
3.563302091991031
 20
4.467716206023226
 11
3.563240477400234
 21
4.468499093628648
 72
     1
 10
3.563240477400234
 20
4.468499093628647
 11
3.563137974078638
 21
4.469277683655233
 72
     1
 10
3.563137974078638
 20
4.469277683655233
 11
3.562994862980716
 21
4.470049842041902
 72
     1
 10
3.562994862980716
 20
4.470049842041902
 11
3.562811536364047
 21
4.470813452356166
 72
     1
 10
3.562811536364047
 20
4.470813452356166
 11
3.562588496714141
 21
4.471566421595245
 72
     1
 10
3.562588496714141
 20
4.471566421595246
 11
3.56232635536717
 21
4.472306685922806
 72
     1
 10
3.56232635536717
 20
4.472306685922805
 11
3.562025830834351
 21
4.473032216325764
 72
     1
 10
3.562025830834351
 20
4.473032216325764
 11
3.56179031284524
 21
4.473535864230294
 72
     1
 10
3.56179031284524
 20
4.473535864230294
 11
3.561313030026479
 21
4.474431166679627
 72
     1
 10
3.561313030026478
 20
4.474431166679627
 11
3.560902707488895
 21
4.47510075220485
 72
     1
 10
3.560902707488895
 20
4.47510075220485
 11
3.560457903885327
 21
4.475747945464025
 72
     1
 10
3.560457903885327
 20
4.475747945464025
 11
3.559979838391572
 21
4.476370972545369
 72
     1
 10
3.559979838391572
 20
4.476370972545368
 11
3.55946982135188
 21
4.476968125775003
 72
     1
 10
3.55946982135188
 20
4.476968125775004
 11
3.558929250687509
 21
4.477537768397428
 72
     1
 10
3.558929250687508
 20
4.477537768397427
 11
3.558359608065085
 21
4.478078339061798
 72
     1
 10
3.558359608065085
 20
4.478078339061798
 11
3.557762454835448
 21
4.478588356101493
 72
     1
 10
3.557762454835448
 20
4.478588356101493
 11
3.557139427754111
 21
4.479066421595244
 72
     1
 10
3.557139427754112
 20
4.479066421595244
 11
3.556492234494929
 21
4.479511225198816
 72
     1
 10
3.556492234494929
 20
4.479511225198816
 11
3.555822648969713
 21
4.479921547736394
 72
     1
 10
3.555822648969713
 20
4.479921547736394
 11
3.555132506465808
 21
4.480296264542452
 72
     1
 10
3.555132506465808
 20
4.480296264542452
 11
3.554706878285728
 21
4.480504729809497
 72
     1
 10
3.554706878285727
 20
4.480504729809498
 11
3.554674096553934
 21
4.480520100176591
 72
     1
 10
3.554674096553934
 20
4.480520100176591
 11
3.554246678217536
 21
4.480711800825811
 72
     1
 10
3.554246678217536
 20
4.480711800825811
 11
3.55381348235779
 21
4.480890061646795
 72
     1
 10
3.55381348235779
 20
4.480890061646795
 11
3.553374931457279
 21
4.481054708787253
 72
     1
 10
3.553374931457279
 20
4.481054708787253
 11
3.552931453221196
 21
4.481205581671897
 72
     1
 10
3.552931453221196
 20
4.481205581671897
 11
3.552483480160213
 21
4.481342533159048
 72
     1
 10
3.552483480160213
 20
4.481342533159048
 11
3.552031449168664
 21
4.481465429684138
 72
     1
 10
3.552031449168664
 20
4.481465429684138
 11
3.55157580109846
 21
4.481574151389968
 72
     1
 10
3.55157580109846
 20
4.481574151389968
 11
3.551116980329135
 21
4.481668592243604
 72
     1
 10
3.551116980329135
 20
4.481668592243604
 11
3.55065543433446
 21
4.481748660139792
 72
     1
 10
3.55065543433446
 20
4.481748660139792
 11
3.550191613246036
 21
4.481814276990777
 72
     1
 10
3.550191613246036
 20
4.481814276990777
 11
3.549725969414292
 21
4.481865378802464
 72
     1
 10
3.549725969414292
 20
4.481865378802464
 11
3.549258956967319
 21
4.481901915736827
 72
     1
 10
3.549258956967319
 20
4.481901915736827
 11
3.548791031367982
 21
4.481923852160522
 72
     1
 10
3.548791031367982
 20
4.481923852160522
 11
3.548322648969711
 21
4.481931166679629
 72
     1
 10
3.548322648969711
 20
4.48193116667963
 11
3.548322648969711
 21
4.481945635199056
 72
     1
 10
3.548322648969711
 20
4.481945635199056
 11
3.533308180450283
 21
4.481945635199056
 72
     1
 10
3.533308180450282
 20
4.481945635199056
 11
3.532848070781677
 21
4.481330150111027
 72
     1
 10
3.532848070781677
 20
4.481330150111027
 11
3.532407456774298
 21
4.480700561279097
 72
     1
 10
3.532407456774298
 20
4.480700561279097
 11
3.53198677044187
 21
4.480057486003238
 72
     1
 10
3.53198677044187
 20
4.480057486003237
 11
3.531586424259307
 21
4.479401554806482
 72
     1
 10
3.531586424259307
 20
4.479401554806482
 11
3.531206810758476
 21
4.478733410816969
 72
     1
 10
3.531206810758476
 20
4.478733410816969
 11
3.530848302143188
 21
4.478053709137162
 72
     1
 10
3.530848302143188
 20
4.478053709137162
 11
3.53051124992436
 21
4.477363116201705
 72
     1
 10
3.53051124992436
 20
4.477363116201705
 11
3.530195984575262
 21
4.476662309123791
 72
     1
 10
3.530195984575262
 20
4.476662309123791
 11
3.529902815207624
 21
4.475951975031548
 72
     1
 10
3.529902815207624
 20
4.475951975031548
 11
3.529632029268422
 21
4.475232810394012
 72
     1
 10
3.529632029268422
 20
4.475232810394012
 11
3.529383892258137
 21
4.474505520338481
 72
     1
 10
3.529383892258137
 20
4.474505520338482
 11
3.529158647470399
 21
4.473770817959054
 72
     1
 10
3.529158647470399
 20
4.473770817959053
 11
3.528956515753445
 21
4.473029423617458
 72
     1
 10
3.528956515753445
 20
4.473029423617458
 11
3.528777695293587
 21
4.472282064236775
 72
     1
 10
3.528777695293587
 20
4.472282064236775
 11
3.528622361420894
 21
4.471529472588701
 72
     1
 10
3.528622361420894
 20
4.471529472588702
 11
3.528490666437282
 21
4.470772386575073
 72
     1
 10
3.528490666437281
 20
4.470772386575073
 11
3.528382739467178
 21
4.470011548504336
 72
     1
 10
3.528382739467179
 20
4.470011548504336
 11
3.528298686330937
 21
4.469247704363841
 72
     1
 10
3.528298686330936
 20
4.469247704363841
 11
3.528238589441048
 21
4.468481603088104
 72
     1
 10
3.528238589441048
 20
4.468481603088103
 11
3.528202507721388
 21
4.467713995825108
 72
     1
 10
3.528202507721387
 20
4.467713995825108
 11
3.528190476549387
 21
4.466945635199037
 72
     1
 10
3.528190476549387
 20
4.466945635199037
 11
3.528202507721387
 21
4.466177274573004
 72
     1
 10
3.528202507721387
 20
4.466177274573005
 11
3.528238589441045
 21
4.465409667310029
 72
     1
 10
3.528238589441045
 20
4.465409667310029
 11
3.528298686330936
 21
4.464643566034287
 72
     1
 10
3.528298686330936
 20
4.464643566034287
 11
3.528382739467176
 21
4.463879721893798
 72
     1
 10
3.528382739467176
 20
4.463879721893798
 11
3.528490666437281
 21
4.463118883823041
 72
     1
 10
3.528490666437281
 20
4.463118883823041
 11
3.528622361420894
 21
4.46236179780941
 72
     1
 10
3.528622361420894
 20
4.46236179780941
 11
3.528777695293584
 21
4.461609206161351
 72
     1
 10
3.528777695293584
 20
4.461609206161351
 11
3.528956515753439
 21
4.460861846780676
 72
     1
 10
3.528956515753439
 20
4.460861846780675
 11
3.529158647470393
 21
4.460120452439082
 72
     1
 10
3.529158647470393
 20
4.460120452439082
 11
3.529383892258134
 21
4.459385750059639
 72
     1
 10
3.529383892258135
 20
4.459385750059639
 11
3.529632029268422
 21
4.4586584600041
 72
     1
 10
3.529632029268422
 20
4.4586584600041
 11
3.529902815207624
 21
4.457939295366565
 72
     1
 10
3.529902815207624
 20
4.457939295366565
 11
3.530195984575262
 21
4.45722896127432
 72
     1
 10
3.530195984575262
 20
4.45722896127432
 11
3.530511249924347
 21
4.456528154196436
 72
     1
 10
3.530511249924347
 20
4.456528154196436
 11
3.530848302143188
 21
4.45583756126095
 72
     1
 10
3.530848302143188
 20
4.45583756126095
 11
3.531206810758468
 21
4.455157859581159
 72
     1
 10
3.531206810758468
 20
4.455157859581159
 11
3.531586424259309
 21
4.454489715591628
 72
     1
 10
3.531586424259309
 20
4.454489715591628
 11
3.53198677044187
 21
4.453833784394875
 72
     1
 10
3.53198677044187
 20
4.453833784394874
 11
3.532407456774298
 21
4.453190709119017
 72
     1
 10
3.532407456774298
 20
4.453190709119017
 11
3.532848070781661
 21
4.452561120287106
 72
     1
 10
3.532848070781661
 20
4.452561120287106
 11
3.533308180450283
 21
4.451945635199055
 97
        0
 75
     0
 76
     2
 52
90.0
 41
0.005
 77
     0
 78
     2
 53
135.0
 43
0.0
 44
0.0
 45
-0.0053033008588991
 46
-0.0053033008588991
 79
     0
 53
225.0
 43
0.0
 44
0.0
 45
0.0053033008588991
 46
-0.0053033008588991
 79
     0
 98
        0
1001
ACAD
1010
0.0
1020
0.0
1030
0.0
1001
NEM_ODX
1002
{
1000
BZM_DEPEND
1070
     1
1000
BZM_SCALE
1040
5.0
1000
SCHRAFFUR_304
1002
}
  0
HATCH
  5
99
330
1F
100
AcDbEntity
  8
XR$1$TB_1408_1
  6
AUSGEZOGEN
 62
     9
440
 33554687
370
    -3
100
AcDbHatch
 10
0.0
 20
0.0
 30
0.0
210
0.0
220
0.0
230
1.0
  2
SOLID
 70
     1
 71
     0
 91
        1
 92
        3
 72
     0
 73
     1
 93
       12
 10
3.533308180450282
 20
3.973535815752256
 10
3.533308180450282
 20
4.451945635199055
 10
3.521308180450282
 20
4.451945635199055
 10
3.518743255174722
 20
4.451369762624808
 10
3.516670686606223
 20
4.449752687975981
 10
3.515488319877072
 20
4.447404820899494
 10
3.515439294845883
 20
4.447193105343962
 10
3.515382050406713
 20
4.446884241989297
 10
3.515341049078073
 20
4.446572805978661
 10
3.515316403241753
 20
4.446259650936514
 10
3.515308180450282
 20
4.445945635199056
 10
3.515308180450282
 20
3.973535815752256
 97
        0
 75
     0
 76
     1
 98
        0
  0
HATCH
  5
9A
330
1F
100
AcDbEntity
  8
XR$1$TB_1408_1
  6
AUSGEZOGEN
 62
     9
440
 33554687
370
    -3
100
AcDbHatch
 10
0.0
 20
0.0
 30
0.0
210
0.0
220
0.0
230
1.0
  2
SOLID
 70
     1
 71
     0
 91
        1
 92
        3
 72
     0
 73
     1
 93
       34
 10
3.521308180450282
 20
4.499945635199055
 10
3.520994164712822
 20
4.499937412407584
 10
3.520681009670672
 20
4.499912766571266
 10
3.520369573660043
 20
4.499871765242628
 10
3.520060710305373
 20
4.499814520803459
 10
3.519755266179672
 20
4.49974119015679
 10
3.519454078484032
 20
4.499651974296826
 10
3.519157972753013
 20
4.499547117758039
 10
3.518867760591832
 20
4.499426907944912
 10
3.518584237451842
 20
4.499291674344185
 10
3.518308180450282
 20
4.499141787621762
 10
3.518040346240193
 20
4.498977658606729
 10
3.517781468936533
 20
4.498799737165306
 10
3.517532258103982
 20
4.498608510967797
 10
3.517293396812132
 20
4.49840450415192
 10
3.517065539763162
 20
4.498188275886176
 10
3.516849311497423
 20
4.497960418837208
 10
3.516645304681542
 20
4.497721557545356
 10
3.516454078484033
 20
4.497472346712811
 10
3.516276157042612
 20
4.497213469409146
 10
3.516112028027572
 20
4.496945635199056
 10
3.515962141305152
 20
4.496669578197494
 10
3.515826907704422
 20
4.49638605505751
 10
3.515706697891303
 20
4.496095842896327
 10
3.515601841352513
 20
4.495799737165306
 10
3.515512625492553
 20
4.49549854946967
 10
3.515439294845883
 20
4.495193105343962
 10
3.515382050406713
 20
4.494884241989297
 10
3.515341049078073
 20
4.494572805978661
 10
3.515316403241753
 20
4.494259650936514
 10
3.515308180450282
 20
4.493945635199056
 10
3.515308180450282
 20
4.481945635199056
 10
3.938117895628153
 20
4.481945635199056
 10
3.938117895628153
 20
4.499945635199055
 97
        0
 75
     0
 76
     1
 98
        0
  0
ARC
  5
9B
330
1F
100
AcDbEntity
  8
XR$1$TB_1408_1
  6
AUSGEZOGEN
 62
    14
440
 33554687
370
    -3
100
AcDbCircle
 10
3.448008
 20
4.464324
 30
0.0
 40
0.0695687354119341
100
AcDbArc
 50
345.924657
 51
14.672963
  0
LINE
  5
9C
330
1F
100
AcDbEntity
  8
XR$1$TB_1408_1
  6
STRICHPUNKT2_S5
 62
    14
440
 33554687
370
    -3
100
AcDbLine
 10
3.435694
 20
3.973536
 30
0.0
 11
3.865056
 21
3.973536
 31
0.0
  0
ARC
  5
9D
330
1F
100
AcDbEntity
  8
XR$1$TB_1408_1
  6
AUSGEZOGEN
 62
    94
440
 33554687
370
    25
100
AcDbCircle
 10
3.521308
 20
4.493946
 30
0.0
 40
0.006
100
AcDbArc
 50
90.0
 51
180.0
  0
LINE
  5
9E
330
1F
100
AcDbEntity
  8
XR$1$TB_1408_1
  6
AUSGEZOGEN
 62
    94
440
 33554687
370
    25
100
AcDbLine
 10
3.515308
 20
4.481946
 30
0.0
 11
3.515308
 21
4.493946
 31
0.0
  0
LINE
  5
9F
330
1F
100
AcDbEntity
  8
XR$1$TB_1408_1
  6
AUSGEZOGEN
 62
    94
440
 33554687
370
    25
100
AcDbLine
 10
3.521308
 20
4.451946
 30
0.0
 11
3.533308
 21
4.451946
 31
0.0
  0
LINE
  5
A0
330
1F
100
AcDbEntity
  8
XR$1$TB_1408_1
  6
AUSGEZOGEN
 62
    94
440
 33554687
370
    25
100
AcDbLine
 10
3.533308
 20
3.973536
 30
0.0
 11
3.533308
 21
4.451946
 31
0.0
  0
LINE
  5
A1
330
1F
100
AcDbEntity
  8
XR$1$TB_1408_1
  6
AUSGEZOGEN
 62
    94
440
 33554687
370
    25
100
AcDbLine
 10
3.515308
 20
3.973536
 30
0.0
 11
3.515308
 21
4.445946
 31
0.0
  0
ARC
  5
A2
330
1F
100
AcDbEntity
  8
XR$1$TB_1408_1
  6
AUSGEZOGEN
 62
    94
440
 33554687
370
    25
100
AcDbCircle
 10
3.521308
 20
4.445946
 30
0.0
 40
0.006
100
AcDbArc
 50
90.0
 51
180.0
  0
LINE
  5
A3
330
1F
100
AcDbEntity
  8
XR$1$TB_1408_1
  6
STRICHPUNKT2_S5
 62
    14
440
 33554687
370
    -3
100
AcDbLine
 10
3.938118
 20
4.545511
 30
0.0
 11
3.938118
 21
4.137511
 31
0.0
  0
LINE
  5
A4
330
1F
100
AcDbEntity
  8
XR$1$TB_1408_1
  6
AUSGEZOGEN
 62
    94
440
 33554687
370
    25
100
AcDbLine
 10
3.521308
 20
4.499946
 30
0.0
 11
3.938118
 21
4.499946
 31
0.0
  0
LINE
  5
A5
330
1F
100
AcDbEntity
  8
XR$1$TB_1408_1
  6
AUSGEZOGEN
 62
    94
440
 33554687
370
    25
100
AcDbLine
 10
3.515308
 20
4.481946
 30
0.0
 11
3.938118
 21
4.481946
 31
0.0
  0
LINE
  5
A6
330
1F
100
AcDbEntity
  8
XR$1$TB_1408_1
  6
AUSGEZOGEN
 62
   174
440
 33554687
370
    35
100
AcDbLine
 10
3.593308
 20
3.973536
 30
0.0
 11
3.593308
 21
4.421946
 31
0.0
  0
LINE
  5
A7
330
1F
100
AcDbEntity
  8
XR$1$TB_1408_1
  6
AUSGEZOGEN
 62
   174
440
 33554687
370
    35
100
AcDbLine
 10
3.593308
 20
4.421946
 30
0.0
 11
3.938118
 21
4.421946
 31
0.0
  0
LINE
  5
A8
330
1F
100
AcDbEntity
  8
XR$1$TB_1408_1
  6
AUSGEZOGEN
 62
    54
440
 33554687
370
    -3
100
AcDbLine
 10
3.563323
 20
4.466946
 30
0.0
 11
3.938118
 21
4.466946
 31
0.0
  0
LINE
  5
A9
330
1F
100
AcDbEntity
  8
XR$1$TB_1408_1
  6
VERDECKT2_S2
 62
     7
440
 33554687
370
    50
100
AcDbLine
 10
3.563322
 20
4.466746
 30
0.0
 11
3.938118
 21
4.466746
 31
0.0
  0
LINE
  5
AA
330
1F
100
AcDbEntity
  8
XR$1$TB_1408_1
  6
AUSGEZOGEN
 62
    14
440
 33554687
370
    -3
100
AcDbLine
 10
3.562111
 20
4.457385
 30
0.0
 11
3.561051
 21
4.449961
 31
0.0
  0
ARC
  5
AB
330
1F
100
AcDbEntity
  8
XR$1$TB_1408_1
  6
AUSGEZOGEN
 62
    14
440
 33554687
370
    -3
100
AcDbCircle
 10
3.558929
 20
4.466931
 30
0.0
 40
0.0074999978542328
100
AcDbArc
 50
290.704956
 51
315.0
  0
ARC
  5
AC
330
1F
100
AcDbEntity
  8
XR$1$TB_1408_1
  6
AUSGEZOGEN
 62
    14
440
 33554687
370
    -3
100
AcDbCircle
 10
3.569536
 20
4.456325
 30
0.0
 40
0.0074999978542328
100
AcDbArc
 50
45.000105
 51
135.000036
  0
ARC
  5
AD
330
1F
100
AcDbEntity
  8
XR$1$TB_1408_1
  6
AUSGEZOGEN
 62
    14
440
 33554687
370
    -3
100
AcDbCircle
 10
3.569536
 20
4.456325
 30
0.0
 40
0.0074999978542328
100
AcDbArc
 50
135.000036
 51
171.869903
  0
ARC
  5
AE
330
1F
100
AcDbEntity
  8
XR$1$TB_1408_1
  6
AUSGEZOGEN
 62
    14
440
 33554687
370
    -3
100
AcDbCircle
 10
3.553626
 20
4.451021
 30
0.0
 40
0.0074999978542328
100
AcDbArc
 50
224.999997
 51
351.869873
  0
LINE
  5
AF
330
1F
100
AcDbEntity
  8
XR$1$TB_1408_1
  6
AUSGEZOGEN
 62
    14
440
 33554687
370
    -3
100
AcDbLine
 10
3.570596
 20
4.4489
 30
0.0
 11
3.563172
 21
4.447839
 31
0.0
  0
LINE
  5
B0
330
1F
100
AcDbEntity
  8
XR$1$TB_1408_1
  6
AUSGEZOGEN
 62
    14
440
 33554687
370
    -3
100
AcDbLine
 10
3.572718
 20
4.446779
 30
0.0
 11
3.571657
 21
4.439354
 31
0.0
  0
ARC
  5
B1
330
1F
100
AcDbEntity
  8
XR$1$TB_1408_1
  6
AUSGEZOGEN
 62
    14
440
 33554687
370
    -3
100
AcDbCircle
 10
3.569536
 20
4.456325
 30
0.0
 40
0.0074999978542328
100
AcDbArc
 50
278.130096
 51
315.0
  0
ARC
  5
B2
330
1F
100
AcDbEntity
  8
XR$1$TB_1408_1
  6
AUSGEZOGEN
 62
    14
440
 33554687
370
    -3
100
AcDbCircle
 10
3.569536
 20
4.456325
 30
0.0
 40
0.0074999978542328
100
AcDbArc
 50
315.0
 51
45.000125
  0
ARC
  5
B3
330
1F
100
AcDbEntity
  8
XR$1$TB_1408_1
  6
AUSGEZOGEN
 62
    14
440
 33554687
370
    -3
100
AcDbCircle
 10
3.580142
 20
4.445718
 30
0.0
 40
0.0074999978542328
100
AcDbArc
 50
135.000036
 51
171.869903
  0
ARC
  5
B4
330
1F
100
AcDbEntity
  8
XR$1$TB_1408_1
  6
AUSGEZOGEN
 62
    14
440
 33554687
370
    -3
100
AcDbCircle
 10
3.564233
 20
4.440415
 30
0.0
 40
0.0074999978542328
100
AcDbArc
 50
224.999997
 51
351.869873
  0
ARC
  5
B5
330
1F
100
AcDbEntity
  8
XR$1$TB_1408_1
  6
AUSGEZOGEN
 62
    14
440
 33554687
370
    -3
100
AcDbCircle
 10
3.564233
 20
4.440415
 30
0.0
 40
0.0074999978542328
100
AcDbArc
 50
98.130152
 51
224.999997
  0
LINE
  5
B6
330
1F
100
AcDbEntity
  8
XR$1$TB_1408_1
  6
AUSGEZOGEN
 62
    54
440
 33554687
370
    -3
100
AcDbLine
 10
3.569521
 20
4.466946
 30
0.0
 11
3.614521
 21
4.421946
 31
0.0
  0
ARC
  5
B7
330
1F
100
AcDbEntity
  8
XR$1$TB_1408_1
  6
AUSGEZOGEN
 62
    14
440
 33554687
370
    -3
100
AcDbCircle
 10
3.558929
 20
4.466931
 30
0.0
 40
0.0074999978542328
100
AcDbArc
 50
315.0
 51
0.11047
  0
ARC
  5
B8
330
1F
100
AcDbEntity
  8
XR$1$TB_1408_1
  6
AUSGEZOGEN
 62
    14
440
 33554687
370
    -3
100
AcDbCircle
 10
3.580142
 20
4.445718
 30
0.0
 40
0.0074999978542328
100
AcDbArc
 50
45.000105
 51
135.000036
  0
LINE
  5
B9
330
1F
100
AcDbEntity
  8
XR$1$TB_1408_1
  6
AUSGEZOGEN
 62
    14
440
 33554687
370
    -3
100
AcDbLine
 10
3.581203
 20
4.438293
 30
0.0
 11
3.573778
 21
4.437233
 31
0.0
  0
LINE
  5
BA
330
1F
100
AcDbEntity
  8
XR$1$TB_1408_1
  6
AUSGEZOGEN
 62
    14
440
 33554687
370
    -3
100
AcDbLine
 10
3.583324
 20
4.436172
 30
0.0
 11
3.582264
 21
4.428747
 31
0.0
  0
ARC
  5
BB
330
1F
100
AcDbEntity
  8
XR$1$TB_1408_1
  6
AUSGEZOGEN
 62
    14
440
 33554687
370
    -3
100
AcDbCircle
 10
3.580142
 20
4.445718
 30
0.0
 40
0.0074999978542328
100
AcDbArc
 50
278.130096
 51
315.0
  0
ARC
  5
BC
330
1F
100
AcDbEntity
  8
XR$1$TB_1408_1
  6
AUSGEZOGEN
 62
    14
440
 33554687
370
    -3
100
AcDbCircle
 10
3.580142
 20
4.445718
 30
0.0
 40
0.0074999978542328
100
AcDbArc
 50
315.0
 51
45.000125
  0
ARC
  5
BD
330
1F
100
AcDbEntity
  8
XR$1$TB_1408_1
  6
AUSGEZOGEN
 62
    14
440
 33554687
370
    -3
100
AcDbCircle
 10
3.590749
 20
4.435111
 30
0.0
 40
0.0074999978542328
100
AcDbArc
 50
135.000036
 51
171.869903
  0
ARC
  5
BE
330
1F
100
AcDbEntity
  8
XR$1$TB_1408_1
  6
AUSGEZOGEN
 62
    14
440
 33554687
370
    -3
100
AcDbCircle
 10
3.574839
 20
4.429808
 30
0.0
 40
0.0074999978542328
100
AcDbArc
 50
224.999997
 51
351.869873
  0
ARC
  5
BF
330
1F
100
AcDbEntity
  8
XR$1$TB_1408_1
  6
AUSGEZOGEN
 62
    14
440
 33554687
370
    -3
100
AcDbCircle
 10
3.574839
 20
4.429808
 30
0.0
 40
0.0074999978542328
100
AcDbArc
 50
98.130152
 51
224.999997
  0
ARC
  5
C0
330
1F
100
AcDbEntity
  8
XR$1$TB_1408_1
  6
AUSGEZOGEN
 62
    14
440
 33554687
370
    -3
100
AcDbCircle
 10
3.590749
 20
4.435111
 30
0.0
 40
0.0074999978542328
100
AcDbArc
 50
45.000105
 51
135.000036
  0
LINE
  5
C1
330
1F
100
AcDbEntity
  8
XR$1$TB_1408_1
  6
AUSGEZOGEN
 62
    14
440
 33554687
370
    -3
100
AcDbLine
 10
3.59181
 20
4.427687
 30
0.0
 11
3.584385
 21
4.426626
 31
0.0
  0
LINE
  5
C2
330
1F
100
AcDbEntity
  8
XR$1$TB_1408_1
  6
AUSGEZOGEN
 62
    14
440
 33554687
370
    -3
100
AcDbLine
 10
3.593931
 20
4.425566
 30
0.0
 11
3.59287
 21
4.418141
 31
0.0
  0
ARC
  5
C3
330
1F
100
AcDbEntity
  8
XR$1$TB_1408_1
  6
AUSGEZOGEN
 62
    14
440
 33554687
370
    -3
100
AcDbCircle
 10
3.590749
 20
4.435111
 30
0.0
 40
0.0074999978542328
100
AcDbArc
 50
278.130096
 51
315.0
  0
ARC
  5
C4
330
1F
100
AcDbEntity
  8
XR$1$TB_1408_1
  6
AUSGEZOGEN
 62
    14
440
 33554687
370
    -3
100
AcDbCircle
 10
3.590749
 20
4.435111
 30
0.0
 40
0.0074999978542328
100
AcDbArc
 50
315.0
 51
45.000125
  0
ARC
  5
C5
330
1F
100
AcDbEntity
  8
XR$1$TB_1408_1
  6
AUSGEZOGEN
 62
    14
440
 33554687
370
    -3
100
AcDbCircle
 10
3.601356
 20
4.424505
 30
0.0
 40
0.0074999978542328
100
AcDbArc
 50
135.000036
 51
171.869903
  0
ARC
  5
C6
330
1F
100
AcDbEntity
  8
XR$1$TB_1408_1
  6
AUSGEZOGEN
 62
    14
440
 33554687
370
    -3
100
AcDbCircle
 10
3.585446
 20
4.419202
 30
0.0
 40
0.0074999978542328
100
AcDbArc
 50
224.999997
 51
351.869873
  0
ARC
  5
C7
330
1F
100
AcDbEntity
  8
XR$1$TB_1408_1
  6
AUSGEZOGEN
 62
    14
440
 33554687
370
    -3
100
AcDbCircle
 10
3.585446
 20
4.419202
 30
0.0
 40
0.0074999978542328
100
AcDbArc
 50
98.130152
 51
224.999997
  0
ARC
  5
C8
330
1F
100
AcDbEntity
  8
XR$1$TB_1408_1
  6
AUSGEZOGEN
 62
    14
440
 33554687
370
    -3
100
AcDbCircle
 10
3.601356
 20
4.424505
 30
0.0
 40
0.0074999978542328
100
AcDbArc
 50
45.000105
 51
135.000036
  0
ARC
  5
C9
330
1F
100
AcDbEntity
  8
XR$1$TB_1408_1
  6
AUSGEZOGEN
 62
    14
440
 33554687
370
    -3
100
AcDbCircle
 10
3.596052
 20
4.408595
 30
0.0
 40
0.0074999978542328
100
AcDbArc
 50
224.999997
 51
248.538921
  0
ARC
  5
CA
330
1F
100
AcDbEntity
  8
XR$1$TB_1408_1
  6
AUSGEZOGEN
 62
    14
440
 33554687
370
    -3
100
AcDbCircle
 10
3.611962
 20
4.413898
 30
0.0
 40
0.0074999978542328
100
AcDbArc
 50
135.000036
 51
135.103172
  0
ARC
  5
CB
330
1F
100
AcDbEntity
  8
XR$1$TB_1408_1
  6
AUSGEZOGEN
 62
    14
440
 33554687
370
    -3
100
AcDbCircle
 10
3.601356
 20
4.424505
 30
0.0
 40
0.0074999978542328
100
AcDbArc
 50
314.896828
 51
315.0
  0
ARC
  5
CC
330
1F
100
AcDbEntity
  8
XR$1$TB_1408_1
  6
AUSGEZOGEN
 62
    14
440
 33554687
370
    -3
100
AcDbCircle
 10
3.601356
 20
4.424505
 30
0.0
 40
0.0074999978542328
100
AcDbArc
 50
340.047918
 51
45.000125
  0
ARC
  5
CD
330
1F
100
AcDbEntity
  8
XR$1$TB_1408_1
  6
AUSGEZOGEN
 62
    14
440
 33554687
370
    -3
100
AcDbCircle
 10
3.596052
 20
4.408595
 30
0.0
 40
0.0074999978542328
100
AcDbArc
 50
111.461079
 51
225.074018
  0
LINE
  5
CE
330
1F
100
AcDbEntity
  8
XR$1$TB_1408_1
  6
AUSGEZOGEN
 62
    54
440
 33554687
370
    -3
100
AcDbLine
 10
3.548308
 20
3.973536
 30
0.0
 11
3.548308
 21
4.451946
 31
0.0
  0
LINE
  5
CF
330
1F
100
AcDbEntity
  8
XR$1$TB_1408_1
  6
VERDECKT2_S2
 62
     7
440
 33554687
370
    50
100
AcDbLine
 10
3.548508
 20
3.973536
 30
0.0
 11
3.548508
 21
4.451946
 31
0.0
  0
LINE
  5
D0
330
1F
100
AcDbEntity
  8
XR$1$TB_1408_1
  6
AUSGEZOGEN
 62
    54
440
 33554687
370
    -3
100
AcDbLine
 10
3.533308
 20
4.451946
 30
0.0
 11
3.548508
 21
4.451946
 31
0.0
  0
LINE
  5
D1
330
1F
100
AcDbEntity
  8
XR$1$TB_1408_1
  6
AUSGEZOGEN
 62
    54
440
 33554687
370
    -3
100
AcDbLine
 10
3.548308
 20
4.445732
 30
0.0
 11
3.593308
 21
4.400732
 31
0.0
  0
ARC
  5
D2
330
1F
100
AcDbEntity
  8
XR$1$TB_1408_1
  6
AUSGEZOGEN
 62
    14
440
 33554687
370
    -3
100
AcDbCircle
 10
3.553626
 20
4.451021
 30
0.0
 40
0.0074999978542328
100
AcDbArc
 50
224.84363
 51
224.999997
  0
ARC
  5
D3
330
1F
100
AcDbEntity
  8
XR$1$TB_1408_1
  6
AUSGEZOGEN
 62
     7
440
 33554687
370
    -3
100
AcDbCircle
 10
3.552732
 20
4.466946
 30
0.0
 40
0.0245413664097806
100
AcDbArc
 50
142.322744
 51
217.677256
  0
ARC
  5
D4
330
1F
100
AcDbEntity
  8
XR$1$TB_1408_1
  6
AUSGEZOGEN
 62
    14
440
 33554687
370
    -3
100
AcDbCircle
 10
3.548323
 20
4.466931
 30
0.0
 40
0.015
100
AcDbArc
 50
267.483256
 51
90.0
  0
LINE
  5
D5
330
1F
100
AcDbEntity
  8
XR$1$TB_1408_1
  6
AUSGEZOGEN
 62
     7
440
 33554687
370
    -3
100
AcDbLine
 10
3.548323
 20
4.481931
 30
0.0
 11
3.548323
 21
4.481946
 31
0.0
  0
LINE
  5
D6
330
1F
100
AcDbEntity
  8
XR$1$TB_1408_1
  6
AUSGEZOGEN
 62
     7
440
 33554687
370
    -3
100
AcDbLine
 10
3.907726
 20
4.577428
 30
0.0
 11
3.907726
 21
4.357041
 31
0.0
  0
MTEXT
  5
D7
330
1F
100
AcDbEntity
  8
XR$1$TB_1408_1
  6
AUSGEZOGEN
 62
    14
440
 33554687
370
    -3
100
AcDbMText
 10
3.901626
 20
4.586451
 30
0.0
 40
0.0175
 41
0.021605
 46
0.0
 71
     7
 72
     5
  1
\W0.90;1
  7
ARIAL
 73
     1
 44
1.0
  0
CIRCLE
  5
D8
330
1F
100
AcDbEntity
  8
XR$1$TB_1408_1
  6
AUSGEZOGEN
 62
     7
440
 33554687
370
    -3
100
AcDbCircle
 10
3.907683
 20
4.595219
 30
0.0
 40
0.0177913987405051
  0
LINE
  5
D9
330
1F
100
AcDbEntity
  8
XR$1$TB_1408_1
  6
AUSGEZOGEN
 62
     7
440
 33554687
370
    -3
100
AcDbLine
 10
3.852726
 20
4.577428
 30
0.0
 11
3.852726
 21
4.447862
 31
0.0
  0
CIRCLE
  5
DA
330
1F
100
AcDbEntity
  8
XR$1$TB_1408_1
  6
AUSGEZOGEN
 62
     7
440
 33554687
370
    -3
100
AcDbCircle
 10
3.85274
 20
4.595219
 30
0.0
 40
0.0177913987405051
  0
MTEXT
  5
DB
330
1F
100
AcDbEntity
  8
XR$1$TB_1408_1
  6
AUSGEZOGEN
 62
    14
440
 33554687
370
    -3
100
AcDbMText
 10
3.846169
 20
4.586451
 30
0.0
 40
0.0175
 41
0.022374
 46
0.0
 71
     7
 72
     5
  1
\W0.99;2
  7
ARIAL
 73
     1
 44
1.0
  0
LINE
  5
DC
330
1F
100
AcDbEntity
  8
XR$1$TB_1408_1
  6
AUSGEZOGEN
 62
    14
440
 33554687
370
    -3
100
AcDbLine
 10
3.797937
 20
4.577428
 30
0.0
 11
3.797635
 21
4.466746
 31
0.0
  0
CIRCLE
  5
DD
330
1F
100
AcDbEntity
  8
XR$1$TB_1408_1
  6
AUSGEZOGEN
 62
     7
440
 33554687
370
    -3
100
AcDbCircle
 10
3.798032
 20
4.595219
 30
0.0
 40
0.0177913987405051
  0
MTEXT
  5
DE
330
1F
100
AcDbEntity
  8
XR$1$TB_1408_1
  6
AUSGEZOGEN
 62
    14
440
 33554687
370
    -3
100
AcDbMText
 10
3.79038
 20
4.586451
 30
0.0
 40
0.0175
 41
0.022374
 46
0.0
 71
     7
 72
     5
  1
\W0.99;3
  7
ARIAL
 73
     1
 44
1.0
  0
LINE
  5
DF
330
1F
100
AcDbEntity
  8
XR$1$TB_1408_1
  6
AUSGEZOGEN
 62
    14
440
 33554687
370
    -3
100
AcDbLine
 10
3.742664
 20
4.577428
 30
0.0
 11
3.742745
 21
4.475245
 31
0.0
  0
CIRCLE
  5
E0
330
1F
100
AcDbEntity
  8
XR$1$TB_1408_1
  6
AUSGEZOGEN
 62
     7
440
 33554687
370
    -3
100
AcDbCircle
 10
3.742759
 20
4.595219
 30
0.0
 40
0.0177913987405051
  0
MTEXT
  5
E1
330
1F
100
AcDbEntity
  8
XR$1$TB_1408_1
  6
AUSGEZOGEN
 62
    14
440
 33554687
370
    -3
100
AcDbMText
 10
3.734541
 20
4.586451
 30
0.0
 40
0.0175
 41
0.022374
 46
0.0
 71
     7
 72
     5
  1
\W0.99;4
  7
ARIAL
 73
     1
 44
1.0
  0
LINE
  5
E2
330
1F
100
AcDbEntity
  8
XR$1$TB_1408_1
  6
AUSGEZOGEN
 62
     7
440
 33554687
370
    -3
100
AcDbLine
 10
3.687726
 20
4.577428
 30
0.0
 11
3.687726
 21
4.487843
 31
0.0
  0
CIRCLE
  5
E3
330
1F
100
AcDbEntity
  8
XR$1$TB_1408_1
  6
AUSGEZOGEN
 62
     7
440
 33554687
370
    -3
100
AcDbCircle
 10
3.687682
 20
4.595219
 30
0.0
 40
0.0177913987405051
  0
MTEXT
  5
E4
330
1F
100
AcDbEntity
  8
XR$1$TB_1408_1
  6
AUSGEZOGEN
 62
    14
440
 33554687
370
    -3
100
AcDbMText
 10
3.679465
 20
4.586451
 30
0.0
 40
0.0175
 41
0.022374
 46
0.0
 71
     7
 72
     5
  1
\W0.99;5
  7
ARIAL
 73
     1
 44
1.0
  0
LINE
  5
E5
330
1F
100
AcDbEntity
  8
XR$1$TB_1408_1
  6
AUSGEZOGEN
 62
     7
440
 33554687
370
    -3
100
AcDbLine
 10
3.632726
 20
4.577428
 30
0.0
 11
3.632726
 21
4.473413
 31
0.0
  0
CIRCLE
  5
E6
330
1F
100
AcDbEntity
  8
XR$1$TB_1408_1
  6
AUSGEZOGEN
 62
     7
440
 33554687
370
    -3
100
AcDbCircle
 10
3.632683
 20
4.595219
 30
0.0
 40
0.0177913987405051
  0
MTEXT
  5
E7
330
1F
100
AcDbEntity
  8
XR$1$TB_1408_1
  6
AUSGEZOGEN
 62
    14
440
 33554687
370
    -3
100
AcDbMText
 10
3.62395
 20
4.58629
 30
0.0
 40
0.0175
 41
0.022374
 46
0.0
 71
     7
 72
     5
  1
\W0.99;8
  7
ARIAL
 73
     1
 44
1.0
  0
LINE
  5
E8
330
1F
100
AcDbEntity
  8
XR$1$TB_1408_1
  6
AUSGEZOGEN
 62
     7
440
 33554687
370
    -3
100
AcDbLine
 10
3.577726
 20
4.577428
 30
0.0
 11
3.577726
 21
4.491649
 31
0.0
  0
CIRCLE
  5
E9
330
1F
100
AcDbEntity
  8
XR$1$TB_1408_1
  6
AUSGEZOGEN
 62
     7
440
 33554687
370
    -3
100
AcDbCircle
 10
3.577821
 20
4.595219
 30
0.0
 40
0.0177913987405051
  0
MTEXT
  5
EA
330
1F
100
AcDbEntity
  8
XR$1$TB_1408_1
  6
AUSGEZOGEN
 62
    14
440
 33554687
370
    -3
100
AcDbMText
 10
3.570169
 20
4.586451
 30
0.0
 40
0.0175
 41
0.022374
 46
0.0
 71
     7
 72
     5
  1
\W0.99;7
  7
ARIAL
 73
     1
 44
1.0
  0
LINE
  5
EB
330
1F
100
AcDbEntity
  8
XR$1$TB_1408_1
  6
AUSGEZOGEN
 62
     7
440
 33554687
370
    -3
100
AcDbLine
 10
3.522726
 20
4.577428
 30
0.0
 11
3.522726
 21
4.464687
 31
0.0
  0
CIRCLE
  5
EC
330
1F
100
AcDbEntity
  8
XR$1$TB_1408_1
  6
AUSGEZOGEN
 62
     7
440
 33554687
370
    -3
100
AcDbCircle
 10
3.522821
 20
4.595219
 30
0.0
 40
0.0177913987405051
  0
MTEXT
  5
ED
330
1F
100
AcDbEntity
  8
XR$1$TB_1408_1
  6
AUSGEZOGEN
 62
    14
440
 33554687
370
    -3
100
AcDbMText
 10
3.515169
 20
4.586451
 30
0.0
 40
0.0175
 41
0.022374
 46
0.0
 71
     7
 72
     5
  1
\W0.99;6
  7
ARIAL
 73
     1
 44
1.0
  0
LINE
  5
EE
330
1F
100
AcDbEntity
  8
XR$1$TB_1408_1
  6
AUSGEZOGEN
 62
     7
440
 33554687
370
    -3
100
AcDbLine
 10
3.543666
 20
4.469464
 30
0.0
 11
3.577726
 21
4.491649
 31
0.0
  0
LINE
  5
EF
330
1F
100
AcDbEntity
  8
XR$1$TB_1408_1
  6
AUSGEZOGEN
 62
     7
440
 33554687
370
    -3
100
AcDbLine
 10
3.575566
 20
4.435776
 30
0.0
 11
3.632726
 21
4.473413
 31
0.0
  0
MTEXT
  5
F0
330
1F
100
AcDbEntity
  8
XR$1$TB_1408_1
  6
AUSGEZOGEN
 62
     7
440
 33554687
370
    -3
100
AcDbMText
 10
4.07953
 20
3.667508
 30
0.0
 40
0.009
 41
0.095517
 46
0.0
 71
     7
 72
     5
  1
\W0.91;STAND: Juli 2019
  7
ARIAL
 73
     1
 44
1.0
  0
VIEWPORT
  5
72
330
6E
100
AcDbEntity
 67
     1
  8
0
100
AcDbViewport
 10
0.105001
 20
0.148499
 30
0.0
 40
0.210202
 41
0.297197
 68
     1
 69
     1
 12
0.105001
 22
0.148499
 13
0.0
 23
0.0
 14
0.5
 24
0.5
 15
0.5
 25
0.5
 16
0.0
 26
0.0
 36
1.0
 17
0.0
 27
0.0
 37
0.0
 42
50.0
 43
0.0
 44
0.0
 45
0.297197
 50
0.0
 51
0.0
 72
   100
 90
   557152
  1

281
     0
 71
     1
 74
     0
110
0.0
120
0.0
130
0.0
111
1.0
121
0.0
131
0.0
112
0.0
122
1.0
132
0.0
 79
     0
146
0.0
170
     0
 61
     5
348
2F
292
     1
282
     1
141
0.0
142
0.0
 63
   256
361
73
  0
VIEWPORT
  5
F3
330
6E
100
AcDbEntity
 67
     1
  8
PLAN_1408
  6
AUSGEZOGEN
 62
     7
370
    35
100
AcDbViewport
 10
0.105001
 20
0.148499
 30
0.0
 40
0.210202
 41
0.297197
 68
     2
 69
     2
 12
0.0
 22
0.0
 13
0.0
 23
0.0
 14
1.0
 24
1.0
 15
0.0
 25
0.0
 16
0.0
 26
0.0
 36
1.0
 17
3.707549
 27
4.306338
 37
0.0
 42
50.0
 43
0.0
 44
0.0
 45
1.485985
 50
0.0
 51
0.0
 72
   100
331
10
331
76
331
78
 90
   557280
  1

281
     0
 71
     1
 74
     0
110
0.0
120
0.0
130
0.0
111
1.0
121
0.0
131
0.0
112
0.0
122
1.0
132
0.0
 79
     0
146
0.0
170
     0
 61
     5
348
2F
292
     1
282
     1
141
0.0
142
0.0
 63
   256
361
F4
  0
ENDSEC
  0
SECTION
  2
OBJECTS
  0
DICTIONARY
  5
C
330
0
100
AcDbDictionary
281
     1
  3
ACAD_DETAILVIEWSTYLE
350
12C
  3
ACAD_GROUP
350
D
  3
ACAD_LAYOUT
350
1A
  3
ACAD_MATERIAL
350
43
  3
ACAD_MLEADERSTYLE
350
6B
  3
ACAD_MLINESTYLE
350
17
  3
ACAD_PLOTSETTINGS
350
19
  3
ACAD_PLOTSTYLENAME
350
E
  3
ACAD_SCALELIST
350
47
  3
ACAD_SECTIONVIEWSTYLE
350
12D
  3
ACAD_TABLESTYLE
350
69
  3
ACAD_VISUALSTYLE
350
2A
  3
ACDB_RECOMPOSE_DATA
350
129
  3
AcDbVariableDictionary
350
F5
  0
SUN
  5
6D
330
29
100
AcDbSun
 90
        1
290
     0
 63
     7
421
 16777215
 40
1.0
291
     1
 91
  2455826
 92
 54000000
292
     0
 70
     2
 71
   256
280
     1
  0
DICTIONARY
  5
F1
330
1F
100
AcDbDictionary
280
     1
281
     1
  3
ACAD_SORTENTS
360
F2
  0
SUN
  5
73
330
72
100
AcDbSun
 90
        1
290
     0
 63
     7
421
 16777215
 40
1.0
291
     1
 91
  2455826
 92
 54000000
292
     0
 70
     2
 71
   256
280
     1
  0
SUN
  5
F4
330
F3
100
AcDbSun
 90
        1
290
     0
 63
     7
421
 16777215
 40
1.0
291
     1
 91
  2455826
 92
 54000000
292
     0
 70
     2
 71
   256
280
     1
  0
DICTIONARY
  5
12C
102
{ACAD_REACTORS
330
C
102
}
330
C
100
AcDbDictionary
281
     1
  0
DICTIONARY
  5
D
102
{ACAD_REACTORS
330
C
102
}
330
C
100
AcDbDictionary
281
     1
  3
VERBUNDBLOCK_0
350
7F
  0
DICTIONARY
  5
1A
102
{ACAD_REACTORS
330
C
102
}
330
C
100
AcDbDictionary
281
     1
  3
Baukeramikfassade 9
350
6F
  3
Model
350
22
  0
DICTIONARY
  5
43
102
{ACAD_REACTORS
330
C
102
}
330
C
100
AcDbDictionary
281
     1
  3
ByBlock
350
45
  3
ByLayer
350
44
  3
Global
350
46
  0
DICTIONARY
  5
6B
102
{ACAD_REACTORS
330
C
102
}
330
C
100
AcDbDictionary
281
     1
  3
Standard
350
6C
  0
DICTIONARY
  5
17
102
{ACAD_REACTORS
330
C
102
}
330
C
100
AcDbDictionary
281
     1
  3
Standard
350
18
  0
DICTIONARY
  5
19
102
{ACAD_REACTORS
330
C
102
}
330
C
100
AcDbDictionary
281
     1
  0
ACDBDICTIONARYWDFLT
  5
E
102
{ACAD_REACTORS
330
C
102
}
330
C
100
AcDbDictionary
281
     1
  3
Normal
350
F
100
AcDbDictionaryWithDefault
340
F
  0
DICTIONARY
  5
47
102
{ACAD_REACTORS
330
C
102
}
330
C
100
AcDbDictionary
281
     1
  3
A0
350
48
  3
A1
350
49
  3
A2
350
4A
  3
A3
350
4B
  3
A4
350
4C
  3
A5
350
4D
  3
A6
350
4E
  3
A7
350
4F
  3
A8
350
50
  3
A9
350
51
  3
B0
350
52
  3
B1
350
53
  3
B2
350
54
  3
B3
350
55
  3
B4
350
56
  3
B5
350
57
  3
B6
350
58
  3
B7
350
59
  3
B8
350
5A
  3
B9
350
5B
  3
C0
350
5C
  3
C1
350
5D
  3
C2
350
5E
  3
C3
350
5F
  3
C4
350
60
  3
C5
350
61
  3
C6
350
62
  3
C7
350
63
  3
C8
350
64
  3
C9
350
65
  3
D0
350
66
  3
D1
350
67
  3
D2
350
68
  0
DICTIONARY
  5
12D
102
{ACAD_REACTORS
330
C
102
}
330
C
100
AcDbDictionary
281
     1
  0
DICTIONARY
  5
69
102
{ACAD_REACTORS
330
C
102
}
330
C
100
AcDbDictionary
281
     1
  3
Standard
350
6A
  0
DICTIONARY
  5
2A
102
{ACAD_REACTORS
330
C
102
}
330
C
100
AcDbDictionary
281
     1
  3
2dWireframe
350
2F
  3
Basic
350
32
  3
Brighten
350
36
  3
ColorChange
350
3A
  3
Conceptual
350
34
  3
Dim
350
35
  3
EdgeColorOff
350
3D
  3
Facepattern
350
39
  3
Flat
350
2B
  3
FlatWithEdges
350
2C
  3
Gouraud
350
2D
  3
GouraudWithEdges
350
2E
  3
Hidden
350
31
  3
JitterOff
350
3B
  3
Linepattern
350
38
  3
OverhangOff
350
3C
  3
Realistic
350
33
  3
Shaded
350
42
  3
Shaded with edges
350
41
  3
Shades of Gray
350
3E
  3
Sketchy
350
3F
  3
Thicken
350
37
  3
Wireframe
350
30
  3
X-Ray
350
40
  0
XRECORD
  5
129
102
{ACAD_REACTORS
330
C
102
}
330
C
100
AcDbXrecord
280
     1
 90
        1
330
6A
  0
DICTIONARY
  5
F5
102
{ACAD_REACTORS
330
C
102
}
330
C
100
AcDbDictionary
281
     1
  3
CANNOSCALE
350
F6
  3
CMLEADERSTYLE
350
12B
  3
CTABLESTYLE
350
12A
  0
SORTENTSTABLE
  5
F2
102
{ACAD_REACTORS
330
F1
102
}
330
F1
100
AcDbSortentsTable
330
1F
331
82
  5
84
331
83
  5
85
331
84
  5
86
331
85
  5
87
331
86
  5
88
331
87
  5
89
331
88
  5
8A
331
89
  5
8B
331
8A
  5
8C
331
8B
  5
8D
331
8C
  5
8E
331
8D
  5
8F
331
8E
  5
90
331
8F
  5
91
331
90
  5
92
331
91
  5
93
331
92
  5
95
331
93
  5
96
331
95
  5
97
331
96
  5
98
331
97
  5
99
331
98
  5
9A
331
99
  5
82
331
9A
  5
83
  0
GROUP
  5
7F
102
{ACAD_REACTORS
330
D
102
}
330
D
100
AcDbGroup
300

 70
     0
 71
     1
340
80
340
81
  0
LAYOUT
  5
6F
102
{ACAD_REACTORS
330
1A
102
}
330
1A
100
AcDbPlotSettings
  1

  2
none_device
  4
none_user_media
  6

 40
0.0
 41
0.0
 42
0.0
 43
0.0
 44
297.0
 45
209.9
 46
0.0
 47
0.0
 48
0.0
 49
0.0
140
0.0
141
0.0
142
1000.0
143
1.0
 70
   688
 72
     1
 73
     1
 74
     5
  7

 75
    33
 76
     0
 77
     2
 78
   300
147
1000.0
148
0.0
149
0.0
100
AcDbLayout
  1
Baukeramikfassade 9
 70
     0
 71
     1
 10
-0.0001
 20
-0.0001
 11
0.210102
 21
0.297097
 12
0.0
 22
0.0
 32
0.0
 14
-0.0001
 24
-0.0001
 34
0.0
 15
0.210102
 25
0.297097
 35
0.0
146
0.0
 13
0.0
 23
0.0
 33
0.0
 16
1.0
 26
0.0
 36
0.0
 17
0.0
 27
1.0
 37
0.0
 76
     0
330
6E
331
72
  0
LAYOUT
  5
22
102
{ACAD_REACTORS
330
1A
102
}
330
1A
100
AcDbPlotSettings
  1

  2
none_device
  4
Letter_(8.50_x_11.00_Inches)
  6

 40
6.35
 41
6.35
 42
6.350005
 43
6.350005
 44
215.9
 45
279.4
 46
0.0
 47
0.0
 48
0.0
 49
0.0
140
0.0
141
0.0
142
1.0
143
1.0
 70
  1712
 72
     0
 73
     0
 74
     0
  7

 75
     0
 76
     0
 77
     2
 78
   300
147
1.0
148
0.0
149
0.0
100
AcDbLayout
  1
Model
 70
     1
 71
     0
 10
3.182544
 20
3.563845
 11
4.232554
 21
5.04883
 12
0.0
 22
0.0
 32
0.0
 14
3.182544
 24
3.563845
 34
3.182544
 15
4.232554
 25
5.04883
 35
4.232554
146
0.0
 13
0.0
 23
0.0
 33
0.0
 16
1.0
 26
0.0
 36
0.0
 17
0.0
 27
1.0
 37
0.0
 76
     0
330
1F
331
29
  0
MATERIAL
  5
45
102
{ACAD_REACTORS
330
43
102
}
330
43
100
AcDbMaterial
  1
ByBlock
 72
     1
 94
      127
  0
MATERIAL
  5
44
102
{ACAD_REACTORS
330
43
102
}
330
43
100
AcDbMaterial
  1
ByLayer
 72
     1
 94
      127
  0
MATERIAL
  5
46
102
{ACAD_REACTORS
330
43
102
}
330
43
100
AcDbMaterial
  1
Global
 72
     1
 94
      127
  0
MLEADERSTYLE
  5
6C
102
{ACAD_REACTORS
330
6B
102
}
330
6B
100
AcDbMLeaderStyle
179
     2
170
     2
171
     1
172
     0
 90
        2
 40
0.0
 41
0.0
173
     1
 91
-1056964608
340
14
 92
       -2
290
     1
 42
0.09
291
     1
 43
0.36
  3
Standard
341
0
 44
0.18
300

342
11
174
     1
178
     6
175
     1
176
     0
 93
-1056964608
 45
0.18
292
     0
297
     0
 46
0.18
343
0
 94
-1056964608
 47
1.0
 49
1.0
140
1.0
293
     1
141
0.0
294
     1
177
     0
142
1.0
295
     0
296
     0
143
0.125
271
     0
272
     9
273
     9
  0
MLINESTYLE
  5
18
102
{ACAD_REACTORS
330
17
102
}
330
17
100
AcDbMlineStyle
  2
Standard
 70
     0
  3

 62
   256
 51
90.0
 52
90.0
 71
     2
 49
0.5
 62
   256
  6
BYLAYER
 49
-0.5
 62
   256
  6
BYLAYER
  0
ACDBPLACEHOLDER
  5
F
102
{ACAD_REACTORS
330
E
102
}
330
E
  0
SCALE
  5
48
102
{ACAD_REACTORS
330
47
102
}
330
47
100
AcDbScale
 70
     0
300
1:1
140
1.0
141
1.0
290
     1
  0
SCALE
  5
49
102
{ACAD_REACTORS
330
47
102
}
330
47
100
AcDbScale
 70
     0
300
1:2
140
1.0
141
2.0
290
     0
  0
SCALE
  5
4A
102
{ACAD_REACTORS
330
47
102
}
330
47
100
AcDbScale
 70
     0
300
1:4
140
1.0
141
4.0
290
     0
  0
SCALE
  5
4B
102
{ACAD_REACTORS
330
47
102
}
330
47
100
AcDbScale
 70
     0
300
1:5
140
1.0
141
5.0
290
     0
  0
SCALE
  5
4C
102
{ACAD_REACTORS
330
47
102
}
330
47
100
AcDbScale
 70
     0
300
1:8
140
1.0
141
8.0
290
     0
  0
SCALE
  5
4D
102
{ACAD_REACTORS
330
47
102
}
330
47
100
AcDbScale
 70
     0
300
1:10
140
1.0
141
10.0
290
     0
  0
SCALE
  5
4E
102
{ACAD_REACTORS
330
47
102
}
330
47
100
AcDbScale
 70
     0
300
1:16
140
1.0
141
16.0
290
     0
  0
SCALE
  5
4F
102
{ACAD_REACTORS
330
47
102
}
330
47
100
AcDbScale
 70
     0
300
1:20
140
1.0
141
20.0
290
     0
  0
SCALE
  5
50
102
{ACAD_REACTORS
330
47
102
}
330
47
100
AcDbScale
 70
     0
300
1:30
140
1.0
141
30.0
290
     0
  0
SCALE
  5
51
102
{ACAD_REACTORS
330
47
102
}
330
47
100
AcDbScale
 70
     0
300
1:40
140
1.0
141
40.0
290
     0
  0
SCALE
  5
52
102
{ACAD_REACTORS
330
47
102
}
330
47
100
AcDbScale
 70
     0
300
1:50
140
1.0
141
50.0
290
     0
  0
SCALE
  5
53
102
{ACAD_REACTORS
330
47
102
}
330
47
100
AcDbScale
 70
     0
300
1:100
140
1.0
141
100.0
290
     0
  0
SCALE
  5
54
102
{ACAD_REACTORS
330
47
102
}
330
47
100
AcDbScale
 70
     0
300
2:1
140
2.0
141
1.0
290
     0
  0
SCALE
  5
55
102
{ACAD_REACTORS
330
47
102
}
330
47
100
AcDbScale
 70
     0
300
4:1
140
4.0
141
1.0
290
     0
  0
SCALE
  5
56
102
{ACAD_REACTORS
330
47
102
}
330
47
100
AcDbScale
 70
     0
300
8:1
140
8.0
141
1.0
290
     0
  0
SCALE
  5
57
102
{ACAD_REACTORS
330
47
102
}
330
47
100
AcDbScale
 70
     0
300
10:1
140
10.0
141
1.0
290
     0
  0
SCALE
  5
58
102
{ACAD_REACTORS
330
47
102
}
330
47
100
AcDbScale
 70
     0
300
100:1
140
100.0
141
1.0
290
     0
  0
SCALE
  5
59
102
{ACAD_REACTORS
330
47
102
}
330
47
100
AcDbScale
 70
     0
300
1/128" = 1'-0"
140
0.007812
141
12.0
290
     0
  0
SCALE
  5
5A
102
{ACAD_REACTORS
330
47
102
}
330
47
100
AcDbScale
 70
     0
300
1/64" = 1'-0"
140
0.015625
141
12.0
290
     0
  0
SCALE
  5
5B
102
{ACAD_REACTORS
330
47
102
}
330
47
100
AcDbScale
 70
     0
300
1/32" = 1'-0"
140
0.03125
141
12.0
290
     0
  0
SCALE
  5
5C
102
{ACAD_REACTORS
330
47
102
}
330
47
100
AcDbScale
 70
     0
300
1/16" = 1'-0"
140
0.0625
141
12.0
290
     0
  0
SCALE
  5
5D
102
{ACAD_REACTORS
330
47
102
}
330
47
100
AcDbScale
 70
     0
300
3/32" = 1'-0"
140
0.09375
141
12.0
290
     0
  0
SCALE
  5
5E
102
{ACAD_REACTORS
330
47
102
}
330
47
100
AcDbScale
 70
     0
300
1/8" = 1'-0"
140
0.125
141
12.0
290
     0
  0
SCALE
  5
5F
102
{ACAD_REACTORS
330
47
102
}
330
47
100
AcDbScale
 70
     0
300
3/16" = 1'-0"
140
0.1875
141
12.0
290
     0
  0
SCALE
  5
60
102
{ACAD_REACTORS
330
47
102
}
330
47
100
AcDbScale
 70
     0
300
1/4" = 1'-0"
140
0.25
141
12.0
290
     0
  0
SCALE
  5
61
102
{ACAD_REACTORS
330
47
102
}
330
47
100
AcDbScale
 70
     0
300
3/8" = 1'-0"
140
0.375
141
12.0
290
     0
  0
SCALE
  5
62
102
{ACAD_REACTORS
330
47
102
}
330
47
100
AcDbScale
 70
     0
300
1/2" = 1'-0"
140
0.5
141
12.0
290
     0
  0
SCALE
  5
63
102
{ACAD_REACTORS
330
47
102
}
330
47
100
AcDbScale
 70
     0
300
3/4" = 1'-0"
140
0.75
141
12.0
290
     0
  0
SCALE
  5
64
102
{ACAD_REACTORS
330
47
102
}
330
47
100
AcDbScale
 70
     0
300
1" = 1'-0"
140
1.0
141
12.0
290
     0
  0
SCALE
  5
65
102
{ACAD_REACTORS
330
47
102
}
330
47
100
AcDbScale
 70
     0
300
1-1/2" = 1'-0"
140
1.5
141
12.0
290
     0
  0
SCALE
  5
66
102
{ACAD_REACTORS
330
47
102
}
330
47
100
AcDbScale
 70
     0
300
3" = 1'-0"
140
3.0
141
12.0
290
     0
  0
SCALE
  5
67
102
{ACAD_REACTORS
330
47
102
}
330
47
100
AcDbScale
 70
     0
300
6" = 1'-0"
140
6.0
141
12.0
290
     0
  0
SCALE
  5
68
102
{ACAD_REACTORS
330
47
102
}
330
47
100
AcDbScale
 70
     0
300
1'-0" = 1'-0"
140
12.0
141
12.0
290
     0
  0
TABLESTYLE
  5
6A
102
{ACAD_REACTORS
330
69
102
}
102
{ACAD_XDICTIONARY
360
127
102
}
330
69
100
AcDbTableStyle
  3
Standard
 70
     0
 71
     0
 40
0.06
 41
0.06
280
     0
281
     0
  7
Standard
140
0.18
170
     2
 62
     0
 63
   257
283
     0
 90
        4
 91
        0
  1

274
    -2
284
     1
 64
     0
275
    -2
285
     1
 65
     0
276
    -2
286
     1
 66
     0
277
    -2
287
     1
 67
     0
278
    -2
288
     1
 68
     0
279
    -2
289
     1
 69
     0
  7
Standard
140
0.25
170
     5
 62
     0
 63
   257
283
     0
 90
        4
 91
        0
  1

274
    -2
284
     1
 64
     0
275
    -2
285
     1
 65
     0
276
    -2
286
     1
 66
     0
277
    -2
287
     1
 67
     0
278
    -2
288
     1
 68
     0
279
    -2
289
     1
 69
     0
  7
Standard
140
0.18
170
     5
 62
     0
 63
   257
283
     0
 90
        4
 91
        0
  1

274
    -2
284
     1
 64
     0
275
    -2
285
     1
 65
     0
276
    -2
286
     1
 66
     0
277
    -2
287
     1
 67
     0
278
    -2
288
     1
 68
     0
279
    -2
289
     1
 69
     0
  0
VISUALSTYLE
  5
2F
102
{ACAD_REACTORS
330
2A
102
}
102
{ACAD_XDICTIONARY
360
FF
102
}
330
2A
100
AcDbVisualStyle
  2
2dWireframe
 70
     4
177
     2
291
     0
 71
     0
176
     1
 72
     2
176
     1
 73
     0
176
     1
 90
        0
176
     1
 40
0.6
176
     1
 41
30.0
176
     1
 62
     5
 63
     7
421
 16777215
176
     1
 74
     1
176
     1
 91
        4
176
     1
 64
     7
176
     1
 65
   257
176
     1
 75
     1
176
     1
175
     1
176
     1
 42
1.0
176
     1
 92
        0
176
     1
 66
   257
176
     1
 43
1.0
176
     1
 76
     1
176
     1
 77
     6
176
     1
 78
     2
176
     1
 67
     7
176
     1
 79
     5
176
     1
170
     0
176
     1
171
     0
176
     1
290
     0
176
     1
 93
        1
176
     1
 44
0.0
176
     1
173
     0
176
     1
  0
VISUALSTYLE
  5
32
102
{ACAD_REACTORS
330
2A
102
}
102
{ACAD_XDICTIONARY
360
105
102
}
330
2A
100
AcDbVisualStyle
  2
Basic
 70
     7
177
     2
291
     1
 71
     1
176
     1
 72
     0
176
     1
 73
     1
176
     1
 90
        0
176
     1
 40
0.6
176
     1
 41
30.0
176
     1
 62
     5
 63
     7
421
 16777215
176
     1
 74
     0
176
     1
 91
        4
176
     1
 64
     7
176
     1
 65
   257
176
     1
 75
     1
176
     1
175
     1
176
     1
 42
1.0
176
     1
 92
        8
176
     1
 66
     7
176
     1
 43
1.0
176
     1
 76
     1
176
     1
 77
     6
176
     1
 78
     2
176
     1
 67
     7
176
     1
 79
     5
176
     1
170
     0
176
     1
171
     0
176
     1
290
     0
176
     1
 93
        1
176
     1
 44
0.0
176
     1
173
     0
176
     1
  0
VISUALSTYLE
  5
36
102
{ACAD_REACTORS
330
2A
102
}
102
{ACAD_XDICTIONARY
360
10D
102
}
330
2A
100
AcDbVisualStyle
  2
Brighten
 70
    12
177
     2
291
     1
 71
     2
176
     1
 72
     2
176
     1
 73
     0
176
     1
 90
        0
176
     1
 40
0.6
176
     1
 41
30.0
176
     1
 62
     5
 63
     7
421
 16777215
176
     1
 74
     1
176
     1
 91
        4
176
     1
 64
     7
176
     1
 65
   257
176
     1
 75
     1
176
     1
175
     1
176
     1
 42
1.0
176
     1
 92
        8
176
     1
 66
     7
176
     1
 43
1.0
176
     1
 76
     1
176
     1
 77
     6
176
     1
 78
     2
176
     1
 67
     7
176
     1
 79
     5
176
     1
170
     0
176
     1
171
     0
176
     1
290
     0
176
     1
 93
        1
176
     1
 44
50.0
176
     1
173
     0
176
     1
  0
VISUALSTYLE
  5
3A
102
{ACAD_REACTORS
330
2A
102
}
102
{ACAD_XDICTIONARY
360
115
102
}
330
2A
100
AcDbVisualStyle
  2
ColorChange
 70
    16
177
     2
291
     1
 71
     2
176
     1
 72
     2
176
     1
 73
     3
176
     1
 90
        0
176
     1
 40
0.6
176
     1
 41
30.0
176
     1
 62
     5
 63
     8
421
  8421504
176
     1
 74
     1
176
     1
 91
        4
176
     1
 64
     7
176
     1
 65
   257
176
     1
 75
     1
176
     1
175
     1
176
     1
 42
1.0
176
     1
 92
        8
176
     1
 66
     8
424
  8421504
176
     1
 43
1.0
176
     1
 76
     1
176
     1
 77
     6
176
     1
 78
     2
176
     1
 67
     7
176
     1
 79
     5
176
     1
170
     0
176
     1
171
     0
176
     1
290
     0
176
     1
 93
        1
176
     1
 44
0.0
176
     1
173
     0
176
     1
  0
VISUALSTYLE
  5
34
102
{ACAD_REACTORS
330
2A
102
}
102
{ACAD_XDICTIONARY
360
109
102
}
330
2A
100
AcDbVisualStyle
  2
Conceptual
 70
     9
177
     2
291
     0
 71
     3
176
     1
 72
     2
176
     1
 73
     0
176
     1
 90
        0
176
     1
 40
0.6
176
     1
 41
30.0
176
     1
 62
     5
 63
     7
421
 16777215
176
     1
 74
     2
176
     1
 91
        2
176
     1
 64
     7
176
     1
 65
   257
176
     1
 75
     1
176
     1
175
     1
176
     1
 42
179.0
176
     1
 92
        8
176
     1
 66
     7
176
     1
 43
1.0
176
     1
 76
     1
176
     1
 77
     6
176
     1
 78
     2
176
     1
 67
     7
176
     1
 79
     3
176
     1
170
     0
176
     1
171
     0
176
     1
290
     0
176
     1
 93
        1
176
     1
 44
0.0
176
     1
173
     0
176
     1
  0
VISUALSTYLE
  5
35
102
{ACAD_REACTORS
330
2A
102
}
102
{ACAD_XDICTIONARY
360
10B
102
}
330
2A
100
AcDbVisualStyle
  2
Dim
 70
    11
177
     2
291
     1
 71
     2
176
     1
 72
     2
176
     1
 73
     0
176
     1
 90
        0
176
     1
 40
0.6
176
     1
 41
30.0
176
     1
 62
     5
 63
     7
421
 16777215
176
     1
 74
     1
176
     1
 91
        4
176
     1
 64
     7
176
     1
 65
   257
176
     1
 75
     1
176
     1
175
     1
176
     1
 42
1.0
176
     1
 92
        8
176
     1
 66
     7
176
     1
 43
1.0
176
     1
 76
     1
176
     1
 77
     6
176
     1
 78
     2
176
     1
 67
     7
176
     1
 79
     5
176
     1
170
     0
176
     1
171
     0
176
     1
290
     0
176
     1
 93
        1
176
     1
 44
-50.0
176
     1
173
     0
176
     1
  0
VISUALSTYLE
  5
3D
102
{ACAD_REACTORS
330
2A
102
}
102
{ACAD_XDICTIONARY
360
11B
102
}
330
2A
100
AcDbVisualStyle
  2
EdgeColorOff
 70
    22
177
     2
291
     1
 71
     2
176
     0
 72
     2
176
     0
 73
     0
176
     0
 90
        0
176
     0
 40
0.6
176
     0
 41
30.0
176
     0
 62
     5
 63
     7
421
 16777215
176
     0
 74
     1
176
     0
 91
        4
176
     0
 64
     7
176
     0
 65
   257
176
     0
 75
     1
176
     0
175
     1
176
     0
 42
1.0
176
     0
 92
        8
176
     2
 66
     7
176
     0
 43
1.0
176
     0
 76
     1
176
     0
 77
     6
176
     0
 78
     2
176
     0
 67
     7
176
     0
 79
     5
176
     0
170
     0
176
     0
171
     0
176
     0
290
     0
176
     0
 93
        1
176
     0
 44
0.0
176
     0
173
     0
176
     0
  0
VISUALSTYLE
  5
39
102
{ACAD_REACTORS
330
2A
102
}
102
{ACAD_XDICTIONARY
360
113
102
}
330
2A
100
AcDbVisualStyle
  2
Facepattern
 70
    15
177
     2
291
     1
 71
     2
176
     1
 72
     2
176
     1
 73
     0
176
     1
 90
        0
176
     1
 40
0.6
176
     1
 41
30.0
176
     1
 62
     5
 63
     7
421
 16777215
176
     1
 74
     1
176
     1
 91
        4
176
     1
 64
     7
176
     1
 65
   257
176
     1
 75
     1
176
     1
175
     1
176
     1
 42
1.0
176
     1
 92
        8
176
     1
 66
     7
176
     1
 43
1.0
176
     1
 76
     1
176
     1
 77
     6
176
     1
 78
     2
176
     1
 67
     7
176
     1
 79
     5
176
     1
170
     0
176
     1
171
     0
176
     1
290
     0
176
     1
 93
        1
176
     1
 44
0.0
176
     1
173
     0
176
     1
  0
VISUALSTYLE
  5
2B
102
{ACAD_REACTORS
330
2A
102
}
102
{ACAD_XDICTIONARY
360
F7
102
}
330
2A
100
AcDbVisualStyle
  2
Flat
 70
     0
177
     2
291
     1
 71
     2
176
     1
 72
     1
176
     1
 73
     1
176
     1
 90
        2
176
     1
 40
0.6
176
     1
 41
30.0
176
     1
 62
     5
 63
     7
421
 16777215
176
     1
 74
     0
176
     1
 91
        0
176
     1
 64
     7
176
     1
 65
   257
176
     1
 75
     1
176
     1
175
     1
176
     1
 42
1.0
176
     1
 92
        8
176
     1
 66
     7
176
     1
 43
1.0
176
     1
 76
     1
176
     1
 77
     6
176
     1
 78
     2
176
     1
 67
     7
176
     1
 79
     5
176
     1
170
     0
176
     1
171
     0
176
     1
290
     0
176
     1
 93
       13
176
     1
 44
0.0
176
     1
173
     0
176
     1
  0
VISUALSTYLE
  5
2C
102
{ACAD_REACTORS
330
2A
102
}
102
{ACAD_XDICTIONARY
360
F9
102
}
330
2A
100
AcDbVisualStyle
  2
FlatWithEdges
 70
     1
177
     2
291
     1
 71
     2
176
     1
 72
     1
176
     1
 73
     1
176
     1
 90
        2
176
     1
 40
0.6
176
     1
 41
30.0
176
     1
 62
     5
 63
     7
421
 16777215
176
     1
 74
     1
176
     1
 91
        0
176
     1
 64
     7
176
     1
 65
   257
176
     1
 75
     1
176
     1
175
     1
176
     1
 42
1.0
176
     1
 92
        0
176
     1
 66
   257
176
     1
 43
1.0
176
     1
 76
     1
176
     1
 77
     6
176
     1
 78
     2
176
     1
 67
     7
176
     1
 79
     5
176
     1
170
     0
176
     1
171
     0
176
     1
290
     0
176
     1
 93
       13
176
     1
 44
0.0
176
     1
173
     0
176
     1
  0
VISUALSTYLE
  5
2D
102
{ACAD_REACTORS
330
2A
102
}
102
{ACAD_XDICTIONARY
360
FB
102
}
330
2A
100
AcDbVisualStyle
  2
Gouraud
 70
     2
177
     2
291
     1
 71
     2
176
     1
 72
     2
176
     1
 73
     1
176
     1
 90
        2
176
     1
 40
0.6
176
     1
 41
30.0
176
     1
 62
     5
 63
     7
421
 16777215
176
     1
 74
     0
176
     1
 91
        0
176
     1
 64
     7
176
     1
 65
   257
176
     1
 75
     1
176
     1
175
     1
176
     1
 42
1.0
176
     1
 92
        0
176
     1
 66
     7
176
     1
 43
1.0
176
     1
 76
     1
176
     1
 77
     6
176
     1
 78
     2
176
     1
 67
     7
176
     1
 79
     5
176
     1
170
     0
176
     1
171
     0
176
     1
290
     0
176
     1
 93
       13
176
     1
 44
0.0
176
     1
173
     0
176
     1
  0
VISUALSTYLE
  5
2E
102
{ACAD_REACTORS
330
2A
102
}
102
{ACAD_XDICTIONARY
360
FD
102
}
330
2A
100
AcDbVisualStyle
  2
GouraudWithEdges
 70
     3
177
     2
291
     1
 71
     2
176
     1
 72
     2
176
     1
 73
     1
176
     1
 90
        2
176
     1
 40
0.6
176
     1
 41
30.0
176
     1
 62
     5
 63
     7
421
 16777215
176
     1
 74
     1
176
     1
 91
        0
176
     1
 64
     7
176
     1
 65
   257
176
     1
 75
     1
176
     1
175
     1
176
     1
 42
1.0
176
     1
 92
        0
176
     1
 66
   257
176
     1
 43
1.0
176
     1
 76
     1
176
     1
 77
     6
176
     1
 78
     2
176
     1
 67
     7
176
     1
 79
     5
176
     1
170
     0
176
     1
171
     0
176
     1
290
     0
176
     1
 93
       13
176
     1
 44
0.0
176
     1
173
     0
176
     1
  0
VISUALSTYLE
  5
31
102
{ACAD_REACTORS
330
2A
102
}
102
{ACAD_XDICTIONARY
360
103
102
}
330
2A
100
AcDbVisualStyle
  2
Hidden
 70
     6
177
     2
291
     0
 71
     1
176
     1
 72
     2
176
     1
 73
     2
176
     1
 90
        0
176
     1
 40
0.6
176
     1
 41
30.0
176
     1
 62
     5
 63
     7
421
 16777215
176
     1
 74
     2
176
     1
 91
        2
176
     1
 64
     7
176
     1
 65
   257
176
     1
 75
     2
176
     1
175
     1
176
     1
 42
40.0
176
     1
 92
        0
176
     1
 66
   257
176
     1
 43
1.0
176
     1
 76
     1
176
     1
 77
     6
176
     1
 78
     2
176
     1
 67
     7
176
     1
 79
     3
176
     1
170
     0
176
     1
171
     0
176
     1
290
     0
176
     1
 93
        1
176
     1
 44
0.0
176
     1
173
     0
176
     1
  0
VISUALSTYLE
  5
3B
102
{ACAD_REACTORS
330
2A
102
}
102
{ACAD_XDICTIONARY
360
117
102
}
330
2A
100
AcDbVisualStyle
  2
JitterOff
 70
    20
177
     2
291
     1
 71
     2
176
     0
 72
     2
176
     0
 73
     0
176
     0
 90
        0
176
     0
 40
0.6
176
     0
 41
30.0
176
     0
 62
     5
 63
     7
421
 16777215
176
     0
 74
     1
176
     0
 91
        4
176
     0
 64
     7
176
     0
 65
   257
176
     0
 75
     1
176
     0
175
     1
176
     0
 42
1.0
176
     0
 92
       10
176
     2
 66
     7
176
     0
 43
1.0
176
     0
 76
     1
176
     0
 77
     6
176
     0
 78
     2
176
     0
 67
     7
176
     0
 79
     5
176
     0
170
     0
176
     0
171
     0
176
     0
290
     0
176
     0
 93
        1
176
     0
 44
0.0
176
     0
173
     0
176
     0
  0
VISUALSTYLE
  5
38
102
{ACAD_REACTORS
330
2A
102
}
102
{ACAD_XDICTIONARY
360
111
102
}
330
2A
100
AcDbVisualStyle
  2
Linepattern
 70
    14
177
     2
291
     1
 71
     2
176
     1
 72
     2
176
     1
 73
     0
176
     1
 90
        0
176
     1
 40
0.6
176
     1
 41
30.0
176
     1
 62
     5
 63
     7
421
 16777215
176
     1
 74
     1
176
     1
 91
        4
176
     1
 64
     7
176
     1
 65
   257
176
     1
 75
     7
176
     1
175
     7
176
     1
 42
1.0
176
     1
 92
        8
176
     1
 66
     7
176
     1
 43
1.0
176
     1
 76
     1
176
     1
 77
     6
176
     1
 78
     2
176
     1
 67
     7
176
     1
 79
     5
176
     1
170
     0
176
     1
171
     0
176
     1
290
     0
176
     1
 93
        1
176
     1
 44
0.0
176
     1
173
     0
176
     1
  0
VISUALSTYLE
  5
3C
102
{ACAD_REACTORS
330
2A
102
}
102
{ACAD_XDICTIONARY
360
119
102
}
330
2A
100
AcDbVisualStyle
  2
OverhangOff
 70
    21
177
     2
291
     1
 71
     2
176
     0
 72
     2
176
     0
 73
     0
176
     0
 90
        0
176
     0
 40
0.6
176
     0
 41
30.0
176
     0
 62
     5
 63
     7
421
 16777215
176
     0
 74
     1
176
     0
 91
        4
176
     0
 64
     7
176
     0
 65
   257
176
     0
 75
     1
176
     0
175
     1
176
     0
 42
1.0
176
     0
 92
        9
176
     2
 66
     7
176
     0
 43
1.0
176
     0
 76
     1
176
     0
 77
     6
176
     0
 78
     2
176
     0
 67
     7
176
     0
 79
     5
176
     0
170
     0
176
     0
171
     0
176
     0
290
     0
176
     0
 93
        1
176
     0
 44
0.0
176
     0
173
     0
176
     0
  0
VISUALSTYLE
  5
33
102
{ACAD_REACTORS
330
2A
102
}
102
{ACAD_XDICTIONARY
360
107
102
}
330
2A
100
AcDbVisualStyle
  2
Realistic
 70
     8
177
     2
291
     0
 71
     2
176
     1
 72
     3
176
     1
 73
     0
176
     1
 90
        2
176
     1
 40
0.6
176
     1
 41
30.0
176
     1
 62
     5
 63
     7
421
 16777215
176
     1
 74
     0
176
     1
 91
        0
176
     1
 64
     7
176
     1
 65
   257
176
     1
 75
     1
176
     1
175
     1
176
     1
 42
1.0
176
     1
 92
        8
176
     1
 66
   257
176
     1
 43
1.0
176
     1
 76
     1
176
     1
 77
     6
176
     1
 78
     2
176
     1
 67
     7
176
     1
 79
     3
176
     1
170
     0
176
     1
171
     0
176
     1
290
     0
176
     1
 93
       13
176
     1
 44
0.0
176
     1
173
     0
176
     1
  0
VISUALSTYLE
  5
42
102
{ACAD_REACTORS
330
2A
102
}
102
{ACAD_XDICTIONARY
360
125
102
}
330
2A
100
AcDbVisualStyle
  2
Shaded
 70
    27
177
     2
291
     0
 71
     2
176
     1
 72
     2
176
     1
 73
     1
176
     1
 90
        2
176
     1
 40
0.6
176
     1
 41
30.0
176
     1
 62
     5
 63
     7
421
 16777215
176
     1
 74
     0
176
     1
 91
        4
176
     1
 64
     7
176
     1
 65
   257
176
     1
 75
     1
176
     1
175
     1
176
     1
 42
1.0
176
     1
 92
        8
176
     1
 66
   257
176
     1
 43
1.0
176
     1
 76
     1
176
     1
 77
     6
176
     1
 78
     2
176
     1
 67
     8
425
  7895160
176
     1
 79
     3
176
     1
170
     0
176
     1
171
     0
176
     1
290
     0
176
     1
 93
        5
176
     1
 44
0.0
176
     1
173
     0
176
     1
  0
VISUALSTYLE
  5
41
102
{ACAD_REACTORS
330
2A
102
}
102
{ACAD_XDICTIONARY
360
123
102
}
330
2A
100
AcDbVisualStyle
  2
Shaded with edges
 70
    26
177
     2
291
     0
 71
     2
176
     1
 72
     2
176
     1
 73
     1
176
     1
 90
        2
176
     1
 40
0.6
176
     1
 41
30.0
176
     1
 62
     5
 63
     7
421
 16777215
176
     1
 74
     1
176
     1
 91
       10
176
     1
 64
     7
176
     1
 65
   257
176
     1
 75
     2
176
     1
175
     1
176
     1
 42
1.0
176
     1
 92
        8
176
     1
 66
   257
176
     1
 43
1.0
176
     1
 76
     1
176
     1
 77
     6
176
     1
 78
     2
176
     1
 67
     7
176
     1
 79
     3
176
     1
170
     0
176
     1
171
     0
176
     1
290
     0
176
     1
 93
        5
176
     1
 44
0.0
176
     1
173
     0
176
     1
  0
VISUALSTYLE
  5
3E
102
{ACAD_REACTORS
330
2A
102
}
102
{ACAD_XDICTIONARY
360
11D
102
}
330
2A
100
AcDbVisualStyle
  2
Shades of Gray
 70
    23
177
     2
291
     0
 71
     2
176
     1
 72
     2
176
     1
 73
     3
176
     1
 90
        0
176
     1
 40
0.6
176
     1
 41
30.0
176
     1
 62
     5
 63
     7
421
 16777215
176
     1
 74
     2
176
     1
 91
        2
176
     1
 64
     7
176
     1
 65
     7
176
     1
 75
     1
176
     1
175
     1
176
     1
 42
40.0
176
     1
 92
        8
176
     1
 66
     7
176
     1
 43
1.0
176
     1
 76
     1
176
     1
 77
     6
176
     1
 78
     2
176
     1
 67
     7
176
     1
 79
     3
176
     1
170
     0
176
     1
171
     0
176
     1
290
     0
176
     1
 93
        1
176
     1
 44
0.0
176
     1
173
     0
176
     1
  0
VISUALSTYLE
  5
3F
102
{ACAD_REACTORS
330
2A
102
}
102
{ACAD_XDICTIONARY
360
11F
102
}
330
2A
100
AcDbVisualStyle
  2
Sketchy
 70
    24
177
     2
291
     0
 71
     1
176
     1
 72
     2
176
     1
 73
     2
176
     1
 90
        0
176
     1
 40
0.6
176
     1
 41
30.0
176
     1
 62
     5
 63
     7
421
 16777215
176
     1
 74
     2
176
     1
 91
        2
176
     1
 64
     7
176
     1
 65
     7
176
     1
 75
     1
176
     1
175
     1
176
     1
 42
40.0
176
     1
 92
       11
176
     1
 66
     7
176
     1
 43
1.0
176
     1
 76
     1
176
     1
 77
     6
176
     1
 78
     2
176
     1
 67
     7
176
     1
 79
     6
176
     1
170
     0
176
     1
171
     0
176
     1
290
     0
176
     1
 93
        1
176
     1
 44
0.0
176
     1
173
     0
176
     1
  0
VISUALSTYLE
  5
37
102
{ACAD_REACTORS
330
2A
102
}
102
{ACAD_XDICTIONARY
360
10F
102
}
330
2A
100
AcDbVisualStyle
  2
Thicken
 70
    13
177
     2
291
     1
 71
     2
176
     1
 72
     2
176
     1
 73
     0
176
     1
 90
        0
176
     1
 40
0.6
176
     1
 41
30.0
176
     1
 62
     5
 63
     7
421
 16777215
176
     1
 74
     1
176
     1
 91
        4
176
     1
 64
     7
176
     1
 65
   257
176
     1
 75
     1
176
     1
175
     1
176
     1
 42
1.0
176
     1
 92
       12
176
     1
 66
     7
176
     1
 43
1.0
176
     1
 76
     1
176
     1
 77
     6
176
     1
 78
     2
176
     1
 67
     7
176
     1
 79
     5
176
     1
170
     0
176
     1
171
     0
176
     1
290
     0
176
     1
 93
        1
176
     1
 44
0.0
176
     1
173
     0
176
     1
  0
VISUALSTYLE
  5
30
102
{ACAD_REACTORS
330
2A
102
}
102
{ACAD_XDICTIONARY
360
101
102
}
330
2A
100
AcDbVisualStyle
  2
Wireframe
 70
     5
177
     2
291
     0
 71
     0
176
     1
 72
     2
176
     1
 73
     0
176
     1
 90
        0
176
     1
 40
0.6
176
     1
 41
30.0
176
     1
 62
     5
 63
     7
421
 16777215
176
     1
 74
     1
176
     1
 91
        4
176
     1
 64
     7
176
     1
 65
   257
176
     1
 75
     1
176
     1
175
     1
176
     1
 42
1.0
176
     1
 92
        0
176
     1
 66
   257
176
     1
 43
1.0
176
     1
 76
     1
176
     1
 77
     6
176
     1
 78
     2
176
     1
 67
     7
176
     1
 79
     3
176
     1
170
     0
176
     1
171
     0
176
     1
290
     0
176
     1
 93
        1
176
     1
 44
0.0
176
     1
173
     0
176
     1
  0
VISUALSTYLE
  5
40
102
{ACAD_REACTORS
330
2A
102
}
102
{ACAD_XDICTIONARY
360
121
102
}
330
2A
100
AcDbVisualStyle
  2
X-Ray
 70
    25
177
     2
291
     0
 71
     2
176
     1
 72
     2
176
     1
 73
     1
176
     1
 90
        1
176
     1
 40
0.5
176
     1
 41
30.0
176
     1
 62
     5
 63
     7
421
 16777215
176
     1
 74
     1
176
     1
 91
        0
176
     1
 64
     7
176
     1
 65
   257
176
     1
 75
     1
176
     1
175
     1
176
     1
 42
1.0
176
     1
 92
        8
176
     1
 66
     7
176
     1
 43
1.0
176
     1
 76
     1
176
     1
 77
     6
176
     1
 78
     2
176
     1
 67
     7
176
     1
 79
     3
176
     1
170
     0
176
     1
171
     0
176
     1
290
     0
176
     1
 93
       13
176
     1
 44
0.0
176
     1
173
     0
176
     1
  0
DICTIONARYVAR
  5
F6
102
{ACAD_REACTORS
330
F5
102
}
330
F5
100
DictionaryVariables
280
     0
  1
1:1
  0
DICTIONARYVAR
  5
12B
102
{ACAD_REACTORS
330
F5
102
}
330
F5
100
DictionaryVariables
280
     0
  1
Standard
  0
DICTIONARYVAR
  5
12A
102
{ACAD_REACTORS
330
F5
102
}
330
F5
100
DictionaryVariables
280
     0
  1
Standard
  0
DICTIONARY
  5
127
330
6A
100
AcDbDictionary
280
     1
281
     1
  3
ACAD_ROUNDTRIP_2008_TABLESTYLE_CELLSTYLEMAP
360
128
  0
DICTIONARY
  5
FF
330
2F
100
AcDbDictionary
280
     1
281
     1
  3
ACAD_XREC_ROUNDTRIP
360
100
  0
DICTIONARY
  5
105
330
32
100
AcDbDictionary
280
     1
281
     1
  3
ACAD_XREC_ROUNDTRIP
360
106
  0
DICTIONARY
  5
10D
330
36
100
AcDbDictionary
280
     1
281
     1
  3
ACAD_XREC_ROUNDTRIP
360
10E
  0
DICTIONARY
  5
115
330
3A
100
AcDbDictionary
280
     1
281
     1
  3
ACAD_XREC_ROUNDTRIP
360
116
  0
DICTIONARY
  5
109
330
34
100
AcDbDictionary
280
     1
281
     1
  3
ACAD_XREC_ROUNDTRIP
360
10A
  0
DICTIONARY
  5
10B
330
35
100
AcDbDictionary
280
     1
281
     1
  3
ACAD_XREC_ROUNDTRIP
360
10C
  0
DICTIONARY
  5
11B
330
3D
100
AcDbDictionary
280
     1
281
     1
  3
ACAD_XREC_ROUNDTRIP
360
11C
  0
DICTIONARY
  5
113
330
39
100
AcDbDictionary
280
     1
281
     1
  3
ACAD_XREC_ROUNDTRIP
360
114
  0
DICTIONARY
  5
F7
330
2B
100
AcDbDictionary
280
     1
281
     1
  3
ACAD_XREC_ROUNDTRIP
360
F8
  0
DICTIONARY
  5
F9
330
2C
100
AcDbDictionary
280
     1
281
     1
  3
ACAD_XREC_ROUNDTRIP
360
FA
  0
DICTIONARY
  5
FB
330
2D
100
AcDbDictionary
280
     1
281
     1
  3
ACAD_XREC_ROUNDTRIP
360
FC
  0
DICTIONARY
  5
FD
330
2E
100
AcDbDictionary
280
     1
281
     1
  3
ACAD_XREC_ROUNDTRIP
360
FE
  0
DICTIONARY
  5
103
330
31
100
AcDbDictionary
280
     1
281
     1
  3
ACAD_XREC_ROUNDTRIP
360
104
  0
DICTIONARY
  5
117
330
3B
100
AcDbDictionary
280
     1
281
     1
  3
ACAD_XREC_ROUNDTRIP
360
118
  0
DICTIONARY
  5
111
330
38
100
AcDbDictionary
280
     1
281
     1
  3
ACAD_XREC_ROUNDTRIP
360
112
  0
DICTIONARY
  5
119
330
3C
100
AcDbDictionary
280
     1
281
     1
  3
ACAD_XREC_ROUNDTRIP
360
11A
  0
DICTIONARY
  5
107
330
33
100
AcDbDictionary
280
     1
281
     1
  3
ACAD_XREC_ROUNDTRIP
360
108
  0
DICTIONARY
  5
125
330
42
100
AcDbDictionary
280
     1
281
     1
  3
ACAD_XREC_ROUNDTRIP
360
126
  0
DICTIONARY
  5
123
330
41
100
AcDbDictionary
280
     1
281
     1
  3
ACAD_XREC_ROUNDTRIP
360
124
  0
DICTIONARY
  5
11D
330
3E
100
AcDbDictionary
280
     1
281
     1
  3
ACAD_XREC_ROUNDTRIP
360
11E
  0
DICTIONARY
  5
11F
330
3F
100
AcDbDictionary
280
     1
281
     1
  3
ACAD_XREC_ROUNDTRIP
360
120
  0
DICTIONARY
  5
10F
330
37
100
AcDbDictionary
280
     1
281
     1
  3
ACAD_XREC_ROUNDTRIP
360
110
  0
DICTIONARY
  5
101
330
30
100
AcDbDictionary
280
     1
281
     1
  3
ACAD_XREC_ROUNDTRIP
360
102
  0
DICTIONARY
  5
121
330
40
100
AcDbDictionary
280
     1
281
     1
  3
ACAD_XREC_ROUNDTRIP
360
122
  0
CELLSTYLEMAP
  5
128
102
{ACAD_REACTORS
330
127
102
}
330
127
100
AcDbCellStyleMap
 90
        3
300
CELLSTYLE
  1
TABLEFORMAT_BEGIN
 90
        5
170
     1
 91
        0
 92
    32768
 62
   257
 93
        1
300
CONTENTFORMAT
  1
CONTENTFORMAT_BEGIN
 90
        0
 91
        0
 92
        4
 93
        0
300

 40
0.0
140
1.0
 94
        5
 62
     0
340
11
144
0.25
309
CONTENTFORMAT_END
171
     1
301
MARGIN
  1
CELLMARGIN_BEGIN
 40
0.06
 40
0.06
 40
0.06
 40
0.06
 40
0.06
 40
0.06
309
CELLMARGIN_END
 94
        6
 95
        1
302
GRIDFORMAT
  1
GRIDFORMAT_BEGIN
 90
        0
 91
        1
 62
     0
 92
       -2
340
14
 93
        0
 40
0.045
309
GRIDFORMAT_END
 95
        2
302
GRIDFORMAT
  1
GRIDFORMAT_BEGIN
 90
        0
 91
        1
 62
     0
 92
       -2
340
14
 93
        0
 40
0.045
309
GRIDFORMAT_END
 95
        4
302
GRIDFORMAT
  1
GRIDFORMAT_BEGIN
 90
        0
 91
        1
 62
     0
 92
       -2
340
14
 93
        0
 40
0.045
309
GRIDFORMAT_END
 95
        8
302
GRIDFORMAT
  1
GRIDFORMAT_BEGIN
 90
        0
 91
        1
 62
     0
 92
       -2
340
14
 93
        0
 40
0.045
309
GRIDFORMAT_END
 95
       16
302
GRIDFORMAT
  1
GRIDFORMAT_BEGIN
 90
        0
 91
        1
 62
     0
 92
       -2
340
14
 93
        0
 40
0.045
309
GRIDFORMAT_END
 95
       32
302
GRIDFORMAT
  1
GRIDFORMAT_BEGIN
 90
        0
 91
        1
 62
     0
 92
       -2
340
14
 93
        0
 40
0.045
309
GRIDFORMAT_END
309
TABLEFORMAT_END
  1
CELLSTYLE_BEGIN
 90
        1
 91
        1
300
_TITLE
309
CELLSTYLE_END
300
CELLSTYLE
  1
TABLEFORMAT_BEGIN
 90
        5
170
     1
 91
        0
 92
        0
 62
   257
 93
        1
300
CONTENTFORMAT
  1
CONTENTFORMAT_BEGIN
 90
        0
 91
        0
 92
        4
 93
        0
300

 40
0.0
140
1.0
 94
        5
 62
     0
340
11
144
0.18
309
CONTENTFORMAT_END
171
     1
301
MARGIN
  1
CELLMARGIN_BEGIN
 40
0.06
 40
0.06
 40
0.06
 40
0.06
 40
0.06
 40
0.06
309
CELLMARGIN_END
 94
        6
 95
        1
302
GRIDFORMAT
  1
GRIDFORMAT_BEGIN
 90
        0
 91
        1
 62
     0
 92
       -2
340
14
 93
        0
 40
0.045
309
GRIDFORMAT_END
 95
        2
302
GRIDFORMAT
  1
GRIDFORMAT_BEGIN
 90
        0
 91
        1
 62
     0
 92
       -2
340
14
 93
        0
 40
0.045
309
GRIDFORMAT_END
 95
        4
302
GRIDFORMAT
  1
GRIDFORMAT_BEGIN
 90
        0
 91
        1
 62
     0
 92
       -2
340
14
 93
        0
 40
0.045
309
GRIDFORMAT_END
 95
        8
302
GRIDFORMAT
  1
GRIDFORMAT_BEGIN
 90
        0
 91
        1
 62
     0
 92
       -2
340
14
 93
        0
 40
0.045
309
GRIDFORMAT_END
 95
       16
302
GRIDFORMAT
  1
GRIDFORMAT_BEGIN
 90
        0
 91
        1
 62
     0
 92
       -2
340
14
 93
        0
 40
0.045
309
GRIDFORMAT_END
 95
       32
302
GRIDFORMAT
  1
GRIDFORMAT_BEGIN
 90
        0
 91
        1
 62
     0
 92
       -2
340
14
 93
        0
 40
0.045
309
GRIDFORMAT_END
309
TABLEFORMAT_END
  1
CELLSTYLE_BEGIN
 90
        2
 91
        1
300
_HEADER
309
CELLSTYLE_END
300
CELLSTYLE
  1
TABLEFORMAT_BEGIN
 90
        5
170
     1
 91
        0
 92
        0
 62
   257
 93
        1
300
CONTENTFORMAT
  1
CONTENTFORMAT_BEGIN
 90
        0
 91
        0
 92
        4
 93
        0
300

 40
0.0
140
1.0
 94
        2
 62
     0
340
11
144
0.18
309
CONTENTFORMAT_END
171
     1
301
MARGIN
  1
CELLMARGIN_BEGIN
 40
0.06
 40
0.06
 40
0.06
 40
0.06
 40
0.06
 40
0.06
309
CELLMARGIN_END
 94
        6
 95
        1
302
GRIDFORMAT
  1
GRIDFORMAT_BEGIN
 90
        0
 91
        1
 62
     0
 92
       -2
340
14
 93
        0
 40
0.045
309
GRIDFORMAT_END
 95
        2
302
GRIDFORMAT
  1
GRIDFORMAT_BEGIN
 90
        0
 91
        1
 62
     0
 92
       -2
340
14
 93
        0
 40
0.045
309
GRIDFORMAT_END
 95
        4
302
GRIDFORMAT
  1
GRIDFORMAT_BEGIN
 90
        0
 91
        1
 62
     0
 92
       -2
340
14
 93
        0
 40
0.045
309
GRIDFORMAT_END
 95
        8
302
GRIDFORMAT
  1
GRIDFORMAT_BEGIN
 90
        0
 91
        1
 62
     0
 92
       -2
340
14
 93
        0
 40
0.045
309
GRIDFORMAT_END
 95
       16
302
GRIDFORMAT
  1
GRIDFORMAT_BEGIN
 90
        0
 91
        1
 62
     0
 92
       -2
340
14
 93
        0
 40
0.045
309
GRIDFORMAT_END
 95
       32
302
GRIDFORMAT
  1
GRIDFORMAT_BEGIN
 90
        0
 91
        1
 62
     0
 92
       -2
340
14
 93
        0
 40
0.045
309
GRIDFORMAT_END
309
TABLEFORMAT_END
  1
CELLSTYLE_BEGIN
 90
        3
 91
        2
300
_DATA
309
CELLSTYLE_END
  0
XRECORD
  5
100
102
{ACAD_REACTORS
330
FF
102
}
330
FF
100
AcDbXrecord
280
     1
102
RTVSPost2010Prop28
280
     1
102
RTVSPost2010PropOp28
 70
     1
102
RTVSPost2010Prop29
280
     1
102
RTVSPost2010PropOp29
 70
     1
102
RTVSPost2010Prop30
280
     0
102
RTVSPost2010PropOp30
 70
     1
102
RTVSPost2010Prop31
280
     0
102
RTVSPost2010PropOp31
 70
     1
102
RTVSPost2010Prop32
280
     0
102
RTVSPost2010PropOp32
 70
     1
102
RTVSPost2010Prop33
280
     0
102
RTVSPost2010PropOp33
 70
     1
102
RTVSPost2010Prop34
280
     0
102
RTVSPost2010PropOp34
 70
     1
102
RTVSPost2010Prop35
280
     0
102
RTVSPost2010PropOp35
 70
     1
102
RTVSPost2010Prop36
280
     0
102
RTVSPost2010PropOp36
 70
     1
102
RTVSPost2010Prop37
 90
       50
102
RTVSPost2010PropOp37
 70
     1
102
RTVSPost2010Prop38
140
0.0
102
RTVSPost2010PropOp38
 70
     1
102
RTVSPost2010Prop39
140
1.0
102
RTVSPost2010PropOp39
 70
     1
102
RTVSPost2010Prop40
 90
        0
102
RTVSPost2010PropOp40
 70
     1
102
RTVSPost2010Prop41ColorIndex
 90
       18
102
RTVSPost2010Prop41ColorRGB
 90
        0
102
RTVSPost2010PropOp41
 70
     1
102
RTVSPost2010Prop42
 90
       50
102
RTVSPost2010PropOp42
 70
     1
102
RTVSPost2010Prop43
 90
        3
102
RTVSPost2010PropOp43
 70
     1
102
RTVSPost2010Prop44ColorIndex
 90
        5
102
RTVSPost2010Prop44ColorRGB
 90
      255
102
RTVSPost2010PropOp44
 70
     1
102
RTVSPost2010Prop45
280
     0
102
RTVSPost2010PropOp45
 70
     1
102
RTVSPost2010Prop46
 90
       50
102
RTVSPost2010PropOp46
 70
     1
102
RTVSPost2010Prop47
 90
       50
102
RTVSPost2010PropOp47
 70
     1
102
RTVSPost2010Prop48
 90
       50
102
RTVSPost2010PropOp48
 70
     1
102
RTVSPost2010Prop49
280
     0
102
RTVSPost2010PropOp49
 70
     1
102
RTVSPost2010Prop50
 90
       50
102
RTVSPost2010PropOp50
 70
     1
102
RTVSPost2010Prop51ColorIndex
 90
      256
102
RTVSPost2010Prop51ColorRGB
 90
-16777216
102
RTVSPost2010PropOp51
 70
     0
102
RTVSPost2010Prop52
140
1.0
102
RTVSPost2010PropOp52
 70
     0
102
RTVSPost2010Prop53
 90
        2
102
RTVSPost2010PropOp53
 70
     1
102
RTVSPost2010Prop54
  1
strokes_ogs.tif
102
RTVSPost2010PropOp54
 70
     1
102
RTVSPost2010Prop55
280
     0
102
RTVSPost2010PropOp55
 70
     1
102
RTVSPost2010Prop56
140
1.0
102
RTVSPost2010PropOp56
 70
     1
102
RTVSPost2010Prop57
140
1.0
102
RTVSPost2010PropOp57
 70
     1
  0
XRECORD
  5
106
102
{ACAD_REACTORS
330
105
102
}
330
105
100
AcDbXrecord
280
     1
102
RTVSPost2010Prop28
280
     0
102
RTVSPost2010PropOp28
 70
     1
102
RTVSPost2010Prop29
280
     1
102
RTVSPost2010PropOp29
 70
     1
102
RTVSPost2010Prop30
280
     1
102
RTVSPost2010PropOp30
 70
     1
102
RTVSPost2010Prop31
280
     0
102
RTVSPost2010PropOp31
 70
     1
102
RTVSPost2010Prop32
280
     0
102
RTVSPost2010PropOp32
 70
     1
102
RTVSPost2010Prop33
280
     0
102
RTVSPost2010PropOp33
 70
     1
102
RTVSPost2010Prop34
280
     0
102
RTVSPost2010PropOp34
 70
     1
102
RTVSPost2010Prop35
280
     0
102
RTVSPost2010PropOp35
 70
     1
102
RTVSPost2010Prop36
280
     0
102
RTVSPost2010PropOp36
 70
     1
102
RTVSPost2010Prop37
 90
       50
102
RTVSPost2010PropOp37
 70
     1
102
RTVSPost2010Prop38
140
0.0
102
RTVSPost2010PropOp38
 70
     1
102
RTVSPost2010Prop39
140
1.0
102
RTVSPost2010PropOp39
 70
     1
102
RTVSPost2010Prop40
 90
        0
102
RTVSPost2010PropOp40
 70
     1
102
RTVSPost2010Prop41ColorIndex
 90
       18
102
RTVSPost2010Prop41ColorRGB
 90
        0
102
RTVSPost2010PropOp41
 70
     1
102
RTVSPost2010Prop42
 90
       50
102
RTVSPost2010PropOp42
 70
     1
102
RTVSPost2010Prop43
 90
        3
102
RTVSPost2010PropOp43
 70
     1
102
RTVSPost2010Prop44ColorIndex
 90
        5
102
RTVSPost2010Prop44ColorRGB
 90
      255
102
RTVSPost2010PropOp44
 70
     1
102
RTVSPost2010Prop45
280
     0
102
RTVSPost2010PropOp45
 70
     1
102
RTVSPost2010Prop46
 90
       50
102
RTVSPost2010PropOp46
 70
     1
102
RTVSPost2010Prop47
 90
       50
102
RTVSPost2010PropOp47
 70
     1
102
RTVSPost2010Prop48
 90
       50
102
RTVSPost2010PropOp48
 70
     1
102
RTVSPost2010Prop49
280
     0
102
RTVSPost2010PropOp49
 70
     1
102
RTVSPost2010Prop50
 90
       50
102
RTVSPost2010PropOp50
 70
     1
102
RTVSPost2010Prop51ColorIndex
 90
      256
102
RTVSPost2010Prop51ColorRGB
 90
-16777216
102
RTVSPost2010PropOp51
 70
     0
102
RTVSPost2010Prop52
140
1.0
102
RTVSPost2010PropOp52
 70
     0
102
RTVSPost2010Prop53
 90
        2
102
RTVSPost2010PropOp53
 70
     1
102
RTVSPost2010Prop54
  1
strokes_ogs.tif
102
RTVSPost2010PropOp54
 70
     1
102
RTVSPost2010Prop55
280
     0
102
RTVSPost2010PropOp55
 70
     1
102
RTVSPost2010Prop56
140
1.0
102
RTVSPost2010PropOp56
 70
     1
102
RTVSPost2010Prop57
140
1.0
102
RTVSPost2010PropOp57
 70
     1
  0
XRECORD
  5
10E
102
{ACAD_REACTORS
330
10D
102
}
330
10D
100
AcDbXrecord
280
     1
102
RTVSPost2010Prop28
280
     0
102
RTVSPost2010PropOp28
 70
     1
102
RTVSPost2010Prop29
280
     1
102
RTVSPost2010PropOp29
 70
     1
102
RTVSPost2010Prop30
280
     1
102
RTVSPost2010PropOp30
 70
     1
102
RTVSPost2010Prop31
280
     0
102
RTVSPost2010PropOp31
 70
     1
102
RTVSPost2010Prop32
280
     0
102
RTVSPost2010PropOp32
 70
     1
102
RTVSPost2010Prop33
280
     0
102
RTVSPost2010PropOp33
 70
     1
102
RTVSPost2010Prop34
280
     0
102
RTVSPost2010PropOp34
 70
     1
102
RTVSPost2010Prop35
280
     0
102
RTVSPost2010PropOp35
 70
     1
102
RTVSPost2010Prop36
280
     0
102
RTVSPost2010PropOp36
 70
     1
102
RTVSPost2010Prop37
 90
       50
102
RTVSPost2010PropOp37
 70
     1
102
RTVSPost2010Prop38
140
0.0
102
RTVSPost2010PropOp38
 70
     1
102
RTVSPost2010Prop39
140
1.0
102
RTVSPost2010PropOp39
 70
     1
102
RTVSPost2010Prop40
 90
        0
102
RTVSPost2010PropOp40
 70
     1
102
RTVSPost2010Prop41ColorIndex
 90
       18
102
RTVSPost2010Prop41ColorRGB
 90
        0
102
RTVSPost2010PropOp41
 70
     1
102
RTVSPost2010Prop42
 90
       50
102
RTVSPost2010PropOp42
 70
     1
102
RTVSPost2010Prop43
 90
        3
102
RTVSPost2010PropOp43
 70
     1
102
RTVSPost2010Prop44ColorIndex
 90
        5
102
RTVSPost2010Prop44ColorRGB
 90
      255
102
RTVSPost2010PropOp44
 70
     1
102
RTVSPost2010Prop45
280
     0
102
RTVSPost2010PropOp45
 70
     1
102
RTVSPost2010Prop46
 90
       50
102
RTVSPost2010PropOp46
 70
     1
102
RTVSPost2010Prop47
 90
       50
102
RTVSPost2010PropOp47
 70
     1
102
RTVSPost2010Prop48
 90
       50
102
RTVSPost2010PropOp48
 70
     1
102
RTVSPost2010Prop49
280
     0
102
RTVSPost2010PropOp49
 70
     1
102
RTVSPost2010Prop50
 90
       50
102
RTVSPost2010PropOp50
 70
     1
102
RTVSPost2010Prop51ColorIndex
 90
      256
102
RTVSPost2010Prop51ColorRGB
 90
-16777216
102
RTVSPost2010PropOp51
 70
     0
102
RTVSPost2010Prop52
140
1.0
102
RTVSPost2010PropOp52
 70
     0
102
RTVSPost2010Prop53
 90
        2
102
RTVSPost2010PropOp53
 70
     1
102
RTVSPost2010Prop54
  1
strokes_ogs.tif
102
RTVSPost2010PropOp54
 70
     1
102
RTVSPost2010Prop55
280
     0
102
RTVSPost2010PropOp55
 70
     1
102
RTVSPost2010Prop56
140
1.0
102
RTVSPost2010PropOp56
 70
     1
102
RTVSPost2010Prop57
140
1.0
102
RTVSPost2010PropOp57
 70
     1
  0
XRECORD
  5
116
102
{ACAD_REACTORS
330
115
102
}
330
115
100
AcDbXrecord
280
     1
102
RTVSPost2010Prop28
280
     0
102
RTVSPost2010PropOp28
 70
     1
102
RTVSPost2010Prop29
280
     1
102
RTVSPost2010PropOp29
 70
     1
102
RTVSPost2010Prop30
280
     1
102
RTVSPost2010PropOp30
 70
     1
102
RTVSPost2010Prop31
280
     0
102
RTVSPost2010PropOp31
 70
     1
102
RTVSPost2010Prop32
280
     0
102
RTVSPost2010PropOp32
 70
     1
102
RTVSPost2010Prop33
280
     0
102
RTVSPost2010PropOp33
 70
     1
102
RTVSPost2010Prop34
280
     0
102
RTVSPost2010PropOp34
 70
     1
102
RTVSPost2010Prop35
280
     0
102
RTVSPost2010PropOp35
 70
     1
102
RTVSPost2010Prop36
280
     0
102
RTVSPost2010PropOp36
 70
     1
102
RTVSPost2010Prop37
 90
       50
102
RTVSPost2010PropOp37
 70
     1
102
RTVSPost2010Prop38
140
0.0
102
RTVSPost2010PropOp38
 70
     1
102
RTVSPost2010Prop39
140
1.0
102
RTVSPost2010PropOp39
 70
     1
102
RTVSPost2010Prop40
 90
        0
102
RTVSPost2010PropOp40
 70
     1
102
RTVSPost2010Prop41ColorIndex
 90
       18
102
RTVSPost2010Prop41ColorRGB
 90
        0
102
RTVSPost2010PropOp41
 70
     1
102
RTVSPost2010Prop42
 90
       50
102
RTVSPost2010PropOp42
 70
     1
102
RTVSPost2010Prop43
 90
        3
102
RTVSPost2010PropOp43
 70
     1
102
RTVSPost2010Prop44ColorIndex
 90
        5
102
RTVSPost2010Prop44ColorRGB
 90
      255
102
RTVSPost2010PropOp44
 70
     1
102
RTVSPost2010Prop45
280
     0
102
RTVSPost2010PropOp45
 70
     1
102
RTVSPost2010Prop46
 90
       50
102
RTVSPost2010PropOp46
 70
     1
102
RTVSPost2010Prop47
 90
       50
102
RTVSPost2010PropOp47
 70
     1
102
RTVSPost2010Prop48
 90
       50
102
RTVSPost2010PropOp48
 70
     1
102
RTVSPost2010Prop49
280
     0
102
RTVSPost2010PropOp49
 70
     1
102
RTVSPost2010Prop50
 90
       50
102
RTVSPost2010PropOp50
 70
     1
102
RTVSPost2010Prop51ColorIndex
 90
      256
102
RTVSPost2010Prop51ColorRGB
 90
-16777216
102
RTVSPost2010PropOp51
 70
     0
102
RTVSPost2010Prop52
140
1.0
102
RTVSPost2010PropOp52
 70
     0
102
RTVSPost2010Prop53
 90
        2
102
RTVSPost2010PropOp53
 70
     1
102
RTVSPost2010Prop54
  1
strokes_ogs.tif
102
RTVSPost2010PropOp54
 70
     1
102
RTVSPost2010Prop55
280
     0
102
RTVSPost2010PropOp55
 70
     1
102
RTVSPost2010Prop56
140
1.0
102
RTVSPost2010PropOp56
 70
     1
102
RTVSPost2010Prop57
140
1.0
102
RTVSPost2010PropOp57
 70
     1
  0
XRECORD
  5
10A
102
{ACAD_REACTORS
330
109
102
}
330
109
100
AcDbXrecord
280
     1
102
RTVSPost2010Prop28
280
     0
102
RTVSPost2010PropOp28
 70
     1
102
RTVSPost2010Prop29
280
     1
102
RTVSPost2010PropOp29
 70
     1
102
RTVSPost2010Prop30
280
     1
102
RTVSPost2010PropOp30
 70
     1
102
RTVSPost2010Prop31
280
     0
102
RTVSPost2010PropOp31
 70
     1
102
RTVSPost2010Prop32
280
     0
102
RTVSPost2010PropOp32
 70
     1
102
RTVSPost2010Prop33
280
     0
102
RTVSPost2010PropOp33
 70
     1
102
RTVSPost2010Prop34
280
     0
102
RTVSPost2010PropOp34
 70
     1
102
RTVSPost2010Prop35
280
     0
102
RTVSPost2010PropOp35
 70
     1
102
RTVSPost2010Prop36
280
     0
102
RTVSPost2010PropOp36
 70
     1
102
RTVSPost2010Prop37
 90
       50
102
RTVSPost2010PropOp37
 70
     1
102
RTVSPost2010Prop38
140
0.0
102
RTVSPost2010PropOp38
 70
     1
102
RTVSPost2010Prop39
140
1.0
102
RTVSPost2010PropOp39
 70
     1
102
RTVSPost2010Prop40
 90
        0
102
RTVSPost2010PropOp40
 70
     1
102
RTVSPost2010Prop41ColorIndex
 90
       18
102
RTVSPost2010Prop41ColorRGB
 90
        0
102
RTVSPost2010PropOp41
 70
     1
102
RTVSPost2010Prop42
 90
       50
102
RTVSPost2010PropOp42
 70
     1
102
RTVSPost2010Prop43
 90
        3
102
RTVSPost2010PropOp43
 70
     1
102
RTVSPost2010Prop44ColorIndex
 90
        5
102
RTVSPost2010Prop44ColorRGB
 90
      255
102
RTVSPost2010PropOp44
 70
     1
102
RTVSPost2010Prop45
280
     0
102
RTVSPost2010PropOp45
 70
     1
102
RTVSPost2010Prop46
 90
       50
102
RTVSPost2010PropOp46
 70
     1
102
RTVSPost2010Prop47
 90
       50
102
RTVSPost2010PropOp47
 70
     1
102
RTVSPost2010Prop48
 90
       50
102
RTVSPost2010PropOp48
 70
     1
102
RTVSPost2010Prop49
280
     0
102
RTVSPost2010PropOp49
 70
     1
102
RTVSPost2010Prop50
 90
       50
102
RTVSPost2010PropOp50
 70
     1
102
RTVSPost2010Prop51ColorIndex
 90
      256
102
RTVSPost2010Prop51ColorRGB
 90
-16777216
102
RTVSPost2010PropOp51
 70
     0
102
RTVSPost2010Prop52
140
1.0
102
RTVSPost2010PropOp52
 70
     0
102
RTVSPost2010Prop53
 90
        2
102
RTVSPost2010PropOp53
 70
     1
102
RTVSPost2010Prop54
  1
strokes_ogs.tif
102
RTVSPost2010PropOp54
 70
     1
102
RTVSPost2010Prop55
280
     0
102
RTVSPost2010PropOp55
 70
     1
102
RTVSPost2010Prop56
140
1.0
102
RTVSPost2010PropOp56
 70
     1
102
RTVSPost2010Prop57
140
1.0
102
RTVSPost2010PropOp57
 70
     1
  0
XRECORD
  5
10C
102
{ACAD_REACTORS
330
10B
102
}
330
10B
100
AcDbXrecord
280
     1
102
RTVSPost2010Prop28
280
     0
102
RTVSPost2010PropOp28
 70
     1
102
RTVSPost2010Prop29
280
     1
102
RTVSPost2010PropOp29
 70
     1
102
RTVSPost2010Prop30
280
     1
102
RTVSPost2010PropOp30
 70
     1
102
RTVSPost2010Prop31
280
     0
102
RTVSPost2010PropOp31
 70
     1
102
RTVSPost2010Prop32
280
     0
102
RTVSPost2010PropOp32
 70
     1
102
RTVSPost2010Prop33
280
     0
102
RTVSPost2010PropOp33
 70
     1
102
RTVSPost2010Prop34
280
     0
102
RTVSPost2010PropOp34
 70
     1
102
RTVSPost2010Prop35
280
     0
102
RTVSPost2010PropOp35
 70
     1
102
RTVSPost2010Prop36
280
     0
102
RTVSPost2010PropOp36
 70
     1
102
RTVSPost2010Prop37
 90
       50
102
RTVSPost2010PropOp37
 70
     1
102
RTVSPost2010Prop38
140
0.0
102
RTVSPost2010PropOp38
 70
     1
102
RTVSPost2010Prop39
140
1.0
102
RTVSPost2010PropOp39
 70
     1
102
RTVSPost2010Prop40
 90
        0
102
RTVSPost2010PropOp40
 70
     1
102
RTVSPost2010Prop41ColorIndex
 90
       18
102
RTVSPost2010Prop41ColorRGB
 90
        0
102
RTVSPost2010PropOp41
 70
     1
102
RTVSPost2010Prop42
 90
       50
102
RTVSPost2010PropOp42
 70
     1
102
RTVSPost2010Prop43
 90
        3
102
RTVSPost2010PropOp43
 70
     1
102
RTVSPost2010Prop44ColorIndex
 90
        5
102
RTVSPost2010Prop44ColorRGB
 90
      255
102
RTVSPost2010PropOp44
 70
     1
102
RTVSPost2010Prop45
280
     0
102
RTVSPost2010PropOp45
 70
     1
102
RTVSPost2010Prop46
 90
       50
102
RTVSPost2010PropOp46
 70
     1
102
RTVSPost2010Prop47
 90
       50
102
RTVSPost2010PropOp47
 70
     1
102
RTVSPost2010Prop48
 90
       50
102
RTVSPost2010PropOp48
 70
     1
102
RTVSPost2010Prop49
280
     0
102
RTVSPost2010PropOp49
 70
     1
102
RTVSPost2010Prop50
 90
       50
102
RTVSPost2010PropOp50
 70
     1
102
RTVSPost2010Prop51ColorIndex
 90
      256
102
RTVSPost2010Prop51ColorRGB
 90
-16777216
102
RTVSPost2010PropOp51
 70
     0
102
RTVSPost2010Prop52
140
1.0
102
RTVSPost2010PropOp52
 70
     0
102
RTVSPost2010Prop53
 90
        2
102
RTVSPost2010PropOp53
 70
     1
102
RTVSPost2010Prop54
  1
strokes_ogs.tif
102
RTVSPost2010PropOp54
 70
     1
102
RTVSPost2010Prop55
280
     0
102
RTVSPost2010PropOp55
 70
     1
102
RTVSPost2010Prop56
140
1.0
102
RTVSPost2010PropOp56
 70
     1
102
RTVSPost2010Prop57
140
1.0
102
RTVSPost2010PropOp57
 70
     1
  0
XRECORD
  5
11C
102
{ACAD_REACTORS
330
11B
102
}
330
11B
100
AcDbXrecord
280
     1
102
RTVSPost2010Prop28
280
     0
102
RTVSPost2010PropOp28
 70
     0
102
RTVSPost2010Prop29
280
     1
102
RTVSPost2010PropOp29
 70
     0
102
RTVSPost2010Prop30
280
     1
102
RTVSPost2010PropOp30
 70
     0
102
RTVSPost2010Prop31
280
     0
102
RTVSPost2010PropOp31
 70
     0
102
RTVSPost2010Prop32
280
     0
102
RTVSPost2010PropOp32
 70
     0
102
RTVSPost2010Prop33
280
     0
102
RTVSPost2010PropOp33
 70
     0
102
RTVSPost2010Prop34
280
     0
102
RTVSPost2010PropOp34
 70
     0
102
RTVSPost2010Prop35
280
     0
102
RTVSPost2010PropOp35
 70
     0
102
RTVSPost2010Prop36
280
     0
102
RTVSPost2010PropOp36
 70
     0
102
RTVSPost2010Prop37
 90
       50
102
RTVSPost2010PropOp37
 70
     0
102
RTVSPost2010Prop38
140
0.0
102
RTVSPost2010PropOp38
 70
     0
102
RTVSPost2010Prop39
140
1.0
102
RTVSPost2010PropOp39
 70
     0
102
RTVSPost2010Prop40
 90
        0
102
RTVSPost2010PropOp40
 70
     0
102
RTVSPost2010Prop41ColorIndex
 90
       18
102
RTVSPost2010Prop41ColorRGB
 90
        0
102
RTVSPost2010PropOp41
 70
     0
102
RTVSPost2010Prop42
 90
       50
102
RTVSPost2010PropOp42
 70
     0
102
RTVSPost2010Prop43
 90
        3
102
RTVSPost2010PropOp43
 70
     0
102
RTVSPost2010Prop44ColorIndex
 90
        5
102
RTVSPost2010Prop44ColorRGB
 90
      255
102
RTVSPost2010PropOp44
 70
     0
102
RTVSPost2010Prop45
280
     0
102
RTVSPost2010PropOp45
 70
     0
102
RTVSPost2010Prop46
 90
       50
102
RTVSPost2010PropOp46
 70
     0
102
RTVSPost2010Prop47
 90
       50
102
RTVSPost2010PropOp47
 70
     0
102
RTVSPost2010Prop48
 90
       50
102
RTVSPost2010PropOp48
 70
     0
102
RTVSPost2010Prop49
280
     0
102
RTVSPost2010PropOp49
 70
     0
102
RTVSPost2010Prop50
 90
       50
102
RTVSPost2010PropOp50
 70
     0
102
RTVSPost2010Prop51ColorIndex
 90
      256
102
RTVSPost2010Prop51ColorRGB
 90
-16777216
102
RTVSPost2010PropOp51
 70
     0
102
RTVSPost2010Prop52
140
1.0
102
RTVSPost2010PropOp52
 70
     0
102
RTVSPost2010Prop53
 90
        2
102
RTVSPost2010PropOp53
 70
     0
102
RTVSPost2010Prop54
  1
strokes_ogs.tif
102
RTVSPost2010PropOp54
 70
     0
102
RTVSPost2010Prop55
280
     0
102
RTVSPost2010PropOp55
 70
     0
102
RTVSPost2010Prop56
140
1.0
102
RTVSPost2010PropOp56
 70
     0
102
RTVSPost2010Prop57
140
1.0
102
RTVSPost2010PropOp57
 70
     0
  0
XRECORD
  5
114
102
{ACAD_REACTORS
330
113
102
}
330
113
100
AcDbXrecord
280
     1
102
RTVSPost2010Prop28
280
     0
102
RTVSPost2010PropOp28
 70
     1
102
RTVSPost2010Prop29
280
     1
102
RTVSPost2010PropOp29
 70
     1
102
RTVSPost2010Prop30
280
     1
102
RTVSPost2010PropOp30
 70
     1
102
RTVSPost2010Prop31
280
     0
102
RTVSPost2010PropOp31
 70
     1
102
RTVSPost2010Prop32
280
     0
102
RTVSPost2010PropOp32
 70
     1
102
RTVSPost2010Prop33
280
     0
102
RTVSPost2010PropOp33
 70
     1
102
RTVSPost2010Prop34
280
     0
102
RTVSPost2010PropOp34
 70
     1
102
RTVSPost2010Prop35
280
     0
102
RTVSPost2010PropOp35
 70
     1
102
RTVSPost2010Prop36
280
     0
102
RTVSPost2010PropOp36
 70
     1
102
RTVSPost2010Prop37
 90
       50
102
RTVSPost2010PropOp37
 70
     1
102
RTVSPost2010Prop38
140
0.0
102
RTVSPost2010PropOp38
 70
     1
102
RTVSPost2010Prop39
140
1.0
102
RTVSPost2010PropOp39
 70
     1
102
RTVSPost2010Prop40
 90
        0
102
RTVSPost2010PropOp40
 70
     1
102
RTVSPost2010Prop41ColorIndex
 90
       18
102
RTVSPost2010Prop41ColorRGB
 90
        0
102
RTVSPost2010PropOp41
 70
     1
102
RTVSPost2010Prop42
 90
       50
102
RTVSPost2010PropOp42
 70
     1
102
RTVSPost2010Prop43
 90
        3
102
RTVSPost2010PropOp43
 70
     1
102
RTVSPost2010Prop44ColorIndex
 90
        5
102
RTVSPost2010Prop44ColorRGB
 90
      255
102
RTVSPost2010PropOp44
 70
     1
102
RTVSPost2010Prop45
280
     0
102
RTVSPost2010PropOp45
 70
     1
102
RTVSPost2010Prop46
 90
       50
102
RTVSPost2010PropOp46
 70
     1
102
RTVSPost2010Prop47
 90
       50
102
RTVSPost2010PropOp47
 70
     1
102
RTVSPost2010Prop48
 90
       50
102
RTVSPost2010PropOp48
 70
     1
102
RTVSPost2010Prop49
280
     0
102
RTVSPost2010PropOp49
 70
     1
102
RTVSPost2010Prop50
 90
       50
102
RTVSPost2010PropOp50
 70
     1
102
RTVSPost2010Prop51ColorIndex
 90
      256
102
RTVSPost2010Prop51ColorRGB
 90
-16777216
102
RTVSPost2010PropOp51
 70
     0
102
RTVSPost2010Prop52
140
1.0
102
RTVSPost2010PropOp52
 70
     0
102
RTVSPost2010Prop53
 90
        2
102
RTVSPost2010PropOp53
 70
     1
102
RTVSPost2010Prop54
  1
strokes_ogs.tif
102
RTVSPost2010PropOp54
 70
     1
102
RTVSPost2010Prop55
280
     0
102
RTVSPost2010PropOp55
 70
     1
102
RTVSPost2010Prop56
140
1.0
102
RTVSPost2010PropOp56
 70
     1
102
RTVSPost2010Prop57
140
1.0
102
RTVSPost2010PropOp57
 70
     1
  0
XRECORD
  5
F8
102
{ACAD_REACTORS
330
F7
102
}
330
F7
100
AcDbXrecord
280
     1
102
RTVSPost2010Prop28
280
     0
102
RTVSPost2010PropOp28
 70
     1
102
RTVSPost2010Prop29
280
     1
102
RTVSPost2010PropOp29
 70
     1
102
RTVSPost2010Prop30
280
     1
102
RTVSPost2010PropOp30
 70
     1
102
RTVSPost2010Prop31
280
     0
102
RTVSPost2010PropOp31
 70
     1
102
RTVSPost2010Prop32
280
     0
102
RTVSPost2010PropOp32
 70
     1
102
RTVSPost2010Prop33
280
     0
102
RTVSPost2010PropOp33
 70
     1
102
RTVSPost2010Prop34
280
     0
102
RTVSPost2010PropOp34
 70
     1
102
RTVSPost2010Prop35
280
     0
102
RTVSPost2010PropOp35
 70
     1
102
RTVSPost2010Prop36
280
     0
102
RTVSPost2010PropOp36
 70
     1
102
RTVSPost2010Prop37
 90
       50
102
RTVSPost2010PropOp37
 70
     1
102
RTVSPost2010Prop38
140
0.0
102
RTVSPost2010PropOp38
 70
     1
102
RTVSPost2010Prop39
140
1.0
102
RTVSPost2010PropOp39
 70
     1
102
RTVSPost2010Prop40
 90
        0
102
RTVSPost2010PropOp40
 70
     1
102
RTVSPost2010Prop41ColorIndex
 90
       18
102
RTVSPost2010Prop41ColorRGB
 90
        0
102
RTVSPost2010PropOp41
 70
     1
102
RTVSPost2010Prop42
 90
       50
102
RTVSPost2010PropOp42
 70
     1
102
RTVSPost2010Prop43
 90
        3
102
RTVSPost2010PropOp43
 70
     1
102
RTVSPost2010Prop44ColorIndex
 90
        5
102
RTVSPost2010Prop44ColorRGB
 90
      255
102
RTVSPost2010PropOp44
 70
     1
102
RTVSPost2010Prop45
280
     0
102
RTVSPost2010PropOp45
 70
     1
102
RTVSPost2010Prop46
 90
       50
102
RTVSPost2010PropOp46
 70
     1
102
RTVSPost2010Prop47
 90
       50
102
RTVSPost2010PropOp47
 70
     1
102
RTVSPost2010Prop48
 90
       50
102
RTVSPost2010PropOp48
 70
     1
102
RTVSPost2010Prop49
280
     0
102
RTVSPost2010PropOp49
 70
     1
102
RTVSPost2010Prop50
 90
       50
102
RTVSPost2010PropOp50
 70
     1
102
RTVSPost2010Prop51ColorIndex
 90
      256
102
RTVSPost2010Prop51ColorRGB
 90
-16777216
102
RTVSPost2010PropOp51
 70
     0
102
RTVSPost2010Prop52
140
1.0
102
RTVSPost2010PropOp52
 70
     0
102
RTVSPost2010Prop53
 90
        2
102
RTVSPost2010PropOp53
 70
     1
102
RTVSPost2010Prop54
  1
strokes_ogs.tif
102
RTVSPost2010PropOp54
 70
     1
102
RTVSPost2010Prop55
280
     0
102
RTVSPost2010PropOp55
 70
     1
102
RTVSPost2010Prop56
140
1.0
102
RTVSPost2010PropOp56
 70
     1
102
RTVSPost2010Prop57
140
1.0
102
RTVSPost2010PropOp57
 70
     1
  0
XRECORD
  5
FA
102
{ACAD_REACTORS
330
F9
102
}
330
F9
100
AcDbXrecord
280
     1
102
RTVSPost2010Prop28
280
     0
102
RTVSPost2010PropOp28
 70
     1
102
RTVSPost2010Prop29
280
     1
102
RTVSPost2010PropOp29
 70
     1
102
RTVSPost2010Prop30
280
     1
102
RTVSPost2010PropOp30
 70
     1
102
RTVSPost2010Prop31
280
     0
102
RTVSPost2010PropOp31
 70
     1
102
RTVSPost2010Prop32
280
     0
102
RTVSPost2010PropOp32
 70
     1
102
RTVSPost2010Prop33
280
     0
102
RTVSPost2010PropOp33
 70
     1
102
RTVSPost2010Prop34
280
     0
102
RTVSPost2010PropOp34
 70
     1
102
RTVSPost2010Prop35
280
     0
102
RTVSPost2010PropOp35
 70
     1
102
RTVSPost2010Prop36
280
     0
102
RTVSPost2010PropOp36
 70
     1
102
RTVSPost2010Prop37
 90
       50
102
RTVSPost2010PropOp37
 70
     1
102
RTVSPost2010Prop38
140
0.0
102
RTVSPost2010PropOp38
 70
     1
102
RTVSPost2010Prop39
140
1.0
102
RTVSPost2010PropOp39
 70
     1
102
RTVSPost2010Prop40
 90
        0
102
RTVSPost2010PropOp40
 70
     1
102
RTVSPost2010Prop41ColorIndex
 90
       18
102
RTVSPost2010Prop41ColorRGB
 90
        0
102
RTVSPost2010PropOp41
 70
     1
102
RTVSPost2010Prop42
 90
       50
102
RTVSPost2010PropOp42
 70
     1
102
RTVSPost2010Prop43
 90
        3
102
RTVSPost2010PropOp43
 70
     1
102
RTVSPost2010Prop44ColorIndex
 90
        5
102
RTVSPost2010Prop44ColorRGB
 90
      255
102
RTVSPost2010PropOp44
 70
     1
102
RTVSPost2010Prop45
280
     0
102
RTVSPost2010PropOp45
 70
     1
102
RTVSPost2010Prop46
 90
       50
102
RTVSPost2010PropOp46
 70
     1
102
RTVSPost2010Prop47
 90
       50
102
RTVSPost2010PropOp47
 70
     1
102
RTVSPost2010Prop48
 90
       50
102
RTVSPost2010PropOp48
 70
     1
102
RTVSPost2010Prop49
280
     0
102
RTVSPost2010PropOp49
 70
     1
102
RTVSPost2010Prop50
 90
       50
102
RTVSPost2010PropOp50
 70
     1
102
RTVSPost2010Prop51ColorIndex
 90
      256
102
RTVSPost2010Prop51ColorRGB
 90
-16777216
102
RTVSPost2010PropOp51
 70
     0
102
RTVSPost2010Prop52
140
1.0
102
RTVSPost2010PropOp52
 70
     0
102
RTVSPost2010Prop53
 90
        2
102
RTVSPost2010PropOp53
 70
     1
102
RTVSPost2010Prop54
  1
strokes_ogs.tif
102
RTVSPost2010PropOp54
 70
     1
102
RTVSPost2010Prop55
280
     0
102
RTVSPost2010PropOp55
 70
     1
102
RTVSPost2010Prop56
140
1.0
102
RTVSPost2010PropOp56
 70
     1
102
RTVSPost2010Prop57
140
1.0
102
RTVSPost2010PropOp57
 70
     1
  0
XRECORD
  5
FC
102
{ACAD_REACTORS
330
FB
102
}
330
FB
100
AcDbXrecord
280
     1
102
RTVSPost2010Prop28
280
     0
102
RTVSPost2010PropOp28
 70
     1
102
RTVSPost2010Prop29
280
     1
102
RTVSPost2010PropOp29
 70
     1
102
RTVSPost2010Prop30
280
     1
102
RTVSPost2010PropOp30
 70
     1
102
RTVSPost2010Prop31
280
     0
102
RTVSPost2010PropOp31
 70
     1
102
RTVSPost2010Prop32
280
     0
102
RTVSPost2010PropOp32
 70
     1
102
RTVSPost2010Prop33
280
     0
102
RTVSPost2010PropOp33
 70
     1
102
RTVSPost2010Prop34
280
     0
102
RTVSPost2010PropOp34
 70
     1
102
RTVSPost2010Prop35
280
     0
102
RTVSPost2010PropOp35
 70
     1
102
RTVSPost2010Prop36
280
     0
102
RTVSPost2010PropOp36
 70
     1
102
RTVSPost2010Prop37
 90
       50
102
RTVSPost2010PropOp37
 70
     1
102
RTVSPost2010Prop38
140
0.0
102
RTVSPost2010PropOp38
 70
     1
102
RTVSPost2010Prop39
140
1.0
102
RTVSPost2010PropOp39
 70
     1
102
RTVSPost2010Prop40
 90
        0
102
RTVSPost2010PropOp40
 70
     1
102
RTVSPost2010Prop41ColorIndex
 90
       18
102
RTVSPost2010Prop41ColorRGB
 90
        0
102
RTVSPost2010PropOp41
 70
     1
102
RTVSPost2010Prop42
 90
       50
102
RTVSPost2010PropOp42
 70
     1
102
RTVSPost2010Prop43
 90
        3
102
RTVSPost2010PropOp43
 70
     1
102
RTVSPost2010Prop44ColorIndex
 90
        5
102
RTVSPost2010Prop44ColorRGB
 90
      255
102
RTVSPost2010PropOp44
 70
     1
102
RTVSPost2010Prop45
280
     0
102
RTVSPost2010PropOp45
 70
     1
102
RTVSPost2010Prop46
 90
       50
102
RTVSPost2010PropOp46
 70
     1
102
RTVSPost2010Prop47
 90
       50
102
RTVSPost2010PropOp47
 70
     1
102
RTVSPost2010Prop48
 90
       50
102
RTVSPost2010PropOp48
 70
     1
102
RTVSPost2010Prop49
280
     0
102
RTVSPost2010PropOp49
 70
     1
102
RTVSPost2010Prop50
 90
       50
102
RTVSPost2010PropOp50
 70
     1
102
RTVSPost2010Prop51ColorIndex
 90
      256
102
RTVSPost2010Prop51ColorRGB
 90
-16777216
102
RTVSPost2010PropOp51
 70
     0
102
RTVSPost2010Prop52
140
1.0
102
RTVSPost2010PropOp52
 70
     0
102
RTVSPost2010Prop53
 90
        2
102
RTVSPost2010PropOp53
 70
     1
102
RTVSPost2010Prop54
  1
strokes_ogs.tif
102
RTVSPost2010PropOp54
 70
     1
102
RTVSPost2010Prop55
280
     0
102
RTVSPost2010PropOp55
 70
     1
102
RTVSPost2010Prop56
140
1.0
102
RTVSPost2010PropOp56
 70
     1
102
RTVSPost2010Prop57
140
1.0
102
RTVSPost2010PropOp57
 70
     1
  0
XRECORD
  5
FE
102
{ACAD_REACTORS
330
FD
102
}
330
FD
100
AcDbXrecord
280
     1
102
RTVSPost2010Prop28
280
     0
102
RTVSPost2010PropOp28
 70
     1
102
RTVSPost2010Prop29
280
     1
102
RTVSPost2010PropOp29
 70
     1
102
RTVSPost2010Prop30
280
     1
102
RTVSPost2010PropOp30
 70
     1
102
RTVSPost2010Prop31
280
     0
102
RTVSPost2010PropOp31
 70
     1
102
RTVSPost2010Prop32
280
     0
102
RTVSPost2010PropOp32
 70
     1
102
RTVSPost2010Prop33
280
     0
102
RTVSPost2010PropOp33
 70
     1
102
RTVSPost2010Prop34
280
     0
102
RTVSPost2010PropOp34
 70
     1
102
RTVSPost2010Prop35
280
     0
102
RTVSPost2010PropOp35
 70
     1
102
RTVSPost2010Prop36
280
     0
102
RTVSPost2010PropOp36
 70
     1
102
RTVSPost2010Prop37
 90
       50
102
RTVSPost2010PropOp37
 70
     1
102
RTVSPost2010Prop38
140
0.0
102
RTVSPost2010PropOp38
 70
     1
102
RTVSPost2010Prop39
140
1.0
102
RTVSPost2010PropOp39
 70
     1
102
RTVSPost2010Prop40
 90
        0
102
RTVSPost2010PropOp40
 70
     1
102
RTVSPost2010Prop41ColorIndex
 90
       18
102
RTVSPost2010Prop41ColorRGB
 90
        0
102
RTVSPost2010PropOp41
 70
     1
102
RTVSPost2010Prop42
 90
       50
102
RTVSPost2010PropOp42
 70
     1
102
RTVSPost2010Prop43
 90
        3
102
RTVSPost2010PropOp43
 70
     1
102
RTVSPost2010Prop44ColorIndex
 90
        5
102
RTVSPost2010Prop44ColorRGB
 90
      255
102
RTVSPost2010PropOp44
 70
     1
102
RTVSPost2010Prop45
280
     0
102
RTVSPost2010PropOp45
 70
     1
102
RTVSPost2010Prop46
 90
       50
102
RTVSPost2010PropOp46
 70
     1
102
RTVSPost2010Prop47
 90
       50
102
RTVSPost2010PropOp47
 70
     1
102
RTVSPost2010Prop48
 90
       50
102
RTVSPost2010PropOp48
 70
     1
102
RTVSPost2010Prop49
280
     0
102
RTVSPost2010PropOp49
 70
     1
102
RTVSPost2010Prop50
 90
       50
102
RTVSPost2010PropOp50
 70
     1
102
RTVSPost2010Prop51ColorIndex
 90
      256
102
RTVSPost2010Prop51ColorRGB
 90
-16777216
102
RTVSPost2010PropOp51
 70
     0
102
RTVSPost2010Prop52
140
1.0
102
RTVSPost2010PropOp52
 70
     0
102
RTVSPost2010Prop53
 90
        2
102
RTVSPost2010PropOp53
 70
     1
102
RTVSPost2010Prop54
  1
strokes_ogs.tif
102
RTVSPost2010PropOp54
 70
     1
102
RTVSPost2010Prop55
280
     0
102
RTVSPost2010PropOp55
 70
     1
102
RTVSPost2010Prop56
140
1.0
102
RTVSPost2010PropOp56
 70
     1
102
RTVSPost2010Prop57
140
1.0
102
RTVSPost2010PropOp57
 70
     1
  0
XRECORD
  5
104
102
{ACAD_REACTORS
330
103
102
}
330
103
100
AcDbXrecord
280
     1
102
RTVSPost2010Prop28
280
     0
102
RTVSPost2010PropOp28
 70
     1
102
RTVSPost2010Prop29
280
     1
102
RTVSPost2010PropOp29
 70
     1
102
RTVSPost2010Prop30
280
     1
102
RTVSPost2010PropOp30
 70
     1
102
RTVSPost2010Prop31
280
     0
102
RTVSPost2010PropOp31
 70
     1
102
RTVSPost2010Prop32
280
     0
102
RTVSPost2010PropOp32
 70
     1
102
RTVSPost2010Prop33
280
     0
102
RTVSPost2010PropOp33
 70
     1
102
RTVSPost2010Prop34
280
     0
102
RTVSPost2010PropOp34
 70
     1
102
RTVSPost2010Prop35
280
     0
102
RTVSPost2010PropOp35
 70
     1
102
RTVSPost2010Prop36
280
     0
102
RTVSPost2010PropOp36
 70
     1
102
RTVSPost2010Prop37
 90
       50
102
RTVSPost2010PropOp37
 70
     1
102
RTVSPost2010Prop38
140
0.0
102
RTVSPost2010PropOp38
 70
     1
102
RTVSPost2010Prop39
140
1.0
102
RTVSPost2010PropOp39
 70
     1
102
RTVSPost2010Prop40
 90
        0
102
RTVSPost2010PropOp40
 70
     1
102
RTVSPost2010Prop41ColorIndex
 90
       18
102
RTVSPost2010Prop41ColorRGB
 90
        0
102
RTVSPost2010PropOp41
 70
     1
102
RTVSPost2010Prop42
 90
       50
102
RTVSPost2010PropOp42
 70
     1
102
RTVSPost2010Prop43
 90
        3
102
RTVSPost2010PropOp43
 70
     1
102
RTVSPost2010Prop44ColorIndex
 90
        5
102
RTVSPost2010Prop44ColorRGB
 90
      255
102
RTVSPost2010PropOp44
 70
     1
102
RTVSPost2010Prop45
280
     0
102
RTVSPost2010PropOp45
 70
     1
102
RTVSPost2010Prop46
 90
       50
102
RTVSPost2010PropOp46
 70
     1
102
RTVSPost2010Prop47
 90
       50
102
RTVSPost2010PropOp47
 70
     1
102
RTVSPost2010Prop48
 90
       50
102
RTVSPost2010PropOp48
 70
     1
102
RTVSPost2010Prop49
280
     0
102
RTVSPost2010PropOp49
 70
     1
102
RTVSPost2010Prop50
 90
       50
102
RTVSPost2010PropOp50
 70
     1
102
RTVSPost2010Prop51ColorIndex
 90
      256
102
RTVSPost2010Prop51ColorRGB
 90
-16777216
102
RTVSPost2010PropOp51
 70
     0
102
RTVSPost2010Prop52
140
1.0
102
RTVSPost2010PropOp52
 70
     0
102
RTVSPost2010Prop53
 90
        2
102
RTVSPost2010PropOp53
 70
     1
102
RTVSPost2010Prop54
  1
strokes_ogs.tif
102
RTVSPost2010PropOp54
 70
     1
102
RTVSPost2010Prop55
280
     0
102
RTVSPost2010PropOp55
 70
     1
102
RTVSPost2010Prop56
140
1.0
102
RTVSPost2010PropOp56
 70
     1
102
RTVSPost2010Prop57
140
1.0
102
RTVSPost2010PropOp57
 70
     1
  0
XRECORD
  5
118
102
{ACAD_REACTORS
330
117
102
}
330
117
100
AcDbXrecord
280
     1
102
RTVSPost2010Prop28
280
     0
102
RTVSPost2010PropOp28
 70
     0
102
RTVSPost2010Prop29
280
     1
102
RTVSPost2010PropOp29
 70
     0
102
RTVSPost2010Prop30
280
     1
102
RTVSPost2010PropOp30
 70
     0
102
RTVSPost2010Prop31
280
     0
102
RTVSPost2010PropOp31
 70
     0
102
RTVSPost2010Prop32
280
     0
102
RTVSPost2010PropOp32
 70
     0
102
RTVSPost2010Prop33
280
     0
102
RTVSPost2010PropOp33
 70
     0
102
RTVSPost2010Prop34
280
     0
102
RTVSPost2010PropOp34
 70
     0
102
RTVSPost2010Prop35
280
     0
102
RTVSPost2010PropOp35
 70
     0
102
RTVSPost2010Prop36
280
     0
102
RTVSPost2010PropOp36
 70
     0
102
RTVSPost2010Prop37
 90
       50
102
RTVSPost2010PropOp37
 70
     0
102
RTVSPost2010Prop38
140
0.0
102
RTVSPost2010PropOp38
 70
     0
102
RTVSPost2010Prop39
140
1.0
102
RTVSPost2010PropOp39
 70
     0
102
RTVSPost2010Prop40
 90
        0
102
RTVSPost2010PropOp40
 70
     0
102
RTVSPost2010Prop41ColorIndex
 90
       18
102
RTVSPost2010Prop41ColorRGB
 90
        0
102
RTVSPost2010PropOp41
 70
     0
102
RTVSPost2010Prop42
 90
       50
102
RTVSPost2010PropOp42
 70
     0
102
RTVSPost2010Prop43
 90
        3
102
RTVSPost2010PropOp43
 70
     0
102
RTVSPost2010Prop44ColorIndex
 90
        5
102
RTVSPost2010Prop44ColorRGB
 90
      255
102
RTVSPost2010PropOp44
 70
     0
102
RTVSPost2010Prop45
280
     0
102
RTVSPost2010PropOp45
 70
     0
102
RTVSPost2010Prop46
 90
       50
102
RTVSPost2010PropOp46
 70
     0
102
RTVSPost2010Prop47
 90
       50
102
RTVSPost2010PropOp47
 70
     0
102
RTVSPost2010Prop48
 90
       50
102
RTVSPost2010PropOp48
 70
     0
102
RTVSPost2010Prop49
280
     0
102
RTVSPost2010PropOp49
 70
     0
102
RTVSPost2010Prop50
 90
       50
102
RTVSPost2010PropOp50
 70
     0
102
RTVSPost2010Prop51ColorIndex
 90
      256
102
RTVSPost2010Prop51ColorRGB
 90
-16777216
102
RTVSPost2010PropOp51
 70
     0
102
RTVSPost2010Prop52
140
1.0
102
RTVSPost2010PropOp52
 70
     0
102
RTVSPost2010Prop53
 90
        2
102
RTVSPost2010PropOp53
 70
     0
102
RTVSPost2010Prop54
  1
strokes_ogs.tif
102
RTVSPost2010PropOp54
 70
     0
102
RTVSPost2010Prop55
280
     0
102
RTVSPost2010PropOp55
 70
     0
102
RTVSPost2010Prop56
140
1.0
102
RTVSPost2010PropOp56
 70
     0
102
RTVSPost2010Prop57
140
1.0
102
RTVSPost2010PropOp57
 70
     0
  0
XRECORD
  5
112
102
{ACAD_REACTORS
330
111
102
}
330
111
100
AcDbXrecord
280
     1
102
RTVSPost2010Prop28
280
     0
102
RTVSPost2010PropOp28
 70
     1
102
RTVSPost2010Prop29
280
     1
102
RTVSPost2010PropOp29
 70
     1
102
RTVSPost2010Prop30
280
     1
102
RTVSPost2010PropOp30
 70
     1
102
RTVSPost2010Prop31
280
     0
102
RTVSPost2010PropOp31
 70
     1
102
RTVSPost2010Prop32
280
     0
102
RTVSPost2010PropOp32
 70
     1
102
RTVSPost2010Prop33
280
     0
102
RTVSPost2010PropOp33
 70
     1
102
RTVSPost2010Prop34
280
     0
102
RTVSPost2010PropOp34
 70
     1
102
RTVSPost2010Prop35
280
     0
102
RTVSPost2010PropOp35
 70
     1
102
RTVSPost2010Prop36
280
     0
102
RTVSPost2010PropOp36
 70
     1
102
RTVSPost2010Prop37
 90
       50
102
RTVSPost2010PropOp37
 70
     1
102
RTVSPost2010Prop38
140
0.0
102
RTVSPost2010PropOp38
 70
     1
102
RTVSPost2010Prop39
140
1.0
102
RTVSPost2010PropOp39
 70
     1
102
RTVSPost2010Prop40
 90
        0
102
RTVSPost2010PropOp40
 70
     1
102
RTVSPost2010Prop41ColorIndex
 90
       18
102
RTVSPost2010Prop41ColorRGB
 90
        0
102
RTVSPost2010PropOp41
 70
     1
102
RTVSPost2010Prop42
 90
       50
102
RTVSPost2010PropOp42
 70
     1
102
RTVSPost2010Prop43
 90
        3
102
RTVSPost2010PropOp43
 70
     1
102
RTVSPost2010Prop44ColorIndex
 90
        5
102
RTVSPost2010Prop44ColorRGB
 90
      255
102
RTVSPost2010PropOp44
 70
     1
102
RTVSPost2010Prop45
280
     0
102
RTVSPost2010PropOp45
 70
     1
102
RTVSPost2010Prop46
 90
       50
102
RTVSPost2010PropOp46
 70
     1
102
RTVSPost2010Prop47
 90
       50
102
RTVSPost2010PropOp47
 70
     1
102
RTVSPost2010Prop48
 90
       50
102
RTVSPost2010PropOp48
 70
     1
102
RTVSPost2010Prop49
280
     0
102
RTVSPost2010PropOp49
 70
     1
102
RTVSPost2010Prop50
 90
       50
102
RTVSPost2010PropOp50
 70
     1
102
RTVSPost2010Prop51ColorIndex
 90
      256
102
RTVSPost2010Prop51ColorRGB
 90
-16777216
102
RTVSPost2010PropOp51
 70
     0
102
RTVSPost2010Prop52
140
1.0
102
RTVSPost2010PropOp52
 70
     0
102
RTVSPost2010Prop53
 90
        2
102
RTVSPost2010PropOp53
 70
     1
102
RTVSPost2010Prop54
  1
strokes_ogs.tif
102
RTVSPost2010PropOp54
 70
     1
102
RTVSPost2010Prop55
280
     0
102
RTVSPost2010PropOp55
 70
     1
102
RTVSPost2010Prop56
140
1.0
102
RTVSPost2010PropOp56
 70
     1
102
RTVSPost2010Prop57
140
1.0
102
RTVSPost2010PropOp57
 70
     1
  0
XRECORD
  5
11A
102
{ACAD_REACTORS
330
119
102
}
330
119
100
AcDbXrecord
280
     1
102
RTVSPost2010Prop28
280
     0
102
RTVSPost2010PropOp28
 70
     0
102
RTVSPost2010Prop29
280
     1
102
RTVSPost2010PropOp29
 70
     0
102
RTVSPost2010Prop30
280
     1
102
RTVSPost2010PropOp30
 70
     0
102
RTVSPost2010Prop31
280
     0
102
RTVSPost2010PropOp31
 70
     0
102
RTVSPost2010Prop32
280
     0
102
RTVSPost2010PropOp32
 70
     0
102
RTVSPost2010Prop33
280
     0
102
RTVSPost2010PropOp33
 70
     0
102
RTVSPost2010Prop34
280
     0
102
RTVSPost2010PropOp34
 70
     0
102
RTVSPost2010Prop35
280
     0
102
RTVSPost2010PropOp35
 70
     0
102
RTVSPost2010Prop36
280
     0
102
RTVSPost2010PropOp36
 70
     0
102
RTVSPost2010Prop37
 90
       50
102
RTVSPost2010PropOp37
 70
     0
102
RTVSPost2010Prop38
140
0.0
102
RTVSPost2010PropOp38
 70
     0
102
RTVSPost2010Prop39
140
1.0
102
RTVSPost2010PropOp39
 70
     0
102
RTVSPost2010Prop40
 90
        0
102
RTVSPost2010PropOp40
 70
     0
102
RTVSPost2010Prop41ColorIndex
 90
       18
102
RTVSPost2010Prop41ColorRGB
 90
        0
102
RTVSPost2010PropOp41
 70
     0
102
RTVSPost2010Prop42
 90
       50
102
RTVSPost2010PropOp42
 70
     0
102
RTVSPost2010Prop43
 90
        3
102
RTVSPost2010PropOp43
 70
     0
102
RTVSPost2010Prop44ColorIndex
 90
        5
102
RTVSPost2010Prop44ColorRGB
 90
      255
102
RTVSPost2010PropOp44
 70
     0
102
RTVSPost2010Prop45
280
     0
102
RTVSPost2010PropOp45
 70
     0
102
RTVSPost2010Prop46
 90
       50
102
RTVSPost2010PropOp46
 70
     0
102
RTVSPost2010Prop47
 90
       50
102
RTVSPost2010PropOp47
 70
     0
102
RTVSPost2010Prop48
 90
       50
102
RTVSPost2010PropOp48
 70
     0
102
RTVSPost2010Prop49
280
     0
102
RTVSPost2010PropOp49
 70
     0
102
RTVSPost2010Prop50
 90
       50
102
RTVSPost2010PropOp50
 70
     0
102
RTVSPost2010Prop51ColorIndex
 90
      256
102
RTVSPost2010Prop51ColorRGB
 90
-16777216
102
RTVSPost2010PropOp51
 70
     0
102
RTVSPost2010Prop52
140
1.0
102
RTVSPost2010PropOp52
 70
     0
102
RTVSPost2010Prop53
 90
        2
102
RTVSPost2010PropOp53
 70
     0
102
RTVSPost2010Prop54
  1
strokes_ogs.tif
102
RTVSPost2010PropOp54
 70
     0
102
RTVSPost2010Prop55
280
     0
102
RTVSPost2010PropOp55
 70
     0
102
RTVSPost2010Prop56
140
1.0
102
RTVSPost2010PropOp56
 70
     0
102
RTVSPost2010Prop57
140
1.0
102
RTVSPost2010PropOp57
 70
     0
  0
XRECORD
  5
108
102
{ACAD_REACTORS
330
107
102
}
330
107
100
AcDbXrecord
280
     1
102
RTVSPost2010Prop28
280
     0
102
RTVSPost2010PropOp28
 70
     1
102
RTVSPost2010Prop29
280
     1
102
RTVSPost2010PropOp29
 70
     1
102
RTVSPost2010Prop30
280
     1
102
RTVSPost2010PropOp30
 70
     1
102
RTVSPost2010Prop31
280
     0
102
RTVSPost2010PropOp31
 70
     1
102
RTVSPost2010Prop32
280
     0
102
RTVSPost2010PropOp32
 70
     1
102
RTVSPost2010Prop33
280
     0
102
RTVSPost2010PropOp33
 70
     1
102
RTVSPost2010Prop34
280
     0
102
RTVSPost2010PropOp34
 70
     1
102
RTVSPost2010Prop35
280
     0
102
RTVSPost2010PropOp35
 70
     1
102
RTVSPost2010Prop36
280
     0
102
RTVSPost2010PropOp36
 70
     1
102
RTVSPost2010Prop37
 90
       50
102
RTVSPost2010PropOp37
 70
     1
102
RTVSPost2010Prop38
140
0.0
102
RTVSPost2010PropOp38
 70
     1
102
RTVSPost2010Prop39
140
1.0
102
RTVSPost2010PropOp39
 70
     1
102
RTVSPost2010Prop40
 90
        0
102
RTVSPost2010PropOp40
 70
     1
102
RTVSPost2010Prop41ColorIndex
 90
       18
102
RTVSPost2010Prop41ColorRGB
 90
        0
102
RTVSPost2010PropOp41
 70
     1
102
RTVSPost2010Prop42
 90
       50
102
RTVSPost2010PropOp42
 70
     1
102
RTVSPost2010Prop43
 90
        3
102
RTVSPost2010PropOp43
 70
     1
102
RTVSPost2010Prop44ColorIndex
 90
        5
102
RTVSPost2010Prop44ColorRGB
 90
      255
102
RTVSPost2010PropOp44
 70
     1
102
RTVSPost2010Prop45
280
     0
102
RTVSPost2010PropOp45
 70
     1
102
RTVSPost2010Prop46
 90
       50
102
RTVSPost2010PropOp46
 70
     1
102
RTVSPost2010Prop47
 90
       50
102
RTVSPost2010PropOp47
 70
     1
102
RTVSPost2010Prop48
 90
       50
102
RTVSPost2010PropOp48
 70
     1
102
RTVSPost2010Prop49
280
     0
102
RTVSPost2010PropOp49
 70
     1
102
RTVSPost2010Prop50
 90
       50
102
RTVSPost2010PropOp50
 70
     1
102
RTVSPost2010Prop51ColorIndex
 90
      256
102
RTVSPost2010Prop51ColorRGB
 90
-16777216
102
RTVSPost2010PropOp51
 70
     0
102
RTVSPost2010Prop52
140
1.0
102
RTVSPost2010PropOp52
 70
     0
102
RTVSPost2010Prop53
 90
        2
102
RTVSPost2010PropOp53
 70
     1
102
RTVSPost2010Prop54
  1
strokes_ogs.tif
102
RTVSPost2010PropOp54
 70
     1
102
RTVSPost2010Prop55
280
     0
102
RTVSPost2010PropOp55
 70
     1
102
RTVSPost2010Prop56
140
1.0
102
RTVSPost2010PropOp56
 70
     1
102
RTVSPost2010Prop57
140
1.0
102
RTVSPost2010PropOp57
 70
     1
  0
XRECORD
  5
126
102
{ACAD_REACTORS
330
125
102
}
330
125
100
AcDbXrecord
280
     1
102
RTVSPost2010Prop28
280
     0
102
RTVSPost2010PropOp28
 70
     1
102
RTVSPost2010Prop29
280
     1
102
RTVSPost2010PropOp29
 70
     1
102
RTVSPost2010Prop30
280
     1
102
RTVSPost2010PropOp30
 70
     1
102
RTVSPost2010Prop31
280
     0
102
RTVSPost2010PropOp31
 70
     1
102
RTVSPost2010Prop32
280
     0
102
RTVSPost2010PropOp32
 70
     1
102
RTVSPost2010Prop33
280
     0
102
RTVSPost2010PropOp33
 70
     1
102
RTVSPost2010Prop34
280
     0
102
RTVSPost2010PropOp34
 70
     1
102
RTVSPost2010Prop35
280
     0
102
RTVSPost2010PropOp35
 70
     1
102
RTVSPost2010Prop36
280
     0
102
RTVSPost2010PropOp36
 70
     1
102
RTVSPost2010Prop37
 90
       50
102
RTVSPost2010PropOp37
 70
     1
102
RTVSPost2010Prop38
140
0.0
102
RTVSPost2010PropOp38
 70
     1
102
RTVSPost2010Prop39
140
1.0
102
RTVSPost2010PropOp39
 70
     1
102
RTVSPost2010Prop40
 90
        0
102
RTVSPost2010PropOp40
 70
     1
102
RTVSPost2010Prop41ColorIndex
 90
       18
102
RTVSPost2010Prop41ColorRGB
 90
        0
102
RTVSPost2010PropOp41
 70
     1
102
RTVSPost2010Prop42
 90
       50
102
RTVSPost2010PropOp42
 70
     1
102
RTVSPost2010Prop43
 90
        3
102
RTVSPost2010PropOp43
 70
     1
102
RTVSPost2010Prop44ColorIndex
 90
        5
102
RTVSPost2010Prop44ColorRGB
 90
      255
102
RTVSPost2010PropOp44
 70
     1
102
RTVSPost2010Prop45
280
     0
102
RTVSPost2010PropOp45
 70
     1
102
RTVSPost2010Prop46
 90
       50
102
RTVSPost2010PropOp46
 70
     1
102
RTVSPost2010Prop47
 90
       50
102
RTVSPost2010PropOp47
 70
     1
102
RTVSPost2010Prop48
 90
       50
102
RTVSPost2010PropOp48
 70
     1
102
RTVSPost2010Prop49
280
     0
102
RTVSPost2010PropOp49
 70
     1
102
RTVSPost2010Prop50
 90
       50
102
RTVSPost2010PropOp50
 70
     1
102
RTVSPost2010Prop51ColorIndex
 90
      256
102
RTVSPost2010Prop51ColorRGB
 90
-16777216
102
RTVSPost2010PropOp51
 70
     0
102
RTVSPost2010Prop52
140
1.0
102
RTVSPost2010PropOp52
 70
     0
102
RTVSPost2010Prop53
 90
        2
102
RTVSPost2010PropOp53
 70
     1
102
RTVSPost2010Prop54
  1
strokes_ogs.tif
102
RTVSPost2010PropOp54
 70
     1
102
RTVSPost2010Prop55
280
     0
102
RTVSPost2010PropOp55
 70
     1
102
RTVSPost2010Prop56
140
1.0
102
RTVSPost2010PropOp56
 70
     1
102
RTVSPost2010Prop57
140
1.0
102
RTVSPost2010PropOp57
 70
     1
  0
XRECORD
  5
124
102
{ACAD_REACTORS
330
123
102
}
330
123
100
AcDbXrecord
280
     1
102
RTVSPost2010Prop28
280
     0
102
RTVSPost2010PropOp28
 70
     1
102
RTVSPost2010Prop29
280
     1
102
RTVSPost2010PropOp29
 70
     1
102
RTVSPost2010Prop30
280
     1
102
RTVSPost2010PropOp30
 70
     1
102
RTVSPost2010Prop31
280
     0
102
RTVSPost2010PropOp31
 70
     1
102
RTVSPost2010Prop32
280
     0
102
RTVSPost2010PropOp32
 70
     1
102
RTVSPost2010Prop33
280
     0
102
RTVSPost2010PropOp33
 70
     1
102
RTVSPost2010Prop34
280
     0
102
RTVSPost2010PropOp34
 70
     1
102
RTVSPost2010Prop35
280
     0
102
RTVSPost2010PropOp35
 70
     1
102
RTVSPost2010Prop36
280
     0
102
RTVSPost2010PropOp36
 70
     1
102
RTVSPost2010Prop37
 90
       50
102
RTVSPost2010PropOp37
 70
     1
102
RTVSPost2010Prop38
140
0.0
102
RTVSPost2010PropOp38
 70
     1
102
RTVSPost2010Prop39
140
1.0
102
RTVSPost2010PropOp39
 70
     1
102
RTVSPost2010Prop40
 90
        0
102
RTVSPost2010PropOp40
 70
     1
102
RTVSPost2010Prop41ColorIndex
 90
       18
102
RTVSPost2010Prop41ColorRGB
 90
        0
102
RTVSPost2010PropOp41
 70
     1
102
RTVSPost2010Prop42
 90
       50
102
RTVSPost2010PropOp42
 70
     1
102
RTVSPost2010Prop43
 90
        3
102
RTVSPost2010PropOp43
 70
     1
102
RTVSPost2010Prop44ColorIndex
 90
        5
102
RTVSPost2010Prop44ColorRGB
 90
      255
102
RTVSPost2010PropOp44
 70
     1
102
RTVSPost2010Prop45
280
     0
102
RTVSPost2010PropOp45
 70
     1
102
RTVSPost2010Prop46
 90
       50
102
RTVSPost2010PropOp46
 70
     1
102
RTVSPost2010Prop47
 90
       50
102
RTVSPost2010PropOp47
 70
     1
102
RTVSPost2010Prop48
 90
       50
102
RTVSPost2010PropOp48
 70
     1
102
RTVSPost2010Prop49
280
     0
102
RTVSPost2010PropOp49
 70
     1
102
RTVSPost2010Prop50
 90
       50
102
RTVSPost2010PropOp50
 70
     1
102
RTVSPost2010Prop51ColorIndex
 90
      256
102
RTVSPost2010Prop51ColorRGB
 90
-16777216
102
RTVSPost2010PropOp51
 70
     0
102
RTVSPost2010Prop52
140
1.0
102
RTVSPost2010PropOp52
 70
     0
102
RTVSPost2010Prop53
 90
        2
102
RTVSPost2010PropOp53
 70
     1
102
RTVSPost2010Prop54
  1
strokes_ogs.tif
102
RTVSPost2010PropOp54
 70
     1
102
RTVSPost2010Prop55
280
     0
102
RTVSPost2010PropOp55
 70
     1
102
RTVSPost2010Prop56
140
1.0
102
RTVSPost2010PropOp56
 70
     1
102
RTVSPost2010Prop57
140
1.0
102
RTVSPost2010PropOp57
 70
     1
  0
XRECORD
  5
11E
102
{ACAD_REACTORS
330
11D
102
}
330
11D
100
AcDbXrecord
280
     1
102
RTVSPost2010Prop28
280
     0
102
RTVSPost2010PropOp28
 70
     1
102
RTVSPost2010Prop29
280
     1
102
RTVSPost2010PropOp29
 70
     1
102
RTVSPost2010Prop30
280
     1
102
RTVSPost2010PropOp30
 70
     1
102
RTVSPost2010Prop31
280
     0
102
RTVSPost2010PropOp31
 70
     1
102
RTVSPost2010Prop32
280
     0
102
RTVSPost2010PropOp32
 70
     1
102
RTVSPost2010Prop33
280
     0
102
RTVSPost2010PropOp33
 70
     1
102
RTVSPost2010Prop34
280
     0
102
RTVSPost2010PropOp34
 70
     1
102
RTVSPost2010Prop35
280
     0
102
RTVSPost2010PropOp35
 70
     1
102
RTVSPost2010Prop36
280
     0
102
RTVSPost2010PropOp36
 70
     1
102
RTVSPost2010Prop37
 90
       50
102
RTVSPost2010PropOp37
 70
     1
102
RTVSPost2010Prop38
140
0.0
102
RTVSPost2010PropOp38
 70
     1
102
RTVSPost2010Prop39
140
1.0
102
RTVSPost2010PropOp39
 70
     1
102
RTVSPost2010Prop40
 90
        0
102
RTVSPost2010PropOp40
 70
     1
102
RTVSPost2010Prop41ColorIndex
 90
       18
102
RTVSPost2010Prop41ColorRGB
 90
        0
102
RTVSPost2010PropOp41
 70
     1
102
RTVSPost2010Prop42
 90
       50
102
RTVSPost2010PropOp42
 70
     1
102
RTVSPost2010Prop43
 90
        3
102
RTVSPost2010PropOp43
 70
     1
102
RTVSPost2010Prop44ColorIndex
 90
        5
102
RTVSPost2010Prop44ColorRGB
 90
      255
102
RTVSPost2010PropOp44
 70
     1
102
RTVSPost2010Prop45
280
     0
102
RTVSPost2010PropOp45
 70
     1
102
RTVSPost2010Prop46
 90
       50
102
RTVSPost2010PropOp46
 70
     1
102
RTVSPost2010Prop47
 90
       50
102
RTVSPost2010PropOp47
 70
     1
102
RTVSPost2010Prop48
 90
       50
102
RTVSPost2010PropOp48
 70
     1
102
RTVSPost2010Prop49
280
     0
102
RTVSPost2010PropOp49
 70
     1
102
RTVSPost2010Prop50
 90
       50
102
RTVSPost2010PropOp50
 70
     1
102
RTVSPost2010Prop51ColorIndex
 90
      256
102
RTVSPost2010Prop51ColorRGB
 90
-16777216
102
RTVSPost2010PropOp51
 70
     0
102
RTVSPost2010Prop52
140
1.0
102
RTVSPost2010PropOp52
 70
     0
102
RTVSPost2010Prop53
 90
        2
102
RTVSPost2010PropOp53
 70
     1
102
RTVSPost2010Prop54
  1
strokes_ogs.tif
102
RTVSPost2010PropOp54
 70
     1
102
RTVSPost2010Prop55
280
     0
102
RTVSPost2010PropOp55
 70
     1
102
RTVSPost2010Prop56
140
1.0
102
RTVSPost2010PropOp56
 70
     1
102
RTVSPost2010Prop57
140
1.0
102
RTVSPost2010PropOp57
 70
     1
  0
XRECORD
  5
120
102
{ACAD_REACTORS
330
11F
102
}
330
11F
100
AcDbXrecord
280
     1
102
RTVSPost2010Prop28
280
     0
102
RTVSPost2010PropOp28
 70
     1
102
RTVSPost2010Prop29
280
     1
102
RTVSPost2010PropOp29
 70
     1
102
RTVSPost2010Prop30
280
     1
102
RTVSPost2010PropOp30
 70
     1
102
RTVSPost2010Prop31
280
     0
102
RTVSPost2010PropOp31
 70
     1
102
RTVSPost2010Prop32
280
     0
102
RTVSPost2010PropOp32
 70
     1
102
RTVSPost2010Prop33
280
     0
102
RTVSPost2010PropOp33
 70
     1
102
RTVSPost2010Prop34
280
     0
102
RTVSPost2010PropOp34
 70
     1
102
RTVSPost2010Prop35
280
     0
102
RTVSPost2010PropOp35
 70
     1
102
RTVSPost2010Prop36
280
     0
102
RTVSPost2010PropOp36
 70
     1
102
RTVSPost2010Prop37
 90
       50
102
RTVSPost2010PropOp37
 70
     1
102
RTVSPost2010Prop38
140
0.0
102
RTVSPost2010PropOp38
 70
     1
102
RTVSPost2010Prop39
140
1.0
102
RTVSPost2010PropOp39
 70
     1
102
RTVSPost2010Prop40
 90
        0
102
RTVSPost2010PropOp40
 70
     1
102
RTVSPost2010Prop41ColorIndex
 90
       18
102
RTVSPost2010Prop41ColorRGB
 90
        0
102
RTVSPost2010PropOp41
 70
     1
102
RTVSPost2010Prop42
 90
       50
102
RTVSPost2010PropOp42
 70
     1
102
RTVSPost2010Prop43
 90
        3
102
RTVSPost2010PropOp43
 70
     1
102
RTVSPost2010Prop44ColorIndex
 90
        5
102
RTVSPost2010Prop44ColorRGB
 90
      255
102
RTVSPost2010PropOp44
 70
     1
102
RTVSPost2010Prop45
280
     0
102
RTVSPost2010PropOp45
 70
     1
102
RTVSPost2010Prop46
 90
       50
102
RTVSPost2010PropOp46
 70
     1
102
RTVSPost2010Prop47
 90
       50
102
RTVSPost2010PropOp47
 70
     1
102
RTVSPost2010Prop48
 90
       50
102
RTVSPost2010PropOp48
 70
     1
102
RTVSPost2010Prop49
280
     0
102
RTVSPost2010PropOp49
 70
     1
102
RTVSPost2010Prop50
 90
       50
102
RTVSPost2010PropOp50
 70
     1
102
RTVSPost2010Prop51ColorIndex
 90
      256
102
RTVSPost2010Prop51ColorRGB
 90
-16777216
102
RTVSPost2010PropOp51
 70
     0
102
RTVSPost2010Prop52
140
1.0
102
RTVSPost2010PropOp52
 70
     0
102
RTVSPost2010Prop53
 90
        2
102
RTVSPost2010PropOp53
 70
     1
102
RTVSPost2010Prop54
  1
strokes_ogs.tif
102
RTVSPost2010PropOp54
 70
     1
102
RTVSPost2010Prop55
280
     0
102
RTVSPost2010PropOp55
 70
     1
102
RTVSPost2010Prop56
140
1.0
102
RTVSPost2010PropOp56
 70
     1
102
RTVSPost2010Prop57
140
1.0
102
RTVSPost2010PropOp57
 70
     1
  0
XRECORD
  5
110
102
{ACAD_REACTORS
330
10F
102
}
330
10F
100
AcDbXrecord
280
     1
102
RTVSPost2010Prop28
280
     0
102
RTVSPost2010PropOp28
 70
     1
102
RTVSPost2010Prop29
280
     1
102
RTVSPost2010PropOp29
 70
     1
102
RTVSPost2010Prop30
280
     1
102
RTVSPost2010PropOp30
 70
     1
102
RTVSPost2010Prop31
280
     0
102
RTVSPost2010PropOp31
 70
     1
102
RTVSPost2010Prop32
280
     0
102
RTVSPost2010PropOp32
 70
     1
102
RTVSPost2010Prop33
280
     0
102
RTVSPost2010PropOp33
 70
     1
102
RTVSPost2010Prop34
280
     0
102
RTVSPost2010PropOp34
 70
     1
102
RTVSPost2010Prop35
280
     0
102
RTVSPost2010PropOp35
 70
     1
102
RTVSPost2010Prop36
280
     0
102
RTVSPost2010PropOp36
 70
     1
102
RTVSPost2010Prop37
 90
       50
102
RTVSPost2010PropOp37
 70
     1
102
RTVSPost2010Prop38
140
0.0
102
RTVSPost2010PropOp38
 70
     1
102
RTVSPost2010Prop39
140
1.0
102
RTVSPost2010PropOp39
 70
     1
102
RTVSPost2010Prop40
 90
        0
102
RTVSPost2010PropOp40
 70
     1
102
RTVSPost2010Prop41ColorIndex
 90
       18
102
RTVSPost2010Prop41ColorRGB
 90
        0
102
RTVSPost2010PropOp41
 70
     1
102
RTVSPost2010Prop42
 90
       50
102
RTVSPost2010PropOp42
 70
     1
102
RTVSPost2010Prop43
 90
        3
102
RTVSPost2010PropOp43
 70
     1
102
RTVSPost2010Prop44ColorIndex
 90
        5
102
RTVSPost2010Prop44ColorRGB
 90
      255
102
RTVSPost2010PropOp44
 70
     1
102
RTVSPost2010Prop45
280
     0
102
RTVSPost2010PropOp45
 70
     1
102
RTVSPost2010Prop46
 90
       50
102
RTVSPost2010PropOp46
 70
     1
102
RTVSPost2010Prop47
 90
       50
102
RTVSPost2010PropOp47
 70
     1
102
RTVSPost2010Prop48
 90
       50
102
RTVSPost2010PropOp48
 70
     1
102
RTVSPost2010Prop49
280
     0
102
RTVSPost2010PropOp49
 70
     1
102
RTVSPost2010Prop50
 90
       50
102
RTVSPost2010PropOp50
 70
     1
102
RTVSPost2010Prop51ColorIndex
 90
      256
102
RTVSPost2010Prop51ColorRGB
 90
-16777216
102
RTVSPost2010PropOp51
 70
     0
102
RTVSPost2010Prop52
140
1.0
102
RTVSPost2010PropOp52
 70
     0
102
RTVSPost2010Prop53
 90
        2
102
RTVSPost2010PropOp53
 70
     1
102
RTVSPost2010Prop54
  1
strokes_ogs.tif
102
RTVSPost2010PropOp54
 70
     1
102
RTVSPost2010Prop55
280
     0
102
RTVSPost2010PropOp55
 70
     1
102
RTVSPost2010Prop56
140
1.0
102
RTVSPost2010PropOp56
 70
     1
102
RTVSPost2010Prop57
140
1.0
102
RTVSPost2010PropOp57
 70
     1
  0
XRECORD
  5
102
102
{ACAD_REACTORS
330
101
102
}
330
101
100
AcDbXrecord
280
     1
102
RTVSPost2010Prop28
280
     0
102
RTVSPost2010PropOp28
 70
     1
102
RTVSPost2010Prop29
280
     1
102
RTVSPost2010PropOp29
 70
     1
102
RTVSPost2010Prop30
280
     1
102
RTVSPost2010PropOp30
 70
     1
102
RTVSPost2010Prop31
280
     0
102
RTVSPost2010PropOp31
 70
     1
102
RTVSPost2010Prop32
280
     0
102
RTVSPost2010PropOp32
 70
     1
102
RTVSPost2010Prop33
280
     0
102
RTVSPost2010PropOp33
 70
     1
102
RTVSPost2010Prop34
280
     0
102
RTVSPost2010PropOp34
 70
     1
102
RTVSPost2010Prop35
280
     0
102
RTVSPost2010PropOp35
 70
     1
102
RTVSPost2010Prop36
280
     0
102
RTVSPost2010PropOp36
 70
     1
102
RTVSPost2010Prop37
 90
       50
102
RTVSPost2010PropOp37
 70
     1
102
RTVSPost2010Prop38
140
0.0
102
RTVSPost2010PropOp38
 70
     1
102
RTVSPost2010Prop39
140
1.0
102
RTVSPost2010PropOp39
 70
     1
102
RTVSPost2010Prop40
 90
        0
102
RTVSPost2010PropOp40
 70
     1
102
RTVSPost2010Prop41ColorIndex
 90
       18
102
RTVSPost2010Prop41ColorRGB
 90
        0
102
RTVSPost2010PropOp41
 70
     1
102
RTVSPost2010Prop42
 90
       50
102
RTVSPost2010PropOp42
 70
     1
102
RTVSPost2010Prop43
 90
        3
102
RTVSPost2010PropOp43
 70
     1
102
RTVSPost2010Prop44ColorIndex
 90
        5
102
RTVSPost2010Prop44ColorRGB
 90
      255
102
RTVSPost2010PropOp44
 70
     1
102
RTVSPost2010Prop45
280
     0
102
RTVSPost2010PropOp45
 70
     1
102
RTVSPost2010Prop46
 90
       50
102
RTVSPost2010PropOp46
 70
     1
102
RTVSPost2010Prop47
 90
       50
102
RTVSPost2010PropOp47
 70
     1
102
RTVSPost2010Prop48
 90
       50
102
RTVSPost2010PropOp48
 70
     1
102
RTVSPost2010Prop49
280
     0
102
RTVSPost2010PropOp49
 70
     1
102
RTVSPost2010Prop50
 90
       50
102
RTVSPost2010PropOp50
 70
     1
102
RTVSPost2010Prop51ColorIndex
 90
      256
102
RTVSPost2010Prop51ColorRGB
 90
-16777216
102
RTVSPost2010PropOp51
 70
     0
102
RTVSPost2010Prop52
140
1.0
102
RTVSPost2010PropOp52
 70
     0
102
RTVSPost2010Prop53
 90
        2
102
RTVSPost2010PropOp53
 70
     1
102
RTVSPost2010Prop54
  1
strokes_ogs.tif
102
RTVSPost2010PropOp54
 70
     1
102
RTVSPost2010Prop55
280
     0
102
RTVSPost2010PropOp55
 70
     1
102
RTVSPost2010Prop56
140
1.0
102
RTVSPost2010PropOp56
 70
     1
102
RTVSPost2010Prop57
140
1.0
102
RTVSPost2010PropOp57
 70
     1
  0
XRECORD
  5
122
102
{ACAD_REACTORS
330
121
102
}
330
121
100
AcDbXrecord
280
     1
102
RTVSPost2010Prop28
280
     0
102
RTVSPost2010PropOp28
 70
     1
102
RTVSPost2010Prop29
280
     1
102
RTVSPost2010PropOp29
 70
     1
102
RTVSPost2010Prop30
280
     1
102
RTVSPost2010PropOp30
 70
     1
102
RTVSPost2010Prop31
280
     0
102
RTVSPost2010PropOp31
 70
     1
102
RTVSPost2010Prop32
280
     0
102
RTVSPost2010PropOp32
 70
     1
102
RTVSPost2010Prop33
280
     0
102
RTVSPost2010PropOp33
 70
     1
102
RTVSPost2010Prop34
280
     0
102
RTVSPost2010PropOp34
 70
     1
102
RTVSPost2010Prop35
280
     0
102
RTVSPost2010PropOp35
 70
     1
102
RTVSPost2010Prop36
280
     0
102
RTVSPost2010PropOp36
 70
     1
102
RTVSPost2010Prop37
 90
       50
102
RTVSPost2010PropOp37
 70
     1
102
RTVSPost2010Prop38
140
0.0
102
RTVSPost2010PropOp38
 70
     1
102
RTVSPost2010Prop39
140
1.0
102
RTVSPost2010PropOp39
 70
     1
102
RTVSPost2010Prop40
 90
        0
102
RTVSPost2010PropOp40
 70
     1
102
RTVSPost2010Prop41ColorIndex
 90
       18
102
RTVSPost2010Prop41ColorRGB
 90
        0
102
RTVSPost2010PropOp41
 70
     1
102
RTVSPost2010Prop42
 90
       50
102
RTVSPost2010PropOp42
 70
     1
102
RTVSPost2010Prop43
 90
        3
102
RTVSPost2010PropOp43
 70
     1
102
RTVSPost2010Prop44ColorIndex
 90
        5
102
RTVSPost2010Prop44ColorRGB
 90
      255
102
RTVSPost2010PropOp44
 70
     1
102
RTVSPost2010Prop45
280
     0
102
RTVSPost2010PropOp45
 70
     1
102
RTVSPost2010Prop46
 90
       50
102
RTVSPost2010PropOp46
 70
     1
102
RTVSPost2010Prop47
 90
       50
102
RTVSPost2010PropOp47
 70
     1
102
RTVSPost2010Prop48
 90
       50
102
RTVSPost2010PropOp48
 70
     1
102
RTVSPost2010Prop49
280
     0
102
RTVSPost2010PropOp49
 70
     1
102
RTVSPost2010Prop50
 90
       50
102
RTVSPost2010PropOp50
 70
     1
102
RTVSPost2010Prop51ColorIndex
 90
      256
102
RTVSPost2010Prop51ColorRGB
 90
-16777216
102
RTVSPost2010PropOp51
 70
     0
102
RTVSPost2010Prop52
140
1.0
102
RTVSPost2010PropOp52
 70
     0
102
RTVSPost2010Prop53
 90
        2
102
RTVSPost2010PropOp53
 70
     1
102
RTVSPost2010Prop54
  1
strokes_ogs.tif
102
RTVSPost2010PropOp54
 70
     1
102
RTVSPost2010Prop55
280
     0
102
RTVSPost2010PropOp55
 70
     1
102
RTVSPost2010Prop56
140
1.0
102
RTVSPost2010PropOp56
 70
     1
102
RTVSPost2010Prop57
140
1.0
102
RTVSPost2010PropOp57
 70
     1
  0
ENDSEC
  0
EOF
