  0
SECTION
  2
HEADER
  9
$ACADVER
  1
AC1024
  9
$ACADMAINTVER
 70
     6
  9
$DWGCODEPAGE
  3
ANSI_1252
  9
$LASTSAVEDBY
  1
BirnerR
  9
$INSBASE
 10
0.0
 20
0.0
 30
0.0
  9
$EXTMIN
 10
9.482575
 20
3.563845
 30
9.482575
  9
$EXTMAX
 10
10.532575
 20
5.04883
 30
10.532575
  9
$LIMMIN
 10
9.482575
 20
3.563845
  9
$LIMMAX
 10
10.532575
 20
5.04883
  9
$ORTHOMODE
 70
     0
  9
$REGENMODE
 70
     1
  9
$FILLMODE
 70
     1
  9
$QTEXTMODE
 70
     0
  9
$MIRRTEXT
 70
     1
  9
$LTSCALE
 40
1.0
  9
$ATTMODE
 70
     1
  9
$TEXTSIZE
 40
0.2
  9
$TRACEWID
 40
0.05
  9
$TEXTSTYLE
  7
Standard
  9
$CLAYER
  8
0
  9
$CELTYPE
  6
ByLayer
  9
$CECOLOR
 62
   256
  9
$CELTSCALE
 40
1.0
  9
$DISPSILH
 70
     0
  9
$DIMSCALE
 40
1.0
  9
$DIMASZ
 40
0.18
  9
$DIMEXO
 40
0.0625
  9
$DIMDLI
 40
0.38
  9
$DIMRND
 40
0.0
  9
$DIMDLE
 40
0.0
  9
$DIMEXE
 40
0.18
  9
$DIMTP
 40
0.0
  9
$DIMTM
 40
0.0
  9
$DIMTXT
 40
0.18
  9
$DIMCEN
 40
0.09
  9
$DIMTSZ
 40
0.0
  9
$DIMTOL
 70
     0
  9
$DIMLIM
 70
     0
  9
$DIMTIH
 70
     1
  9
$DIMTOH
 70
     1
  9
$DIMSE1
 70
     0
  9
$DIMSE2
 70
     0
  9
$DIMTAD
 70
     0
  9
$DIMZIN
 70
     0
  9
$DIMBLK
  1

  9
$DIMASO
 70
     1
  9
$DIMSHO
 70
     1
  9
$DIMPOST
  1

  9
$DIMAPOST
  1

  9
$DIMALT
 70
     0
  9
$DIMALTD
 70
     2
  9
$DIMALTF
 40
25.4
  9
$DIMLFAC
 40
1.0
  9
$DIMTOFL
 70
     0
  9
$DIMTVP
 40
0.0
  9
$DIMTIX
 70
     0
  9
$DIMSOXD
 70
     0
  9
$DIMSAH
 70
     0
  9
$DIMBLK1
  1

  9
$DIMBLK2
  1

  9
$DIMSTYLE
  2
Standard
  9
$DIMCLRD
 70
     0
  9
$DIMCLRE
 70
     0
  9
$DIMCLRT
 70
     0
  9
$DIMTFAC
 40
1.0
  9
$DIMGAP
 40
0.09
  9
$DIMJUST
 70
     0
  9
$DIMSD1
 70
     0
  9
$DIMSD2
 70
     0
  9
$DIMTOLJ
 70
     1
  9
$DIMTZIN
 70
     0
  9
$DIMALTZ
 70
     0
  9
$DIMALTTZ
 70
     0
  9
$DIMUPT
 70
     0
  9
$DIMDEC
 70
     4
  9
$DIMTDEC
 70
     4
  9
$DIMALTU
 70
     2
  9
$DIMALTTD
 70
     2
  9
$DIMTXSTY
  7
Standard
  9
$DIMAUNIT
 70
     0
  9
$DIMADEC
 70
     0
  9
$DIMALTRND
 40
0.0
  9
$DIMAZIN
 70
     0
  9
$DIMDSEP
 70
    46
  9
$DIMATFIT
 70
     3
  9
$DIMFRAC
 70
     0
  9
$DIMLDRBLK
  1

  9
$DIMLUNIT
 70
     2
  9
$DIMLWD
 70
    -2
  9
$DIMLWE
 70
    -2
  9
$DIMTMOVE
 70
     0
  9
$DIMFXL
 40
1.0
  9
$DIMFXLON
 70
     0
  9
$DIMJOGANG
 40
0.785398
  9
$DIMTFILL
 70
     0
  9
$DIMTFILLCLR
 70
     0
  9
$DIMARCSYM
 70
     0
  9
$DIMLTYPE
  6

  9
$DIMLTEX1
  6

  9
$DIMLTEX2
  6

  9
$DIMTXTDIRECTION
 70
     0
  9
$LUNITS
 70
     2
  9
$LUPREC
 70
     4
  9
$SKETCHINC
 40
0.1
  9
$FILLETRAD
 40
0.5
  9
$AUNITS
 70
     0
  9
$AUPREC
 70
     0
  9
$MENU
  1
.
  9
$ELEVATION
 40
0.0
  9
$PELEVATION
 40
0.0
  9
$THICKNESS
 40
0.0
  9
$LIMCHECK
 70
     0
  9
$CHAMFERA
 40
0.0
  9
$CHAMFERB
 40
0.0
  9
$CHAMFERC
 40
0.0
  9
$CHAMFERD
 40
0.0
  9
$SKPOLY
 70
     0
  9
$TDCREATE
 40
2459144.590068217
  9
$TDUCREATE
 40
2459144.506734884
  9
$TDUPDATE
 40
2459144.590079792
  9
$TDUUPDATE
 40
2459144.506746458
  9
$TDINDWG
 40
0.0000000116
  9
$TDUSRTIMER
 40
0.0000000116
  9
$USRTIMER
 70
     1
  9
$ANGBASE
 50
0.0
  9
$ANGDIR
 70
     0
  9
$PDMODE
 70
    65
  9
$PDSIZE
 40
0.0
  9
$PLINEWID
 40
0.0
  9
$SPLFRAME
 70
     0
  9
$SPLINETYPE
 70
     6
  9
$SPLINESEGS
 70
     8
  9
$HANDSEED
  5
17B
  9
$SURFTAB1
 70
     6
  9
$SURFTAB2
 70
     6
  9
$SURFTYPE
 70
     6
  9
$SURFU
 70
     6
  9
$SURFV
 70
     6
  9
$UCSBASE
  2

  9
$UCSNAME
  2

  9
$UCSORG
 10
0.0
 20
0.0
 30
0.0
  9
$UCSXDIR
 10
1.0
 20
0.0
 30
0.0
  9
$UCSYDIR
 10
0.0
 20
1.0
 30
0.0
  9
$UCSORTHOREF
  2

  9
$UCSORTHOVIEW
 70
     0
  9
$UCSORGTOP
 10
0.0
 20
0.0
 30
0.0
  9
$UCSORGBOTTOM
 10
0.0
 20
0.0
 30
0.0
  9
$UCSORGLEFT
 10
0.0
 20
0.0
 30
0.0
  9
$UCSORGRIGHT
 10
0.0
 20
0.0
 30
0.0
  9
$UCSORGFRONT
 10
0.0
 20
0.0
 30
0.0
  9
$UCSORGBACK
 10
0.0
 20
0.0
 30
0.0
  9
$PUCSBASE
  2

  9
$PUCSNAME
  2

  9
$PUCSORG
 10
0.0
 20
0.0
 30
0.0
  9
$PUCSXDIR
 10
1.0
 20
0.0
 30
0.0
  9
$PUCSYDIR
 10
0.0
 20
1.0
 30
0.0
  9
$PUCSORTHOREF
  2

  9
$PUCSORTHOVIEW
 70
     0
  9
$PUCSORGTOP
 10
0.0
 20
0.0
 30
0.0
  9
$PUCSORGBOTTOM
 10
0.0
 20
0.0
 30
0.0
  9
$PUCSORGLEFT
 10
0.0
 20
0.0
 30
0.0
  9
$PUCSORGRIGHT
 10
0.0
 20
0.0
 30
0.0
  9
$PUCSORGFRONT
 10
0.0
 20
0.0
 30
0.0
  9
$PUCSORGBACK
 10
0.0
 20
0.0
 30
0.0
  9
$USERI1
 70
     0
  9
$USERI2
 70
     0
  9
$USERI3
 70
     0
  9
$USERI4
 70
     0
  9
$USERI5
 70
     0
  9
$USERR1
 40
0.0
  9
$USERR2
 40
0.0
  9
$USERR3
 40
0.0
  9
$USERR4
 40
0.0
  9
$USERR5
 40
0.0
  9
$WORLDVIEW
 70
     1
  9
$SHADEDGE
 70
     3
  9
$SHADEDIF
 70
    70
  9
$TILEMODE
 70
     0
  9
$MAXACTVP
 70
    64
  9
$PINSBASE
 10
0.0
 20
0.0
 30
0.0
  9
$PLIMCHECK
 70
     0
  9
$PEXTMIN
 10
-0.0001
 20
-0.0001
 30
0.0
  9
$PEXTMAX
 10
0.2101
 20
0.297097
 30
0.0
  9
$PLIMMIN
 10
-0.0001
 20
-0.0001
  9
$PLIMMAX
 10
0.2101
 20
0.297097
  9
$UNITMODE
 70
     0
  9
$VISRETAIN
 70
     1
  9
$PLINEGEN
 70
     0
  9
$PSLTSCALE
 70
     0
  9
$TREEDEPTH
 70
  3020
  9
$CMLSTYLE
  2
Standard
  9
$CMLJUST
 70
     0
  9
$CMLSCALE
 40
1.0
  9
$PROXYGRAPHICS
 70
     1
  9
$MEASUREMENT
 70
     1
  9
$CELWEIGHT
370
    -1
  9
$ENDCAPS
280
     0
  9
$JOINSTYLE
280
     0
  9
$LWDISPLAY
290
     0
  9
$INSUNITS
 70
     6
  9
$HYPERLINKBASE
  1

  9
$STYLESHEET
  1

  9
$XEDIT
290
     1
  9
$CEPSNTYPE
380
     0
  9
$PSTYLEMODE
290
     1
  9
$FINGERPRINTGUID
  2
{f027096c-d406-4664-b06a-877ae0d2ddef}
  9
$VERSIONGUID
  2
{FAEB1C32-E019-11D5-929B-00C0DF256EC4}
  9
$EXTNAMES
290
     1
  9
$PSVPSCALE
 40
0.0
  9
$OLESTARTUP
290
     0
  9
$SORTENTS
280
   127
  9
$INDEXCTL
280
     0
  9
$HIDETEXT
280
     1
  9
$XCLIPFRAME
280
     2
  9
$HALOGAP
280
     0
  9
$OBSCOLOR
 70
   257
  9
$OBSLTYPE
280
     0
  9
$INTERSECTIONDISPLAY
280
     0
  9
$INTERSECTIONCOLOR
 70
   257
  9
$DIMASSOC
280
     2
  9
$PROJECTNAME
  1

  9
$CAMERADISPLAY
290
     0
  9
$LENSLENGTH
 40
50.0
  9
$CAMERAHEIGHT
 40
0.0
  9
$STEPSPERSEC
 40
2.0
  9
$STEPSIZE
 40
6.0
  9
$3DDWFPREC
 40
2.0
  9
$PSOLWIDTH
 40
0.25
  9
$PSOLHEIGHT
 40
4.0
  9
$LOFTANG1
 40
1.570796
  9
$LOFTANG2
 40
1.570796
  9
$LOFTMAG1
 40
0.0
  9
$LOFTMAG2
 40
0.0
  9
$LOFTPARAM
 70
     7
  9
$LOFTNORMALS
280
     1
  9
$LATITUDE
 40
37.795
  9
$LONGITUDE
 40
-122.394
  9
$NORTHDIRECTION
 40
0.0
  9
$TIMEZONE
 70
 -8000
  9
$LIGHTGLYPHDISPLAY
280
     1
  9
$TILEMODELIGHTSYNCH
280
     1
  9
$CMATERIAL
347
44
  9
$SOLIDHIST
280
     0
  9
$SHOWHIST
280
     1
  9
$DWFFRAME
280
     2
  9
$DGNFRAME
280
     2
  9
$REALWORLDSCALE
290
     1
  9
$INTERFERECOLOR
 62
   256
  9
$CSHADOW
280
     0
  9
$SHADOWPLANELOCATION
 40
0.0
  0
ENDSEC
  0
SECTION
  2
CLASSES
  0
CLASS
  1
ACDBDICTIONARYWDFLT
  2
AcDbDictionaryWithDefault
  3
ObjectDBX Classes
 90
        0
 91
        3
280
     0
281
     0
  0
CLASS
  1
VISUALSTYLE
  2
AcDbVisualStyle
  3
ObjectDBX Classes
 90
     4095
 91
        3
280
     0
281
     0
  0
CLASS
  1
MATERIAL
  2
AcDbMaterial
  3
ObjectDBX Classes
 90
     1153
 91
        3
280
     0
281
     0
  0
CLASS
  1
SCALE
  2
AcDbScale
  3
ObjectDBX Classes
 90
     1153
 91
        3
280
     0
281
     0
  0
CLASS
  1
TABLESTYLE
  2
AcDbTableStyle
  3
ObjectDBX Classes
 90
     4095
 91
        3
280
     0
281
     0
  0
CLASS
  1
MLEADERSTYLE
  2
AcDbMLeaderStyle
  3
ACDB_MLEADERSTYLE_CLASS
 90
     4095
 91
        3
280
     0
281
     0
  0
CLASS
  1
SUN
  2
AcDbSun
  3
SCENEOE
 90
     1153
 91
        3
280
     0
281
     0
  0
CLASS
  1
SORTENTSTABLE
  2
AcDbSortentsTable
  3
ObjectDBX Classes
 90
        0
 91
        3
280
     0
281
     0
  0
CLASS
  1
DICTIONARYVAR
  2
AcDbDictionaryVar
  3
ObjectDBX Classes
 90
        0
 91
        3
280
     0
281
     0
  0
CLASS
  1
CELLSTYLEMAP
  2
AcDbCellStyleMap
  3
ObjectDBX Classes
 90
     1152
 91
        3
280
     0
281
     0
  0
ENDSEC
  0
SECTION
  2
TABLES
  0
TABLE
  2
VPORT
  5
8
330
0
100
AcDbSymbolTable
 70
     1
  0
VPORT
  5
29
330
8
100
AcDbSymbolTableRecord
100
AcDbViewportTableRecord
  2
*Active
 70
     0
 10
0.0
 20
0.0
 11
1.0
 21
1.0
 12
10.007575
 22
4.306338
 13
0.0
 23
0.0
 14
0.5
 24
0.5
 15
0.5
 25
0.5
 16
0.0
 26
0.0
 36
1.0
 17
0.0
 27
0.0
 37
0.0
 40
1.781982
 41
0.848493
 42
50.0
 43
0.0
 44
0.0
 50
0.0
 51
0.0
 71
     0
 72
   100
 73
     1
 74
     3
 75
     0
 76
     0
 77
     0
 78
     0
281
     0
 65
     1
110
0.0
120
0.0
130
0.0
111
1.0
121
0.0
131
0.0
112
0.0
122
1.0
132
0.0
 79
     0
146
0.0
348
2F
 60
     3
 61
     5
292
     1
282
     1
141
0.0
142
0.0
 63
   250
361
6D
  0
ENDTAB
  0
TABLE
  2
LTYPE
  5
5
330
0
100
AcDbSymbolTable
 70
     4
  0
LTYPE
  5
14
330
5
100
AcDbSymbolTableRecord
100
AcDbLinetypeTableRecord
  2
ByBlock
 70
     0
  3

 72
    65
 73
     0
 40
0.0
  0
LTYPE
  5
15
330
5
100
AcDbSymbolTableRecord
100
AcDbLinetypeTableRecord
  2
ByLayer
 70
     0
  3

 72
    65
 73
     0
 40
0.0
  0
LTYPE
  5
16
330
5
100
AcDbSymbolTableRecord
100
AcDbLinetypeTableRecord
  2
Continuous
 70
     0
  3
Solid line
 72
    65
 73
     0
 40
0.0
  0
LTYPE
  5
74
330
5
100
AcDbSymbolTableRecord
100
AcDbLinetypeTableRecord
  2
AUSGEZOGEN
 70
     0
  3
durchgezogene Linie
 72
    65
 73
     0
 40
0.0
  0
LTYPE
  5
7A
330
5
100
AcDbSymbolTableRecord
100
AcDbLinetypeTableRecord
  2
STRICHPUNKT2_S5
 70
     0
  3
Lang eng gestrichelt bzw. punktiert
 72
    65
 73
     4
 40
0.05
 49
0.035
 74
     0
 49
-0.005
 74
     0
 49
0.005
 74
     0
 49
-0.005
 74
     0
  0
LTYPE
  5
7B
330
5
100
AcDbSymbolTableRecord
100
AcDbLinetypeTableRecord
  2
VERDECKT2_S2
 70
     0
  3
Kurzgestrichelt
 72
    65
 73
     2
 40
0.015
 49
0.01
 74
     0
 49
-0.005
 74
     0
  0
ENDTAB
  0
TABLE
  2
LAYER
  5
2
330
0
100
AcDbSymbolTable
 70
     4
  0
LAYER
  5
10
330
2
100
AcDbSymbolTableRecord
100
AcDbLayerTableRecord
  2
0
 70
     0
 62
     7
  6
Continuous
370
    -3
390
F
347
46
  0
LAYER
  5
76
330
2
100
AcDbSymbolTableRecord
100
AcDbLayerTableRecord
  2
PLAN_1414
 70
     0
 62
     7
  6
AUSGEZOGEN
370
    -3
390
F
347
46
1001
AcCmTransparency
1071
 33554687
1001
AcAecLayerStandard
1000

1000
Dokument-Layer
  0
LAYER
  5
78
330
2
100
AcDbSymbolTableRecord
100
AcDbLayerTableRecord
  2
TB_1414
 70
     0
 62
     7
  6
AUSGEZOGEN
370
    -3
390
F
347
46
1001
AcCmTransparency
1071
 33554687
1001
AcAecLayerStandard
1000

1000
Dokument-Layer
  0
LAYER
  5
7C
330
2
100
AcDbSymbolTableRecord
100
AcDbLayerTableRecord
  2
XR$1$TB_1414_1
 70
     0
 62
     7
  6
AUSGEZOGEN
370
    -3
390
F
347
46
1001
AcCmTransparency
1071
 33554687
1001
AcAecLayerStandard
1000

1000
Dokument-Layer
  0
ENDTAB
  0
TABLE
  2
STYLE
  5
3
330
0
100
AcDbSymbolTable
 70
     2
  0
STYLE
  5
11
330
3
100
AcDbSymbolTableRecord
100
AcDbTextStyleTableRecord
  2
Standard
 70
     0
 40
0.0
 41
1.0
 50
0.0
 71
     0
 42
0.2
  3
txt
  4

  0
STYLE
  5
79
330
3
100
AcDbSymbolTableRecord
100
AcDbTextStyleTableRecord
  2
ARIAL
 70
     0
 40
0.0
 41
1.0
 50
0.0
 71
     0
 42
0.2
  3
ARIAL.TTF
  4

1001
ACAD
1000
Arial
1071
       34
  0
ENDTAB
  0
TABLE
  2
VIEW
  5
6
330
0
100
AcDbSymbolTable
 70
     0
  0
ENDTAB
  0
TABLE
  2
UCS
  5
7
330
0
100
AcDbSymbolTable
 70
     0
  0
ENDTAB
  0
TABLE
  2
APPID
  5
9
330
0
100
AcDbSymbolTable
 70
     4
  0
APPID
  5
12
330
9
100
AcDbSymbolTableRecord
100
AcDbRegAppTableRecord
  2
ACAD
 70
     0
  0
APPID
  5
75
330
9
100
AcDbSymbolTableRecord
100
AcDbRegAppTableRecord
  2
AcCmTransparency
 70
     0
  0
APPID
  5
77
330
9
100
AcDbSymbolTableRecord
100
AcDbRegAppTableRecord
  2
AcAecLayerStandard
 70
     0
  0
APPID
  5
94
330
9
100
AcDbSymbolTableRecord
100
AcDbRegAppTableRecord
  2
NEM_ODX
 70
     0
  0
ENDTAB
  0
TABLE
  2
DIMSTYLE
  5
A
330
0
100
AcDbSymbolTable
 70
     1
100
AcDbDimStyleTable
  0
DIMSTYLE
105
27
330
A
100
AcDbSymbolTableRecord
100
AcDbDimStyleTableRecord
  2
Standard
 70
     0
178
     0
340
11
  0
ENDTAB
  0
TABLE
  2
BLOCK_RECORD
  5
1
330
0
100
AcDbSymbolTable
 70
     0
  0
BLOCK_RECORD
  5
1F
102
{ACAD_XDICTIONARY
360
13E
102
}
330
1
100
AcDbSymbolTableRecord
100
AcDbBlockTableRecord
  2
*Model_Space
340
22
 70
     0
280
     1
281
     0
  0
BLOCK_RECORD
  5
6E
330
1
100
AcDbSymbolTableRecord
100
AcDbBlockTableRecord
  2
*Paper_Space
340
6F
 70
     0
280
     1
281
     0
  0
ENDTAB
  0
ENDSEC
  0
SECTION
  2
BLOCKS
  0
BLOCK
  5
20
330
1F
100
AcDbEntity
  8
0
100
AcDbBlockBegin
  2
*Model_Space
 70
     0
 10
0.0
 20
0.0
 30
0.0
  3
*Model_Space
  1

  0
ENDBLK
  5
21
330
1F
100
AcDbEntity
  8
0
100
AcDbBlockEnd
  0
BLOCK
  5
70
330
6E
100
AcDbEntity
 67
     1
  8
0
100
AcDbBlockBegin
  2
*Paper_Space
 70
     0
 10
0.0
 20
0.0
 30
0.0
  3
*Paper_Space
  1

  0
ENDBLK
  5
71
330
6E
100
AcDbEntity
 67
     1
  8
0
100
AcDbBlockEnd
  0
ENDSEC
  0
SECTION
  2
ENTITIES
  0
HATCH
  5
7D
330
1F
100
AcDbEntity
  8
XR$1$TB_1414_1
  6
AUSGEZOGEN
 62
    18
420
        0
440
 33554687
370
    35
100
AcDbHatch
 10
0.0
 20
0.0
 30
0.0
210
0.0
220
0.0
230
1.0
  2
SOLID
 70
     1
 71
     0
 91
       18
 92
        3
 72
     0
 73
     1
 93
       27
 10
9.601831137487318
 20
3.701846930763919
 10
9.60582488094826
 20
3.701846930763919
 10
9.606402007338811
 20
3.701874327144731
 10
9.606932992456422
 20
3.701956876765866
 10
9.607427929704535
 20
3.702085207181253
 10
9.607876725679699
 20
3.702268330358273
 10
9.608288752827985
 20
3.702488222362172
 10
9.608654999182017
 20
3.702762907127693
 10
9.60928727881289
 20
3.703413210693308
 10
9.609534567197604
 20
3.703788829493411
 10
9.609754459201492
 20
3.704200856641694
 10
9.610093309174712
 20
3.70509880907072
 10
9.610285444319102
 20
3.70609697457694
 10
9.610349609526793
 20
3.70716867773691
 10
9.610285444319102
 20
3.70831391855065
 10
9.610093309174712
 20
3.709348852883743
 10
9.609937582378514
 20
3.709816033272348
 10
9.609754459201492
 20
3.710255456801449
 10
9.609534567197604
 20
3.710658832461055
 10
9.60928727881289
 20
3.711025078815083
 10
9.608654999182017
 20
3.711647985999893
 10
9.608288752827985
 20
3.711895274384601
 10
9.607876725679699
 20
3.712105793942423
 10
9.607427929704535
 20
3.712270893184703
 10
9.606932992456422
 20
3.712389851154025
 10
9.60582488094826
 20
3.712490785188602
 10
9.601831137487318
 20
3.712490785188602
 97
        0
 92
        3
 72
     0
 73
     1
 93
       12
 10
9.613537322625909
 20
3.701846930763919
 10
9.621259136749623
 20
3.701846930763919
 10
9.621259136749623
 20
3.703175294754672
 10
9.61514037138218
 20
3.703175294754672
 10
9.61514037138218
 20
3.706637692619306
 10
9.62018743358965
 20
3.706637692619306
 10
9.62018743358965
 20
3.707965696131363
 10
9.61514037138218
 20
3.707965696131363
 10
9.61514037138218
 20
3.711162421197844
 10
9.620993463951471
 20
3.711162421197844
 10
9.620993463951471
 20
3.712490785188602
 10
9.613537322625909
 20
3.712490785188602
 97
        0
 92
        3
 72
     0
 73
     1
 93
       38
 10
9.630830927535635
 20
3.712490785188602
 10
9.630830927535635
 20
3.705575001426701
 10
9.63079415870875
 20
3.704924697861085
 10
9.630684573185505
 20
3.70437496785134
 10
9.630482705116354
 20
3.703907787462733
 10
9.630199008383448
 20
3.703541541108696
 10
9.629832401550726
 20
3.703266856343174
 10
9.629374593608185
 20
3.703065348752721
 10
9.628824863598448
 20
3.702946030304702
 10
9.628174560032827
 20
3.70290962195652
 10
9.627524256467202
 20
3.702946030304702
 10
9.626974526457465
 20
3.703065348752721
 10
9.626516718514921
 20
3.703266856343174
 10
9.626141099714825
 20
3.703541541108696
 10
9.625866414949297
 20
3.703907787462733
 10
9.625664907358843
 20
3.70437496785134
 10
9.625554961356897
 20
3.704924697861085
 10
9.625509180562641
 20
3.705575001426701
 10
9.625509180562641
 20
3.712490785188602
 10
9.624180816571895
 20
3.712490785188602
 10
9.624180816571895
 20
3.705309328628555
 10
9.624254354225663
 20
3.704457517472476
 10
9.624464873783484
 20
3.703715652318348
 10
9.624813096202763
 20
3.703074360720099
 10
9.625280276591372
 20
3.702543015123791
 10
9.62585704250323
 20
3.702130987975512
 10
9.626544114895735
 20
3.701828546350482
 10
9.627313736909377
 20
3.701645423173463
 10
9.628174560032827
 20
3.701581257965767
 10
9.629035743634976
 20
3.701645423173463
 10
9.629805005169908
 20
3.701828546350482
 10
9.630492077562417
 20
3.702130987975512
 10
9.63106920395297
 20
3.702543015123791
 10
9.631536384341581
 20
3.703074360720099
 10
9.631875234314803
 20
3.703715652318348
 10
9.632095126318692
 20
3.704457517472476
 10
9.632168303493758
 20
3.705309328628555
 10
9.632168303493758
 20
3.712490785188602
 97
        0
 92
        3
 72
     0
 73
     1
 93
        8
 10
9.63482467099657
 20
3.712490785188602
 10
9.63482467099657
 20
3.711162421197844
 10
9.638021396063053
 20
3.711162421197844
 10
9.638021396063053
 20
3.701846930763919
 10
9.639349399575107
 20
3.701846930763919
 10
9.639349399575107
 20
3.711162421197844
 10
9.64253711267422
 20
3.711162421197844
 10
9.64253711267422
 20
3.712490785188602
 97
        0
 92
        3
 72
     0
 73
     1
 93
       96
 10
9.645541702596313
 20
3.708927453289394
 10
9.645752222154135
 20
3.708405480139156
 10
9.646082060159983
 20
3.707993092512174
 10
9.646503459754344
 20
3.707654242538958
 10
9.647007048491131
 20
3.707388569740813
 10
9.647575162914318
 20
3.707187062150351
 10
9.64879322042443
 20
3.706866596590573
 10
9.650011638413226
 20
3.706591551346364
 10
9.650579392357713
 20
3.706436185028846
 10
9.651083341573207
 20
3.706234677438391
 10
9.65150438068886
 20
3.705987028574991
 10
9.651834218694706
 20
3.705666563015213
 10
9.65204509873123
 20
3.705272559801668
 10
9.6521182759063
 20
3.704777983032249
 10
9.65206312266597
 20
3.704310802643644
 10
9.65188937193503
 20
3.703926171876174
 10
9.65162369913687
 20
3.703596333870328
 10
9.651284849163664
 20
3.703340033518247
 10
9.650881833982746
 20
3.70314753789516
 10
9.650432677528888
 20
3.703019567958467
 10
9.649956485172906
 20
3.702937018337336
 10
9.649461908403492
 20
3.70290962195652
 10
9.64879322042443
 20
3.702946030304702
 10
9.648207082066499
 20
3.703065348752721
 10
9.647703132851012
 20
3.703266856343174
 10
9.647263709321912
 20
3.703541541108696
 10
9.646906474935253
 20
3.703907787462733
 10
9.646613045277597
 20
3.70437496785134
 10
9.646402525719767
 20
3.704924697861085
 10
9.646265183337002
 20
3.705575001426701
 10
9.644936819346253
 20
3.705309328628555
 10
9.645028741413453
 20
3.704384340297405
 10
9.645147699382784
 20
3.70397195267043
 10
9.645303426178982
 20
3.703605706316395
 10
9.645504933769434
 20
3.703266856343174
 10
9.645733837740702
 20
3.702955402750773
 10
9.646301952163887
 20
3.702442441567912
 10
9.646970279664258
 20
3.702057810800445
 10
9.647739901677896
 20
3.701792138002293
 10
9.648573328420532
 20
3.701636411206089
 10
9.649461908403492
 20
3.701581257965767
 10
9.650240542384497
 20
3.701636411206089
 10
9.650982407538633
 20
3.701782765556225
 10
9.651660107485068
 20
3.702048438354372
 10
9.652255618289061
 20
3.702415045187099
 10
9.652750195058475
 20
3.702891237543079
 10
9.653125813858578
 20
3.703486748347073
 10
9.653263156241346
 20
3.703834610287666
 10
9.65336409027591
 20
3.704200856641694
 10
9.65344627941836
 20
3.705043655830403
 10
9.653373102243293
 20
3.705767497049785
 10
9.653162582685464
 20
3.706362647375086
 10
9.652832744679616
 20
3.706839200209766
 10
9.652411345085255
 20
3.707214458531167
 10
9.651907395869776
 20
3.707507527710131
 10
9.651348653892661
 20
3.707736792160087
 10
9.650121584415173
 20
3.70806663016594
 10
9.648903166426374
 20
3.708331942485394
 10
9.648344424449267
 20
3.708487669281594
 10
9.647840475233776
 20
3.708671152937308
 10
9.64741006367205
 20
3.708909068875952
 10
9.647080225666208
 20
3.70921151050098
 10
9.64686970610837
 20
3.709605153235823
 10
9.64679652893331
 20
3.710100090483938
 10
9.646860694141003
 20
3.710457324870597
 10
9.64702543290457
 20
3.710750394049561
 10
9.647272721289283
 20
3.710988309988203
 10
9.647593186849061
 20
3.711162421197844
 10
9.647968805649164
 20
3.711281379167171
 10
9.64837182083007
 20
3.711363928788304
 10
9.64919623560534
 20
3.711428093995997
 10
9.649764350028521
 20
3.711400697615185
 10
9.650276950732687
 20
3.71131814799405
 10
9.650735119153921
 20
3.711171433165224
 10
9.651119749921383
 20
3.710960913607387
 10
9.651431203513793
 20
3.710667844428424
 10
9.651660107485068
 20
3.710301598074395
 10
9.651806822313889
 20
3.709843429653159
 10
9.651852603108148
 20
3.709293699643422
 10
9.65344627941836
 20
3.709293699643422
 10
9.653198991033644
 20
3.710136498832127
 10
9.65286014106043
 20
3.710850967605444
 10
9.652429729498696
 20
3.711446478409436
 10
9.65191676831584
 20
3.711922670765418
 10
9.651330629957915
 20
3.712289277598144
 10
9.65068032639229
 20
3.712554589917598
 10
9.649965857618978
 20
3.712701304746422
 10
9.64919623560534
 20
3.712756097508052
 10
9.648500151245468
 20
3.712710316713803
 10
9.647822451299026
 20
3.712554589917598
 10
9.647199544114216
 20
3.712307301532884
 10
9.646631429691034
 20
3.711959439592298
 10
9.646155237335059
 20
3.71151064361713
 10
9.64578899098102
 20
3.710960913607387
 10
9.64555071456369
 20
3.710310610041761
 10
9.64546816494255
 20
3.709559372441569
 97
        0
 92
        3
 72
     0
 73
     1
 93
       78
 10
9.657769860885137
 20
3.708038873306432
 10
9.657952984062149
 20
3.708844903668254
 10
9.658264437654555
 20
3.709568744887642
 10
9.658704221662347
 20
3.71019165207245
 10
9.659262963639465
 20
3.710713625222679
 10
9.65994967555327
 20
3.711098255990148
 10
9.660765078361166
 20
3.711336532407491
 10
9.661699439138376
 20
3.711428093995997
 10
9.662203027875165
 20
3.711391325169114
 10
9.662715989058032
 20
3.711272367199792
 10
9.663219938273517
 20
3.711089244022782
 10
9.66369613062949
 20
3.710823571224622
 10
9.66411753022385
 20
3.710493733218782
 10
9.664465752643139
 20
3.710081706070496
 10
9.664731064962593
 20
3.70959614126845
 10
9.664886791758798
 20
3.709028387323959
 10
9.666224167716914
 20
3.709293699643422
 10
9.665958494918765
 20
3.710136498832127
 10
9.665592248564733
 20
3.710850967605444
 10
9.665116056208753
 20
3.711446478409436
 10
9.664557314231637
 20
3.711922670765418
 10
9.663925034600764
 20
3.712289277598144
 10
9.663228950240883
 20
3.712554589917598
 10
9.662478073119381
 20
3.712701304746422
 10
9.661699439138376
 20
3.712756097508052
 10
9.661067159507505
 20
3.712728701127246
 10
9.660472009182204
 20
3.712646511984804
 10
9.65992227917246
 20
3.712518181569418
 10
9.659409317989592
 20
3.712335058392398
 10
9.658933125633625
 20
3.712105793942423
 10
9.658493341625812
 20
3.711831109176905
 10
9.658099698890977
 20
3.71151064361713
 10
9.657742464504327
 20
3.711162421197844
 10
9.657421638465852
 20
3.710768417984303
 10
9.657146953700327
 20
3.710338006422584
 10
9.656918049729056
 20
3.70988019848004
 10
9.656725554105973
 20
3.709385621710622
 10
9.656459881307832
 20
3.708322930518016
 10
9.656377692165387
 20
3.70716867773691
 10
9.656459881307832
 20
3.7060147854345
 10
9.656725554105973
 20
3.704952094241891
 10
9.656918049729056
 20
3.704457517472476
 10
9.657146953700327
 20
3.703999349051244
 10
9.657421638465852
 20
3.703568937489512
 10
9.657742464504327
 20
3.703175294754672
 10
9.658099698890977
 20
3.702827072335393
 10
9.658493341625812
 20
3.702506606775604
 10
9.658933125633625
 20
3.702231561531393
 10
9.659409317989592
 20
3.70200265756012
 10
9.65992227917246
 20
3.701819534383105
 10
9.660472009182204
 20
3.701691203967719
 10
9.661067159507505
 20
3.701608654346582
 10
9.661699439138376
 20
3.701581257965767
 10
9.662496097054127
 20
3.701654795619526
 10
9.66326571906777
 20
3.701874327144731
 10
9.664007584221899
 20
3.702222549564014
 10
9.664694656614397
 20
3.702708114366058
 10
9.665299179385764
 20
3.703321649104806
 10
9.665812140568631
 20
3.704054502291569
 10
9.666215155749544
 20
3.704887929034201
 10
9.666489840515062
 20
3.705840674224854
 10
9.664886791758798
 20
3.705840674224854
 10
9.664740437408657
 20
3.705180998213162
 10
9.664502160991322
 20
3.704594859855237
 10
9.664181695431546
 20
3.704091271118441
 10
9.663797064664077
 20
3.703678883491468
 10
9.663338896242834
 20
3.703349045485613
 10
9.662835307506043
 20
3.703111129546969
 10
9.662285577496304
 20
3.702964414718152
 10
9.661699439138376
 20
3.70290962195652
 10
9.660765078361166
 20
3.702991811098962
 10
9.65994967555327
 20
3.703239099483673
 10
9.659262963639465
 20
3.703624090729836
 10
9.658704221662347
 20
3.704146063880069
 10
9.658264437654555
 20
3.704768971064883
 10
9.657952984062149
 20
3.705492451805571
 10
9.657769860885137
 20
3.706298482167389
 10
9.657705695677441
 20
3.70716867773691
 97
        0
 92
        3
 72
     0
 73
     1
 93
       12
 10
9.669677553614182
 20
3.701846930763919
 10
9.67100555712624
 20
3.701846930763919
 10
9.67100555712624
 20
3.706637692619306
 10
9.676592976897378
 20
3.706637692619306
 10
9.676592976897378
 20
3.701846930763919
 10
9.678196025653657
 20
3.701846930763919
 10
9.678196025653657
 20
3.712490785188602
 10
9.676592976897378
 20
3.712490785188602
 10
9.676592976897378
 20
3.707965696131363
 10
9.67100555712624
 20
3.707965696131363
 10
9.67100555712624
 20
3.712490785188602
 10
9.669677553614182
 20
3.712490785188602
 97
        0
 92
        3
 72
     0
 73
     1
 93
       12
 10
9.681649411550918
 20
3.701846930763919
 10
9.689105192397788
 20
3.701846930763919
 10
9.689105192397788
 20
3.703175294754672
 10
9.68298678750903
 20
3.703175294754672
 10
9.68298678750903
 20
3.706637692619306
 10
9.688299162035959
 20
3.706637692619306
 10
9.688299162035959
 20
3.707965696131363
 10
9.68298678750903
 20
3.707965696131363
 10
9.68298678750903
 20
3.711162421197844
 10
9.689105192397788
 20
3.711162421197844
 10
9.689105192397788
 20
3.712490785188602
 10
9.681649411550918
 20
3.712490785188602
 97
        0
 92
        3
 72
     0
 73
     1
 93
       90
 10
9.604359174574746
 20
3.694280843436402
 10
9.604057093428398
 20
3.694574273094058
 10
9.603983555774644
 20
3.694739011857633
 10
9.603965531839894
 20
3.694931507480717
 10
9.604011312634148
 20
3.695206192246244
 10
9.604139282570848
 20
3.695435096217512
 10
9.60432276622655
 20
3.695618219394524
 10
9.604560682165195
 20
3.69576493422336
 10
9.605083015794126
 20
3.695939045432993
 10
9.6055592081501
 20
3.695993838194632
 10
9.606346854098485
 20
3.695902276606126
 10
9.60673148486596
 20
3.695783318636792
 10
9.607088719252623
 20
3.695627591840597
 10
9.607730010850863
 20
3.695206192246244
 10
9.608215575652908
 20
3.69466583468257
 10
9.610349609526793
 20
3.695993838194632
 10
9.609836648343936
 20
3.696470030550605
 10
9.609305663226332
 20
3.69689143014496
 10
9.608755933216589
 20
3.697248664531611
 10
9.608188179272105
 20
3.697560118124022
 10
9.607601680435476
 20
3.697798394541358
 10
9.607015542077553
 20
3.697981517718374
 10
9.606420031273561
 20
3.698082451752953
 10
9.60582488094826
 20
3.698118860101137
 10
9.604954685378745
 20
3.698073079306878
 10
9.604148655016916
 20
3.697917352510674
 10
9.603424813797533
 20
3.697661052158594
 10
9.602801906612715
 20
3.69729444532587
 10
9.602279933462492
 20
3.696809241002518
 10
9.60189530269502
 20
3.696213730198519
 10
9.60175796031226
 20
3.695874880225307
 10
9.601648014310305
 20
3.695499261425208
 10
9.60156546468918
 20
3.69466583468257
 10
9.601620617929495
 20
3.694088708292007
 10
9.601776344725696
 20
3.693566374663087
 10
9.602023633110411
 20
3.693099554753173
 10
9.602362483083615
 20
3.692687167126196
 10
9.602783882677976
 20
3.692339305185604
 10
9.603287471414763
 20
3.692064259941388
 10
9.603873609772696
 20
3.691853740383553
 10
9.60451490137094
 20
3.691716398000794
 10
9.60664929572352
 20
3.691276613993005
 10
9.607116476112123
 20
3.691166667991054
 10
9.607436941671905
 20
3.690992556781413
 10
9.607629437294987
 20
3.690754640842766
 10
9.607684230056615
 20
3.690406418423483
 10
9.607638449262357
 20
3.690122361211894
 10
9.607510118846976
 20
3.689866060859811
 10
9.607308611256508
 20
3.689637156888546
 10
9.607052310904429
 20
3.689444661265454
 10
9.606768253692838
 20
3.68928893446925
 10
9.606447788133062
 20
3.689169976499937
 10
9.60582488094826
 20
3.689078414911422
 10
9.604917916551853
 20
3.689169976499937
 10
9.604524273817015
 20
3.68928893446925
 10
9.604157666984285
 20
3.689444661265454
 10
9.603507363418672
 20
3.689866060859811
 10
9.602893828679923
 20
3.690406418423483
 10
9.60076844629472
 20
3.689343727230882
 10
9.60135494513134
 20
3.688794357699837
 10
9.601932071521887
 20
3.688336189278605
 10
9.60249081349901
 20
3.687969942924568
 10
9.603067579410864
 20
3.6876768737456
 10
9.603644705801422
 20
3.68746599370908
 10
9.604249228572792
 20
3.687319639358948
 10
9.60488150820367
 20
3.687237089737815
 10
9.6055592081501
 20
3.687209693356999
 10
9.606301073304241
 20
3.687246462183879
 10
9.607088719252623
 20
3.687347035739762
 10
9.607894749614438
 20
3.68754854333022
 10
9.608654999182017
 20
3.687878381336062
 10
9.6090032216013
 20
3.688098273339961
 10
9.609323687161078
 20
3.688354573692042
 10
9.609607744372667
 20
3.688657015317074
 10
9.609864405203446
 20
3.689014249703727
 10
9.610065912793898
 20
3.689407892438576
 10
9.610221639590096
 20
3.689866060859811
 10
9.610313201178613
 20
3.690369649596603
 10
9.610349609526793
 20
3.690937764019784
 10
9.610313201178613
 20
3.691368175581509
 10
9.610212267144032
 20
3.691752806348986
 10
9.610056540347824
 20
3.69208264435483
 10
9.609855032757373
 20
3.692375713533786
 10
9.609598732405287
 20
3.692632374364568
 10
9.609314675193705
 20
3.692851905889769
 10
9.60863697524727
 20
3.693200128309056
 10
9.607876725679699
 20
3.693438404726394
 10
9.607070695317866
 20
3.69361251593604
 10
9.6055592081501
 20
3.693868816288121
 10
9.604863123790231
 20
3.694051939465133
 97
        0
 92
        3
 72
     0
 73
     1
 93
        8
 10
9.616734047692388
 20
3.695728165396476
 10
9.619390415195197
 20
3.695728165396476
 10
9.619390415195197
 20
3.697853187302988
 10
9.611412300719401
 20
3.697853187302988
 10
9.611412300719401
 20
3.695728165396476
 10
9.614068668222203
 20
3.695728165396476
 10
9.614068668222203
 20
3.687484378122523
 10
9.616734047692388
 20
3.687484378122523
 97
        0
 92
        3
 72
     0
 73
     1
 93
       12
 10
9.621259136749623
 20
3.687484378122523
 10
9.629237251225424
 20
3.687484378122523
 10
9.629237251225424
 20
3.689343727230882
 10
9.623649831454285
 20
3.689343727230882
 10
9.623649831454285
 20
3.691734421935545
 10
9.628440232830975
 20
3.691734421935545
 10
9.628440232830975
 20
3.693868816288121
 10
9.623649831454285
 20
3.693868816288121
 10
9.623649831454285
 20
3.695728165396476
 10
9.628705905629127
 20
3.695728165396476
 10
9.628705905629127
 20
3.697853187302988
 10
9.621259136749623
 20
3.697853187302988
 97
        0
 92
        3
 72
     0
 73
     1
 93
        4
 10
9.631096600333784
 20
3.687484378122523
 10
9.633761979803966
 20
3.687484378122523
 10
9.633761979803966
 20
3.697853187302988
 10
9.631096600333784
 20
3.697853187302988
 97
        0
 92
        3
 72
     0
 73
     1
 93
       10
 10
9.638552741659357
 20
3.687484378122523
 10
9.638552741659357
 20
3.693868816288121
 10
9.642271439876067
 20
3.687484378122523
 10
9.644936819346253
 20
3.687484378122523
 10
9.644936819346253
 20
3.697853187302988
 10
9.64253711267422
 20
3.697853187302988
 10
9.64253711267422
 20
3.69120343681793
 10
9.638818414457509
 20
3.697853187302988
 10
9.63615267450863
 20
3.697853187302988
 10
9.63615267450863
 20
3.687484378122523
 97
        0
 92
        3
 72
     0
 73
     1
 93
       10
 10
9.655846346569087
 20
3.695728165396476
 10
9.655846346569087
 20
3.697853187302988
 10
9.647327514050916
 20
3.697853187302988
 10
9.647327514050916
 20
3.695728165396476
 10
9.652649621502597
 20
3.695728165396476
 10
9.647062201731455
 20
3.689343727230882
 10
9.647062201731455
 20
3.687484378122523
 10
9.655846346569087
 20
3.687484378122523
 10
9.655846346569087
 20
3.689343727230882
 10
9.650258926797934
 20
3.689343727230882
 97
        0
 92
        3
 72
     0
 73
     1
 93
       12
 10
9.65797136847559
 20
3.687484378122523
 10
9.665958494918765
 20
3.687484378122523
 10
9.665958494918765
 20
3.689343727230882
 10
9.660636747945778
 20
3.689343727230882
 10
9.660636747945778
 20
3.691734421935545
 10
9.66515246455694
 20
3.691734421935545
 10
9.66515246455694
 20
3.693868816288121
 10
9.660636747945778
 20
3.693868816288121
 10
9.660636747945778
 20
3.695728165396476
 10
9.665683810153244
 20
3.695728165396476
 10
9.665683810153244
 20
3.697853187302988
 10
9.65797136847559
 20
3.697853187302988
 97
        0
 92
        3
 72
     0
 73
     1
 93
       42
 10
9.670474572008635
 20
3.697853187302988
 10
9.667818204505826
 20
3.697853187302988
 10
9.667818204505826
 20
3.690937764019784
 10
9.66784560088663
 20
3.690461211185113
 10
9.667928150507763
 20
3.690012415209945
 10
9.668056120444461
 20
3.689609400029031
 10
9.668221219686728
 20
3.689234141707626
 10
9.668688400075332
 20
3.688592850109379
 10
9.669283550400642
 20
3.688079888926521
 10
9.669970622793148
 20
3.68769525815905
 10
9.670730872360714
 20
3.687420212914827
 10
9.671536902722533
 20
3.687264486118631
 10
9.672342933084359
 20
3.687209693356999
 10
9.673057401857669
 20
3.687264486118631
 10
9.673790255044436
 20
3.687420212914827
 10
9.674504723817753
 20
3.68769525815905
 10
9.675164039350738
 20
3.688079888926521
 10
9.675741165741305
 20
3.688592850109379
 10
9.676189961716466
 20
3.689234141707626
 10
9.676364072926111
 20
3.689609400029031
 10
9.676492403341491
 20
3.690012415209945
 10
9.676565580516572
 20
3.690461211185113
 10
9.676592976897378
 20
3.690937764019784
 10
9.676592976897378
 20
3.697853187302988
 10
9.674202282192715
 20
3.697853187302988
 10
9.674202282192715
 20
3.69120343681793
 10
9.674174885811905
 20
3.690809433604396
 10
9.674101708636837
 20
3.69042480283692
 10
9.673964366254076
 20
3.69006756845027
 10
9.673771870630995
 20
3.689737730444425
 10
9.673515570278907
 20
3.689472057646273
 10
9.673194744240437
 20
3.68926153808844
 10
9.672801101505595
 20
3.689124195705683
 10
9.672342933084359
 20
3.689078414911422
 10
9.671875752695751
 20
3.689124195705683
 10
9.671491121928286
 20
3.68926153808844
 10
9.671170656368503
 20
3.689472057646273
 10
9.670913995537727
 20
3.689737730444425
 10
9.670712487947274
 20
3.69006756845027
 10
9.670584157531879
 20
3.69042480283692
 10
9.670501968389438
 20
3.690809433604396
 10
9.670474572008635
 20
3.69120343681793
 97
        0
 92
        3
 72
     0
 73
     1
 93
       75
 10
9.678800548425023
 20
3.691386559994951
 10
9.67902044042892
 20
3.690360637629232
 10
9.67919455163856
 20
3.68988444527325
 10
9.679396059229015
 20
3.689444661265454
 10
9.67964334761373
 20
3.689041646084546
 10
9.679927404825316
 20
3.688675399730515
 10
9.680596092804384
 20
3.688052492545709
 10
9.680989735539226
 20
3.687805204160999
 10
9.681420147100953
 20
3.687594324124473
 10
9.68188732748955
 20
3.687429585360898
 10
9.682391276705044
 20
3.687310266912879
 10
9.68351777262664
 20
3.687209693356999
 10
9.68446150584992
 20
3.687264486118631
 10
9.685276548179116
 20
3.687447969774341
 10
9.685633782565786
 20
3.687594324124473
 10
9.685945236158185
 20
3.687777447301494
 10
9.68621992092371
 20
3.68800671175145
 10
9.686439812927611
 20
3.688281396516975
 10
9.686439812927611
 20
3.687484378122523
 10
9.688574207280178
 20
3.687484378122523
 10
9.688574207280178
 20
3.693071797893668
 10
9.684049118222948
 20
3.693071797893668
 10
9.684049118222948
 20
3.69120343681793
 10
9.68617414012945
 20
3.69120343681793
 10
9.686119347367827
 20
3.690745268396699
 10
9.685954248125558
 20
3.690351625661859
 10
9.685716332186907
 20
3.690030799623388
 10
9.685413890561888
 20
3.6897744992713
 10
9.685075040588666
 20
3.689582003648224
 10
9.684717806202016
 20
3.689444661265454
 10
9.684049118222948
 20
3.689343727230882
 10
9.68339881465732
 20
3.689398880471205
 10
9.682849084647579
 20
3.689582003648224
 10
9.682382264737674
 20
3.689866060859811
 10
9.68201565790495
 20
3.690241679659906
 10
9.681740973139425
 20
3.690708860048517
 10
9.68153946554896
 20
3.691249217612187
 10
9.681420147100953
 20
3.691862752350933
 10
9.681383738752762
 20
3.692531440329989
 10
9.68143853151439
 20
3.693374239518698
 10
9.68157587389715
 20
3.694088708292007
 10
9.681805138347126
 20
3.694683858617313
 10
9.682116591939518
 20
3.695160411451992
 10
9.68250122270699
 20
3.695526657806018
 10
9.682959030649528
 20
3.69579233060417
 10
9.683471991832384
 20
3.695948057400372
 10
9.684049118222948
 20
3.695993838194632
 10
9.684790983377074
 20
3.695902276606126
 10
9.685130193828993
 20
3.695783318636792
 10
9.685441286942698
 20
3.695627591840597
 10
9.685991016952435
 20
3.695206192246244
 10
9.686439812927611
 20
3.69466583468257
 10
9.688574207280178
 20
3.695462492598324
 10
9.688143435239764
 20
3.696112796163947
 10
9.68766724288378
 20
3.696662526173692
 10
9.687145269733547
 20
3.697120694594923
 10
9.68657715531036
 20
3.697486940948953
 10
9.685954248125558
 20
3.697770998160538
 10
9.685276548179116
 20
3.697972505750999
 10
9.684553067438442
 20
3.698082451752953
 10
9.6837834454248
 20
3.698118860101137
 10
9.683151526272612
 20
3.698091463720321
 10
9.682574399882057
 20
3.698008914099181
 10
9.682034042318387
 20
3.697880944162493
 10
9.681530093102896
 20
3.697697460506788
 10
9.681072285160354
 20
3.69746855653551
 10
9.680659897533378
 20
3.697193871769992
 10
9.680284639211981
 20
3.69688241817758
 10
9.67995480120614
 20
3.696525183790929
 10
9.679661732027167
 20
3.696131180577389
 10
9.679414443642452
 20
3.695709780983039
 10
9.679203563605933
 20
3.695242961073121
 10
9.67902945239629
 20
3.694757396271076
 10
9.678800548425023
 20
3.693694705078475
 10
9.678727371249954
 20
3.692531440329989
 97
        0
 92
       18
 72
     0
 73
     1
 93
       19
 10
9.6055592081501
 20
3.711162421197844
 10
9.60639263489274
 20
3.711089244022782
 10
9.60710710366606
 20
3.710869352018881
 10
9.60770261447006
 20
3.710530502045664
 10
9.608188179272105
 20
3.710063321657055
 10
9.608554425626137
 20
3.709486195266507
 10
9.608810725978211
 20
3.708799122873998
 10
9.608966452774416
 20
3.708029861339061
 10
9.609012233568674
 20
3.70716867773691
 10
9.608966452774416
 20
3.706307854613466
 10
9.608810725978211
 20
3.705538232599816
 10
9.608554425626137
 20
3.704851520686009
 10
9.608188179272105
 20
3.704274394295461
 10
9.60770261447006
 20
3.703807213906854
 10
9.60710710366606
 20
3.703468363933634
 10
9.60639263489274
 20
3.703248471929741
 10
9.6055592081501
 20
3.703175294754672
 10
9.603159140999384
 20
3.703175294754672
 10
9.603159140999384
 20
3.711162421197844
 97
        0
 75
     0
 76
     1
 98
        0
  0
HATCH
  5
7E
330
1F
100
AcDbEntity
  8
XR$1$TB_1414_1
  6
AUSGEZOGEN
 62
    18
420
        0
440
 33554687
370
    35
100
AcDbHatch
 10
0.0
 20
0.0
 30
0.0
210
0.0
220
0.0
230
1.0
  2
SOLID
 70
     1
 71
     0
 91
       20
 92
        3
 72
     0
 73
     1
 93
        8
 10
9.734867602238227
 20
3.712225112390445
 10
9.725020766207994
 20
3.687484378122523
 10
9.72741146091265
 20
3.687484378122523
 10
9.730342513180988
 20
3.694931507480717
 10
9.741252040403817
 20
3.694931507480717
 10
9.743908407906625
 20
3.687484378122523
 10
9.74657378737681
 20
3.687484378122523
 10
9.73699262414473
 20
3.712225112390445
 97
        0
 92
        3
 72
     0
 73
     1
 93
      116
 10
9.749495827677775
 20
3.699721908857415
 10
9.749532236025958
 20
3.700674654048065
 10
9.749623797614468
 20
3.701636411206089
 10
9.749779524410666
 20
3.702607180331494
 10
9.750008788860628
 20
3.703559925522146
 10
9.750301858039593
 20
3.70448491385329
 10
9.75065909242625
 20
3.70539187824969
 10
9.751089503987979
 20
3.706252701373143
 10
9.751593453203473
 20
3.707068104181033
 10
9.752170219115323
 20
3.707818981302527
 10
9.752811510713572
 20
3.708506053695033
 10
9.753525979486882
 20
3.709119948912468
 10
9.754322997881346
 20
3.709632910095328
 10
9.755193193450863
 20
3.710053949210987
 10
9.756145578162823
 20
3.710365402803393
 10
9.757171500528539
 20
3.710557898426476
 10
9.758279972515398
 20
3.710631075601545
 10
9.759598964060077
 20
3.710548886459103
 10
9.760780613222002
 20
3.710319622009136
 10
9.761320970785679
 20
3.710145871278195
 10
9.761824559522475
 20
3.709925979274294
 10
9.762291739911072
 20
3.709669318443519
 10
9.76273152391887
 20
3.709367237297183
 10
9.763519169867259
 20
3.708625372143053
 10
9.76418785784631
 20
3.707709395779282
 10
9.76474659982343
 20
3.706600923792428
 10
9.765195395798596
 20
3.705309328628555
 10
9.76758609050325
 20
3.706637692619306
 10
9.766844225349129
 20
3.708048245752499
 10
9.765983402225672
 20
3.709275675708674
 10
9.765021645067648
 20
3.710328994455211
 10
9.764490299471342
 20
3.710786802397748
 10
9.763931557494224
 20
3.711189817578665
 10
9.76334541913631
 20
3.711556424411387
 10
9.76272251195149
 20
3.711867878003783
 10
9.762062835939801
 20
3.712142562769315
 10
9.7613757635473
 20
3.712362454773209
 10
9.759901045206416
 20
3.712655523952171
 10
9.758279972515398
 20
3.712756097508052
 10
9.756878431349573
 20
3.712682920332985
 10
9.755586836185705
 20
3.712472400775159
 10
9.754377790642966
 20
3.712124178355872
 10
9.753278691102185
 20
3.711656997967266
 10
9.752271153149902
 20
3.711070859609336
 10
9.751355176786127
 20
3.710383787216835
 10
9.750530762010866
 20
3.709605153235823
 10
9.749797908824107
 20
3.708734957666306
 10
9.749156617225852
 20
3.707782572954346
 10
9.748607247694812
 20
3.706765662555996
 10
9.748140067306204
 20
3.705693959396023
 10
9.747764448506109
 20
3.704558091028359
 10
9.747471379327154
 20
3.703394826279875
 10
9.747269871736686
 20
3.702185780737133
 10
9.747141541321305
 20
3.700958350780957
 10
9.747105132973111
 20
3.699721908857415
 10
9.747141541321305
 20
3.698384532899289
 10
9.747269871736686
 20
3.69709293773542
 10
9.747471379327154
 20
3.695847483844491
 10
9.747755436538728
 20
3.694647450269129
 10
9.748121682892759
 20
3.693511581901459
 10
9.748579851313998
 20
3.692439878741483
 10
9.749110836431598
 20
3.691432340789208
 10
9.749733743616414
 20
3.690507352458057
 10
9.75042982797629
 20
3.689664553269349
 10
9.751217834403363
 20
3.688913315669155
 10
9.752097041940257
 20
3.688263012103531
 10
9.753049787130907
 20
3.687704270126424
 10
9.754093733431374
 20
3.687273858564693
 10
9.755229601799046
 20
3.686944020558853
 10
9.756438647341781
 20
3.686751524935767
 10
9.757748626919101
 20
3.6866783477607
 10
9.758847726459885
 20
3.686742512968396
 10
9.759956198446739
 20
3.686935008591476
 10
9.761036913574086
 20
3.687255474151256
 10
9.762072208385868
 20
3.687713282093786
 10
9.763024593097828
 20
3.688308792897786
 10
9.763885776699981
 20
3.689041646084546
 10
9.764618629886739
 20
3.689911841654057
 10
9.764920711033078
 20
3.690406418423483
 10
9.765195395798596
 20
3.690937764019784
 10
9.765195395798596
 20
3.687484378122523
 10
9.767320417705111
 20
3.687484378122523
 10
9.767320417705111
 20
3.700253254453712
 10
9.756145578162823
 20
3.700253254453712
 10
9.756145578162823
 20
3.698118860101137
 10
9.765195395798596
 20
3.698118860101137
 10
9.765195395798596
 20
3.696790856589081
 10
9.765094822242716
 20
3.695453480630951
 10
9.76478336865031
 20
3.694088708292007
 10
9.764536080265598
 20
3.693411008345578
 10
9.76424301108664
 20
3.692751332333888
 10
9.763885776699981
 20
3.692110040735641
 10
9.763464377105628
 20
3.691505517964275
 10
9.762988184749641
 20
3.690937764019784
 10
9.762438454739907
 20
3.69042480283692
 10
9.761833931968535
 20
3.689966634415689
 10
9.761156232022104
 20
3.689572991680847
 10
9.760414006389276
 20
3.689252165642376
 10
9.75958959161401
 20
3.689014249703727
 10
9.758710384077117
 20
3.688858522907531
 10
9.757748626919101
 20
3.688812742113276
 10
9.756685935726496
 20
3.688876907320968
 10
9.755715166601096
 20
3.689069042465359
 10
9.754808202204686
 20
3.689380496057764
 10
9.753984147908124
 20
3.689801895652112
 10
9.753241922275308
 20
3.69032386880235
 10
9.752564222328857
 20
3.69092839157372
 10
9.7519596995575
 20
3.691615463966218
 10
9.751428353961199
 20
3.692366701566414
 10
9.750961173572591
 20
3.693181743895615
 10
9.750567530837746
 20
3.694042927497764
 10
9.750228320385826
 20
3.69494953141547
 10
9.749963008066372
 20
3.695883892192682
 10
9.749761500475927
 20
3.696836637383325
 10
9.749614785647095
 20
3.697798394541358
 10
9.749523224058578
 20
3.698760151699384
 97
        0
 92
        3
 72
     0
 73
     1
 93
       37
 10
9.770782815569737
 20
3.687484378122523
 10
9.7731735102744
 20
3.687484378122523
 10
9.7731735102744
 20
3.698384532899289
 10
9.778761290524237
 20
3.698384532899289
 10
9.786748416967404
 20
3.687484378122523
 10
9.789670457268375
 20
3.687484378122523
 10
9.78169234279257
 20
3.698384532899289
 10
9.783295391548842
 20
3.698586040489743
 10
9.784037256702975
 20
3.698760151699384
 10
9.784723968616783
 20
3.698980043703281
 10
9.78536526021503
 20
3.699254728468806
 10
9.785951398572967
 20
3.699575194028583
 10
9.786492116615332
 20
3.699941800861307
 10
9.786977320938675
 20
3.700353828009591
 10
9.787417104946469
 20
3.700811996430824
 10
9.787792723746572
 20
3.701315585167618
 10
9.78812256175242
 20
3.701865315177362
 10
9.788387874071875
 20
3.702469837948729
 10
9.788598754108394
 20
3.703111129546969
 10
9.788754480904595
 20
3.703797841460786
 10
9.788846042493102
 20
3.704530694647543
 10
9.788873438873912
 20
3.705309328628555
 10
9.788772865318034
 20
3.706600923792428
 10
9.788461411725633
 20
3.707846738162041
 10
9.788223135308298
 20
3.708441888487347
 10
9.787939078096702
 20
3.709019014877895
 10
9.787581843710049
 20
3.709559372441569
 10
9.78717882852914
 20
3.710063321657055
 10
9.786711648140534
 20
3.710530502045664
 10
9.786189674990293
 20
3.71094252919395
 10
9.785594164186302
 20
3.71131814799405
 10
9.784943860620677
 20
3.71162960158645
 10
9.784229391847362
 20
3.711885901938536
 10
9.783450757866353
 20
3.712069385594245
 10
9.782608319156347
 20
3.712188343563563
 10
9.78169234279257
 20
3.712225112390445
 10
9.770782815569737
 20
3.712225112390445
 97
        0
 92
        3
 72
     0
 73
     1
 93
       64
 10
9.790632214426399
 20
3.697248664531611
 10
9.790842733984222
 20
3.696048991434949
 10
9.791126791195822
 20
3.694876354240396
 10
9.79150240999591
 20
3.693749858318799
 10
9.79196021793845
 20
3.692668782712754
 10
9.792500935980822
 20
3.691652232793098
 10
9.793132855132999
 20
3.690708860048517
 10
9.793847323906318
 20
3.689838664478999
 10
9.794653354268144
 20
3.689050658051918
 10
9.795550946218473
 20
3.68836394613811
 10
9.796531087789944
 20
3.687786819747557
 10
9.7976118029173
 20
3.687319639358948
 10
9.798775067665773
 20
3.686971416939667
 10
9.800030254481458
 20
3.686751524935767
 10
9.801366909482194
 20
3.6866783477607
 10
9.802676889059503
 20
3.686751524935767
 10
9.803895307048306
 20
3.686971416939667
 10
9.805021802969913
 20
3.687319639358948
 10
9.806066109749068
 20
3.687786819747557
 10
9.807018494461035
 20
3.68836394613811
 10
9.807898062476614
 20
3.689050658051918
 10
9.808685708425003
 20
3.689838664478999
 10
9.809381792784878
 20
3.690708860048517
 10
9.810004699969678
 20
3.691652232793098
 10
9.81053604556599
 20
3.692668782712754
 10
9.810993853508526
 20
3.693749858318799
 10
9.811360460341252
 20
3.694876354240396
 10
9.811644157074147
 20
3.696048991434949
 10
9.811855037110666
 20
3.697248664531611
 10
9.811973995079986
 20
3.698476094487787
 10
9.81201076390687
 20
3.699721908857415
 10
9.811973995079986
 20
3.700958350780957
 10
9.811855037110666
 20
3.702185780737133
 10
9.811644157074147
 20
3.703394826279875
 10
9.811360460341252
 20
3.704558091028359
 10
9.810993853508526
 20
3.705693959396023
 10
9.81053604556599
 20
3.706765662555996
 10
9.810004699969678
 20
3.707782572954346
 10
9.809381792784878
 20
3.708734957666306
 10
9.808685708425003
 20
3.709605153235823
 10
9.807898062476614
 20
3.710383787216835
 10
9.807018494461035
 20
3.711070859609336
 10
9.806066109749068
 20
3.711656997967266
 10
9.805021802969913
 20
3.712124178355872
 10
9.803895307048306
 20
3.712472400775159
 10
9.802676889059503
 20
3.712682920332985
 10
9.801366909482194
 20
3.712756097508052
 10
9.800030254481458
 20
3.712682920332985
 10
9.798775067665773
 20
3.712472400775159
 10
9.7976118029173
 20
3.712124178355872
 10
9.796531087789944
 20
3.711656997967266
 10
9.795550946218473
 20
3.711070859609336
 10
9.794653354268144
 20
3.710383787216835
 10
9.793847323906318
 20
3.709605153235823
 10
9.793132855132999
 20
3.708734957666306
 10
9.792500935980822
 20
3.707782572954346
 10
9.79196021793845
 20
3.706765662555996
 10
9.79150240999591
 20
3.705693959396023
 10
9.791126791195822
 20
3.704558091028359
 10
9.790842733984222
 20
3.703394826279875
 10
9.790632214426399
 20
3.702185780737133
 10
9.790513256457077
 20
3.700958350780957
 10
9.79047648763019
 20
3.699721908857415
 10
9.790513256457077
 20
3.698476094487787
 97
        0
 92
        3
 72
     0
 73
     1
 93
       57
 10
9.825850982919338
 20
3.687484378122523
 10
9.826858520871616
 20
3.687521146949404
 10
9.82779288164883
 20
3.687621720505283
 10
9.828663077218351
 20
3.68779583171493
 10
9.829451083645438
 20
3.688034108132268
 10
9.830174564386116
 20
3.68832717731123
 10
9.830833879919117
 20
3.688675399730515
 10
9.831420378755732
 20
3.689069042465359
 10
9.8319333399386
 20
3.689508826473149
 10
9.832391147881138
 20
3.689994391275197
 10
9.832775778648612
 20
3.690507352458057
 10
9.833105616654453
 20
3.691056721989107
 10
9.833371289452609
 20
3.691633848379657
 10
9.833572797043058
 20
3.692229359183655
 10
9.833719511871887
 20
3.692851905889769
 10
9.833801701014321
 20
3.693484185520644
 10
9.833829097395146
 20
3.694134489086266
 10
9.833755920220074
 20
3.695389315423259
 10
9.833527016248803
 20
3.69655258017174
 10
9.833343893071795
 20
3.697102310181486
 10
9.83313301303526
 20
3.697615271364346
 10
9.832867340237112
 20
3.698100475687692
 10
9.83256525909078
 20
3.698558644108927
 10
9.832217036671498
 20
3.698970671257212
 10
9.831832405904025
 20
3.699355662503376
 10
9.831392621896228
 20
3.69970352444397
 10
9.83091642954025
 20
3.700005966069004
 10
9.830385083943941
 20
3.700271638867149
 10
9.82980795755339
 20
3.700482158424986
 10
9.829185410847282
 20
3.700656269634619
 10
9.828507350422147
 20
3.700784600050016
 10
9.829624834376375
 20
3.701040900402097
 10
9.830110399178421
 20
3.701224023579114
 10
9.830559195153588
 20
3.70143490361564
 10
9.83134684110197
 20
3.701938492352425
 10
9.831969748286783
 20
3.702579783950678
 10
9.832446301121452
 20
3.703340033518247
 10
9.83262942429847
 20
3.703770445079974
 10
9.832775778648612
 20
3.704228613501202
 10
9.832968274271696
 20
3.705236151453486
 10
9.833032439479387
 20
3.706372019821156
 10
9.832986658685133
 20
3.707003938973336
 10
9.832803535508122
 20
3.707846738162041
 10
9.832647808711913
 20
3.70831391855065
 10
9.832427916708012
 20
3.708808495320072
 10
9.832152871463803
 20
3.709303072089486
 10
9.831805009523201
 20
3.70979764885891
 10
9.831374597961481
 20
3.710273841214888
 10
9.830861636778621
 20
3.710722637190056
 10
9.83025711400726
 20
3.711135024817033
 10
9.829551657201309
 20
3.711492259203691
 10
9.828736614872117
 20
3.71179434035003
 10
9.827811266062273
 20
3.712023604799995
 10
9.82676695928311
 20
3.712169959150122
 10
9.825585310121193
 20
3.712225112390445
 10
9.814941816175205
 20
3.712225112390445
 10
9.814941816175205
 20
3.687484378122523
 97
        0
 92
        3
 72
     0
 73
     1
 93
       56
 10
9.841816584317012
 20
3.687484378122523
 10
9.852991423859292
 20
3.687484378122523
 10
9.855253788148568
 20
3.687566927743657
 10
9.856289082960362
 20
3.687685885712983
 10
9.857259852085745
 20
3.687850984955249
 10
9.858157444036085
 20
3.688070516480451
 10
9.858991231257418
 20
3.688336189278605
 10
9.859751480824986
 20
3.688657015317074
 10
9.860438553217488
 20
3.689041646084546
 10
9.861052087956233
 20
3.689481430092337
 10
9.861583433552534
 20
3.689985018829133
 10
9.862041241495072
 20
3.690553133252315
 10
9.86241686029517
 20
3.691185052404498
 10
9.862709929474134
 20
3.691881136764372
 10
9.862920809510664
 20
3.692650398299316
 10
9.863058151893421
 20
3.693484185520644
 10
9.863094560241601
 20
3.694400161884421
 10
9.86306716386079
 20
3.695068849863481
 10
9.862975602272286
 20
3.695700769015666
 10
9.862829247922145
 20
3.696277895406214
 10
9.862627740331698
 20
3.696809241002518
 10
9.862380091468292
 20
3.69729444532587
 10
9.862087022289323
 20
3.697734229333659
 10
9.861748172316108
 20
3.6981282325472
 10
9.861372553516007
 20
3.698485466933862
 10
9.860951153921652
 20
3.698805932493633
 10
9.860502357946496
 20
3.699080617259164
 10
9.860017153623142
 20
3.699318893676496
 10
9.859504192440278
 20
3.699520401266955
 10
9.858414104866863
 20
3.699822842891981
 10
9.857241467672308
 20
3.699987581655563
 10
9.857241467672308
 20
3.700253254453712
 10
9.85837733603998
 20
3.700592104426929
 10
9.859384873992264
 20
3.701013504021277
 10
9.860246057594408
 20
3.70152646520414
 10
9.860969538335091
 20
3.702149372388951
 10
9.861537652758276
 20
3.702881865097015
 10
9.861766556729547
 20
3.703284880277923
 10
9.86195905235263
 20
3.703734036731783
 10
9.862215352704718
 20
3.70471381782456
 10
9.862297902325851
 20
3.705840674224854
 10
9.862261133498976
 20
3.706655716554051
 10
9.862142175529648
 20
3.707406954154247
 10
9.861949679906566
 20
3.708103038514126
 10
9.861684007108414
 20
3.708744330112373
 10
9.861354529581265
 20
3.709321456502927
 10
9.860951153921652
 20
3.709843429653159
 10
9.860493345979116
 20
3.710310610041761
 10
9.85997137282889
 20
3.710722637190056
 10
9.859394246438328
 20
3.711089244022782
 10
9.85876232728615
 20
3.711400697615185
 10
9.858084266861015
 20
3.711656997967266
 10
9.857360786120333
 20
3.71185850555772
 10
9.855785133744872
 20
3.71213355080194
 10
9.854054115051893
 20
3.712225112390445
 10
9.841816584317012
 20
3.712225112390445
 97
        0
 92
        3
 72
     0
 73
     1
 93
       58
 10
9.867353976500688
 20
3.695993838194632
 10
9.867418141708384
 20
3.694793804619259
 10
9.867601264885403
 20
3.693685693111102
 10
9.867903706510429
 20
3.692668782712754
 10
9.868306721691349
 20
3.691734421935545
 10
9.868801298460765
 20
3.690882610779465
 10
9.86937842485132
 20
3.690122361211894
 10
9.870028728416944
 20
3.689444661265454
 10
9.870743197190258
 20
3.688840138494093
 10
9.871521831171268
 20
3.688318165343853
 10
9.872346245946533
 20
3.687878381336062
 10
9.873198057102602
 20
3.68750276253596
 10
9.874086276606873
 20
3.687200681389633
 10
9.87499324100328
 20
3.686971416939667
 10
9.875909217367052
 20
3.686806678176088
 10
9.876825193730822
 20
3.686715116587582
 10
9.877732158127221
 20
3.6866783477607
 10
9.878638762044922
 20
3.686715116587582
 10
9.879554738408698
 20
3.686806678176088
 10
9.880470714772468
 20
3.686971416939667
 10
9.8813683067228
 20
3.687200681389633
 10
9.882256886705758
 20
3.68750276253596
 10
9.88311807030791
 20
3.687878381336062
 10
9.88394248508318
 20
3.688318165343853
 10
9.88471174661811
 20
3.688840138494093
 10
9.885435227358807
 20
3.689444661265454
 10
9.886085891403125
 20
3.690122361211894
 10
9.886662657314979
 20
3.690882610779465
 10
9.887157594563092
 20
3.691734421935545
 10
9.887560609744009
 20
3.692668782712754
 10
9.887862690890348
 20
3.693685693111102
 10
9.888045814067361
 20
3.694793804619259
 10
9.888109979275052
 20
3.695993838194632
 10
9.888109979275052
 20
3.712225112390445
 10
9.881991213907613
 20
3.712225112390445
 10
9.881991213907613
 20
3.696525183790929
 10
9.881936421145982
 20
3.695554054186838
 10
9.881771321903717
 20
3.694656462236499
 10
9.881487625170811
 20
3.693841419907301
 10
9.881056853130396
 20
3.693135963101355
 10
9.880480087218535
 20
3.692549824743435
 10
9.880131864799246
 20
3.692311548326099
 10
9.879747234031786
 20
3.692110040735641
 10
9.87930745002399
 20
3.691954313939439
 10
9.878831257668006
 20
3.691835355970115
 10
9.877732158127221
 20
3.691734421935545
 10
9.876632698107738
 20
3.691835355970115
 10
9.876156505751753
 20
3.691954313939439
 10
9.875716721743967
 20
3.692110040735641
 10
9.87533209097649
 20
3.692311548326099
 10
9.874984229035896
 20
3.692549824743435
 10
9.874407102645348
 20
3.693135963101355
 10
9.873976691083628
 20
3.693841419907301
 10
9.873692633872029
 20
3.694656462236499
 10
9.873527534629769
 20
3.695554054186838
 10
9.873472741868138
 20
3.696525183790929
 10
9.873472741868138
 20
3.712225112390445
 10
9.867353976500688
 20
3.712225112390445
 97
        0
 92
        3
 72
     0
 73
     1
 93
      105
 10
9.898488160901586
 20
3.699721908857415
 10
9.8985155572824
 20
3.700729446809692
 10
9.898607118870897
 20
3.7016638075869
 10
9.898753833699729
 20
3.702534003156417
 10
9.898955341290186
 20
3.703321649104806
 10
9.899202629674901
 20
3.70404549032419
 10
9.89950471082124
 20
3.704695793889807
 10
9.899852933240526
 20
3.705281932247735
 10
9.900246575975371
 20
3.705803905397976
 10
9.900677348015796
 20
3.706262073819207
 10
9.901144528404393
 20
3.706646704586681
 10
9.901648117141182
 20
3.706976542592527
 10
9.90218847470486
 20
3.707242215390675
 10
9.90275658912804
 20
3.707443722981134
 10
9.90335173945335
 20
3.707590077331262
 10
9.903965634670776
 20
3.707672626952399
 10
9.904606926269024
 20
3.707700023333217
 10
9.905403584184782
 20
3.707626846158142
 10
9.906182218165798
 20
3.707415966121616
 10
9.906924083319916
 20
3.707086488594472
 10
9.907629540125868
 20
3.706637692619306
 10
9.90827083172411
 20
3.706087962609565
 10
9.908829573701233
 20
3.705456043457378
 10
9.909296393611136
 20
3.704750586651442
 10
9.909663000443865
 20
3.70397195267043
 10
9.914710062651345
 20
3.706372019821156
 10
9.913775701874126
 20
3.707791584921724
 10
9.912758791475774
 20
3.70905578370478
 10
9.91164130752155
 20
3.710145871278195
 10
9.91104615719625
 20
3.710622063634175
 10
9.910423250011439
 20
3.711061847641964
 10
9.909772946445816
 20
3.711446478409436
 10
9.909094886020682
 20
3.711785328382657
 10
9.908380417247363
 20
3.71207839756162
 10
9.907638552093248
 20
3.712316673978957
 10
9.906869290558292
 20
3.712508809123343
 10
9.906063260196467
 20
3.712646511984804
 10
9.905220461007774
 20
3.712728701127246
 10
9.904341253470879
 20
3.712756097508052
 10
9.902930700337684
 20
3.712682920332985
 10
9.901611348314301
 20
3.712481412742531
 10
9.900365894423386
 20
3.712142562769315
 10
9.899211641642275
 20
3.711693766794151
 10
9.898139938482304
 20
3.711125652370965
 10
9.897159796910831
 20
3.710457324870597
 10
9.896262204960497
 20
3.709687702856963
 10
9.895456174598667
 20
3.708835891700883
 10
9.89474170582535
 20
3.707892518956292
 10
9.894118798640548
 20
3.706884981004014
 10
9.893587453044248
 20
3.705803905397976
 10
9.893148029515155
 20
3.704677409476369
 10
9.892808819063239
 20
3.703486748347073
 10
9.892561530678524
 20
3.702268330358273
 10
9.89241517632839
 20
3.701004131575215
 10
9.892360023088068
 20
3.699721908857415
 10
9.89241517632839
 20
3.698430313693541
 10
9.892570903124591
 20
3.697175487356546
 10
9.892836575922747
 20
3.695948057400372
 10
9.893193810309405
 20
3.694766408238449
 10
9.893660990698006
 20
3.693630539870779
 10
9.894219732675133
 20
3.692549824743435
 10
9.894870036240754
 20
3.691542286791155
 10
9.895620913362249
 20
3.690607926013936
 10
9.896472724518325
 20
3.689747102890493
 10
9.897407085295539
 20
3.688986492844222
 10
9.898433007661259
 20
3.688308792897786
 10
9.899550491615488
 20
3.687750050920675
 10
9.900750525190853
 20
3.687292242978136
 10
9.902042120354725
 20
3.68696240497229
 10
9.903415904661031
 20
3.686751524935767
 10
9.904872238588485
 20
3.6866783477607
 10
9.905614464221307
 20
3.686705744141511
 10
9.906346956929369
 20
3.686788293762647
 10
9.907794278889442
 20
3.687118131768493
 10
9.90849036324932
 20
3.687356047707135
 10
9.909177435641823
 20
3.687649477364797
 10
9.909846123620877
 20
3.687988327338013
 10
9.910487415219132
 20
3.688381970072855
 10
9.911714845175315
 20
3.68928893446925
 10
9.912841341096913
 20
3.690388034010041
 10
9.913839867081823
 20
3.691642860347032
 10
9.914297675024356
 20
3.692339305185604
 10
9.914710062651345
 20
3.693071797893668
 10
9.909928673242018
 20
3.695462492598324
 10
9.909470504820792
 20
3.69462906585569
 10
9.908911762843674
 20
3.69391459708237
 10
9.908279843691496
 20
3.693319086278374
 10
9.907592771298981
 20
3.692833881955028
 10
9.906887674971737
 20
3.692467275122302
 10
9.906182218165798
 20
3.692210974770218
 10
9.905504518219356
 20
3.692055247974015
 10
9.904872238588485
 20
3.69200009473369
 10
9.903965634670776
 20
3.692055247974015
 10
9.903141219895513
 20
3.692192590356774
 10
9.90239935474138
 20
3.692421494328046
 10
9.901739678729696
 20
3.692723935953074
 10
9.901144528404393
 20
3.693099554753173
 10
9.900631567221529
 20
3.6935299663149
 10
9.900173398800298
 20
3.694024543084323
 10
9.899779395586759
 20
3.694564900647993
 10
9.899449918059613
 20
3.69514202703855
 10
9.899174872815392
 20
3.695755561777291
 10
9.898945968844123
 20
3.69639685337554
 10
9.898771857634475
 20
3.697056529387226
 10
9.898552326109277
 20
3.698393905345349
 97
        0
 92
        3
 72
     0
 73
     1
 93
       12
 10
9.91817246051597
 20
3.687484378122523
 10
9.924291225883414
 20
3.687484378122523
 10
9.924291225883414
 20
3.697853187302988
 10
9.93360671631734
 20
3.697853187302988
 10
9.93360671631734
 20
3.687484378122523
 10
9.939725121206086
 20
3.687484378122523
 10
9.939725121206086
 20
3.712225112390445
 10
9.93360671631734
 20
3.712225112390445
 10
9.93360671631734
 20
3.703175294754672
 10
9.924291225883414
 20
3.703175294754672
 10
9.924291225883414
 20
3.712225112390445
 10
9.91817246051597
 20
3.712225112390445
 97
        0
 92
        3
 72
     0
 73
     1
 93
        8
 10
9.955690722603768
 20
3.707434350535061
 10
9.962075160769352
 20
3.707434350535061
 10
9.962075160769352
 20
3.712225112390445
 10
9.942912834305202
 20
3.712225112390445
 10
9.942912834305202
 20
3.707434350535061
 10
9.949571957236317
 20
3.707434350535061
 10
9.949571957236317
 20
3.687484378122523
 10
9.955690722603768
 20
3.687484378122523
 97
        0
 92
        3
 72
     0
 73
     1
 93
        8
 10
9.960206439214929
 20
3.687484378122523
 10
9.966865562146047
 20
3.687484378122523
 10
9.96819392613679
 20
3.69120343681793
 10
9.977234371326505
 20
3.69120343681793
 10
9.978571747284628
 20
3.687484378122523
 10
9.985221858248371
 20
3.687484378122523
 10
9.975906367814455
 20
3.712225112390445
 10
9.96952192964886
 20
3.712225112390445
 97
        0
 92
        3
 72
     0
 73
     1
 93
        6
 10
9.987878225751183
 20
3.687484378122523
 10
10.00384346667016
 20
3.687484378122523
 10
10.00384346667016
 20
3.692531440329989
 10
9.994262663916782
 20
3.692531440329989
 10
9.994262663916782
 20
3.712225112390445
 10
9.987878225751183
 20
3.712225112390445
 97
        0
 92
       18
 72
     0
 73
     1
 93
        3
 10
9.735929932952137
 20
3.709028387323959
 10
9.74045502200936
 20
3.696790856589081
 10
9.731139531575437
 20
3.696790856589081
 97
        0
 92
       18
 72
     0
 73
     1
 93
       29
 10
9.780895324398122
 20
3.709825045239723
 10
9.782370042739002
 20
3.709751868064654
 10
9.78360648466255
 20
3.709531976060762
 10
9.784137830258851
 20
3.709367237297183
 10
9.784614383093528
 20
3.709165729706731
 10
9.785044794655255
 20
3.70893646525676
 10
9.785420413455354
 20
3.708661780491237
 10
9.78574087901513
 20
3.708359699344908
 10
9.786015563780648
 20
3.708020488892986
 10
9.786244828230616
 20
3.707654242538958
 10
9.786427951407632
 20
3.70725122735805
 10
9.78666586734628
 20
3.706344262961649
 10
9.786748416967404
 20
3.705309328628555
 10
9.78668425175972
 20
3.704411736678221
 10
9.786464359755819
 20
3.703550553076075
 10
9.78629060902487
 20
3.703138525927788
 10
9.786070717020976
 20
3.702735510746881
 10
9.785805044222824
 20
3.702359891946779
 10
9.785484578663045
 20
3.70201166952749
 10
9.785108959862956
 20
3.701691203967719
 10
9.784669175855152
 20
3.701398134788755
 10
9.784165226639661
 20
3.701141834436674
 10
9.78360648466255
 20
3.70093095440015
 10
9.782974565510367
 20
3.700756843190504
 10
9.782269469183122
 20
3.700628873253811
 10
9.781481462756043
 20
3.700546323632674
 10
9.780629651599963
 20
3.700518927251856
 10
9.7731735102744
 20
3.700518927251856
 10
9.7731735102744
 20
3.709825045239723
 97
        0
 92
       18
 72
     0
 73
     1
 93
       64
 10
9.792894578715664
 20
3.700674654048065
 10
9.792995512750245
 20
3.701636411206089
 10
9.793151239546447
 20
3.702607180331494
 10
9.793371131550341
 20
3.703559925522146
 10
9.793664200729307
 20
3.70448491385329
 10
9.794021435115969
 20
3.70539187824969
 10
9.794442474231621
 20
3.706252701373143
 10
9.794928039033662
 20
3.707068104181033
 10
9.795486781010782
 20
3.707818981302527
 10
9.796119060641661
 20
3.708506053695033
 10
9.796815145001531
 20
3.709119948912468
 10
9.797584406536474
 20
3.709632910095328
 10
9.798417833279114
 20
3.710053949210987
 10
9.799333809642887
 20
3.710365402803393
 10
9.800313590735653
 20
3.710557898426476
 10
9.801366909482194
 20
3.710631075601545
 10
9.802429600674792
 20
3.710557898426476
 10
9.80340974224626
 20
3.710365402803393
 10
9.804307334196588
 20
3.710053949210987
 10
9.805131748971858
 20
3.709632910095328
 10
9.805873614125986
 20
3.709119948912468
 10
9.806551674551114
 20
3.708506053695033
 10
9.807156197322488
 20
3.707818981302527
 10
9.807687182440096
 20
3.707068104181033
 10
9.808154362828695
 20
3.706252701373143
 10
9.808548366042235
 20
3.70539187824969
 10
9.808887216015451
 20
3.70448491385329
 10
9.80915288881361
 20
3.703559925522146
 10
9.809363408371434
 20
3.702607180331494
 10
9.809501111232889
 20
3.701636411206089
 10
9.809592672821399
 20
3.700674654048065
 10
9.809620069202213
 20
3.699721908857415
 10
9.809592672821399
 20
3.698760151699384
 10
9.809501111232889
 20
3.697798394541358
 10
9.809363408371434
 20
3.696836637383325
 10
9.80915288881361
 20
3.695883892192682
 10
9.808887216015451
 20
3.69494953141547
 10
9.808548366042235
 20
3.694042927497764
 10
9.808154362828695
 20
3.693181743895615
 10
9.807687182440096
 20
3.692366701566414
 10
9.807156197322488
 20
3.691615463966218
 10
9.806551674551114
 20
3.69092839157372
 10
9.805873614125986
 20
3.69032386880235
 10
9.805131748971858
 20
3.689801895652112
 10
9.804307334196588
 20
3.689380496057764
 10
9.80340974224626
 20
3.689069042465359
 10
9.802429600674792
 20
3.688876907320968
 10
9.801366909482194
 20
3.688812742113276
 10
9.800313590735653
 20
3.688876907320968
 10
9.799333809642887
 20
3.689069042465359
 10
9.798417833279114
 20
3.689380496057764
 10
9.797584406536474
 20
3.689801895652112
 10
9.796815145001531
 20
3.69032386880235
 10
9.796119060641661
 20
3.69092839157372
 10
9.795486781010782
 20
3.691615463966218
 10
9.794928039033662
 20
3.692366701566414
 10
9.794442474231621
 20
3.693181743895615
 10
9.794021435115969
 20
3.694042927497764
 10
9.793664200729307
 20
3.69494953141547
 10
9.793371131550341
 20
3.695883892192682
 10
9.793151239546447
 20
3.696836637383325
 10
9.792995512750245
 20
3.697798394541358
 10
9.792894578715664
 20
3.698760151699384
 10
9.792867182334854
 20
3.699721908857415
 97
        0
 92
       18
 72
     0
 73
     1
 93
       26
 10
9.825054325003576
 20
3.709825045239723
 10
9.826363944102201
 20
3.709788636891533
 10
9.827490800502494
 20
3.709650934030075
 10
9.828452557660528
 20
3.709413018091438
 10
9.828873957254883
 20
3.709238906881792
 10
9.829240203608906
 20
3.709028387323959
 10
9.829570041614755
 20
3.708790110906623
 10
9.829854098826337
 20
3.708506053695033
 10
9.830092014764983
 20
3.708176215689191
 10
9.830284510388063
 20
3.707809969335162
 10
9.830440237184268
 20
3.707388569740813
 10
9.830550183186226
 20
3.706930761798271
 10
9.830641744774733
 20
3.705840674224854
 10
9.830540810740148
 20
3.704887929034201
 10
9.830421852770831
 20
3.704457517472476
 10
9.83024774156118
 20
3.704054502291569
 10
9.830037222003355
 20
3.703669871524095
 10
9.829780561172576
 20
3.703321649104806
 10
9.829139630053026
 20
3.702708114366058
 10
9.828342611658567
 20
3.702222549564014
 10
9.82787543126997
 20
3.702030053940931
 10
9.82738085450054
 20
3.701874327144731
 10
9.826281754959759
 20
3.701654795619526
 10
9.825054325003576
 20
3.701581257965767
 10
9.817332510879858
 20
3.701581257965767
 10
9.817332510879858
 20
3.709825045239723
 97
        0
 92
       18
 72
     0
 73
     1
 93
       28
 10
9.825054325003576
 20
3.699456236059255
 10
9.826547427757914
 20
3.699355662503376
 10
9.827848034889156
 20
3.699071605291787
 10
9.828415788833636
 20
3.698860725255263
 10
9.82893812246257
 20
3.698613436870553
 10
9.829414314818552
 20
3.698320367691593
 10
9.8298357144129
 20
3.697990890164441
 10
9.830211333212993
 20
3.697624283331714
 10
9.830540810740148
 20
3.697221268150801
 10
9.830815855984367
 20
3.696781484143004
 10
9.83103538750957
 20
3.696314303754405
 10
9.831209498719216
 20
3.695810715017609
 10
9.831337829134604
 20
3.695279369421312
 10
9.831438402690475
 20
3.694134489086266
 10
9.831356213548045
 20
3.693328458724442
 10
9.831127309576773
 20
3.692531440329989
 10
9.83072393391716
 20
3.691762178795047
 10
9.830137795559239
 20
3.691075106402548
 10
9.829780561172576
 20
3.690763652810141
 10
9.829368534024297
 20
3.690479595598552
 10
9.828910365603067
 20
3.690232307213839
 10
9.82840677686627
 20
3.690012415209945
 10
9.827848034889156
 20
3.68984767644637
 10
9.827234139671726
 20
3.689719346030985
 10
9.826565451692653
 20
3.689637156888546
 10
9.825850982919338
 20
3.689609400029031
 10
9.817332510879858
 20
3.689609400029031
 10
9.817332510879858
 20
3.699456236059255
 97
        0
 92
       18
 72
     0
 73
     1
 93
       19
 10
9.852991423859292
 20
3.707434350535061
 10
9.853660111838357
 20
3.707406954154247
 10
9.854274007055794
 20
3.707324404533114
 10
9.854814364619468
 20
3.70716867773691
 10
9.855281545008072
 20
3.706939773765646
 10
9.855657163808175
 20
3.706619308205866
 10
9.855940860541073
 20
3.706197908611512
 10
9.856114971750717
 20
3.705675574982581
 10
9.856179136958408
 20
3.705043655830403
 10
9.856114971750717
 20
3.704393352264784
 10
9.855940860541073
 20
3.703834610287666
 10
9.855657163808175
 20
3.703376802345127
 10
9.855281545008072
 20
3.703010195512399
 10
9.854814364619468
 20
3.702726138300814
 10
9.854274007055794
 20
3.702534003156417
 10
9.853660111838357
 20
3.702415045187099
 10
9.852991423859292
 20
3.70237827636022
 10
9.84766967688631
 20
3.70237827636022
 10
9.84766967688631
 20
3.707434350535061
 97
        0
 92
       18
 72
     0
 73
     1
 93
       19
 10
9.854054115051893
 20
3.697853187302988
 10
9.854786968238654
 20
3.697807406508731
 10
9.855409514944759
 20
3.697661052158594
 10
9.855913464160253
 20
3.697422775741261
 10
9.856316479341166
 20
3.69709293773542
 10
9.856609548520128
 20
3.696671538141061
 10
9.85682042855666
 20
3.696176961371644
 10
9.85693938652597
 20
3.695590823013712
 10
9.856976155352854
 20
3.694931507480717
 10
9.85693938652597
 20
3.694345008644101
 10
9.856802044143212
 20
3.693795639113048
 10
9.856554755758507
 20
3.693301062343629
 10
9.856179136958408
 20
3.69287029030321
 10
9.855657163808175
 20
3.692504043949179
 10
9.85496071896961
 20
3.692238371151026
 10
9.854072499465337
 20
3.692064259941388
 10
9.852991423859292
 20
3.69200009473369
 10
9.847935349684459
 20
3.69200009473369
 10
9.847935349684459
 20
3.697853187302988
 97
        0
 92
       18
 72
     0
 73
     1
 93
        3
 10
9.972718654715338
 20
3.706106347023006
 10
9.975640695016299
 20
3.695728165396476
 10
9.96952192964886
 20
3.695728165396476
 97
        0
 75
     0
 76
     1
 98
        0
  0
HATCH
  5
80
102
{ACAD_REACTORS
330
7F
102
}
330
1F
100
AcDbEntity
  8
XR$1$TB_1414_1
  6
AUSGEZOGEN
 62
     3
440
 33554687
370
    35
100
AcDbHatch
 10
0.0
 20
0.0
 30
0.0
210
0.0
220
0.0
230
1.0
  2
SOLID
 70
     1
 71
     0
 91
        1
 92
        3
 72
     0
 73
     1
 93
       22
 10
9.696020976159684
 20
3.687209693356999
 10
9.711189559162902
 20
3.687209693356999
 10
9.709907336445099
 20
3.688052492545709
 10
9.708661522075484
 20
3.688968468909477
 10
9.707461488500112
 20
3.689976006861756
 10
9.70632562013244
 20
3.691075106402548
 10
9.70527230138592
 20
3.692265767531842
 10
9.704301532260516
 20
3.693575747109155
 10
9.703431336691
 20
3.694995312209719
 10
9.702671087123427
 20
3.696525183790929
 10
9.702203906734821
 20
3.697523709775831
 10
9.701800891553908
 20
3.69853124772811
 10
9.701452669134612
 20
3.699538785680395
 10
9.70115959995566
 20
3.700546323632674
 10
9.700756584774748
 20
3.702570771983299
 10
9.700573461597722
 20
3.704576475441796
 10
9.70060986994592
 20
3.706555142998172
 10
9.700839134395881
 20
3.708497041727667
 10
9.701260533990235
 20
3.710393159662903
 10
9.701544230723137
 20
3.71131814799405
 10
9.701874068728975
 20
3.712225112390445
 10
9.696020976159684
 20
3.712225112390445
 97
        0
 75
     0
 76
     1
 98
        0
  0
HATCH
  5
81
102
{ACAD_REACTORS
330
7F
102
}
330
1F
100
AcDbEntity
  8
XR$1$TB_1414_1
  6
AUSGEZOGEN
 62
     3
440
 33554687
370
    35
100
AcDbHatch
 10
0.0
 20
0.0
 30
0.0
210
0.0
220
0.0
230
1.0
  2
SOLID
 70
     1
 71
     0
 91
        1
 92
        3
 72
     0
 73
     1
 93
       24
 10
9.70858834490041
 20
3.69092839157372
 10
9.709797390443144
 20
3.689810907619491
 10
9.711125393955207
 20
3.688803369667208
 10
9.712563343469215
 20
3.687942546543762
 10
9.714111599463866
 20
3.687209693356999
 10
9.72102702274707
 20
3.687209693356999
 10
9.72102702274707
 20
3.712225112390445
 10
9.707461488500112
 20
3.712225112390445
 10
9.706902746523001
 20
3.711583820792197
 10
9.706426554167027
 20
3.710860340051508
 10
9.70560213939176
 20
3.709293699643422
 10
9.705226520591665
 20
3.708497041727667
 10
9.704896682585817
 20
3.707681638919769
 10
9.704621997820299
 20
3.706866596590573
 10
9.70439309384902
 20
3.706042181815314
 10
9.704072267810547
 20
3.704393352264784
 10
9.703934925427786
 20
3.702744522714253
 10
9.70397169425467
 20
3.701095693163716
 10
9.704173201845125
 20
3.699483632440075
 10
9.704539448199158
 20
3.697898968097237
 10
9.705061781828082
 20
3.696360445027354
 10
9.705739481774524
 20
3.694885726686464
 10
9.706554884582411
 20
3.693474813074576
 10
9.707507269294368
 20
3.692155821529894
 97
        0
 75
     0
 76
     1
 98
        0
  0
MTEXT
  5
82
330
1F
100
AcDbEntity
  8
XR$1$TB_1414_1
  6
AUSGEZOGEN
 62
     7
440
 33554687
370
    -3
100
AcDbMText
 10
9.602647
 20
4.970459
 30
0.0
 40
0.025
 41
0.405443
 46
0.0
 71
     7
 72
     5
  1
\W1.00;BAUKERAMIKFASSADE
  7
ARIAL
 73
     1
 44
1.0
  0
MTEXT
  5
83
330
1F
100
AcDbEntity
  8
XR$1$TB_1414_1
  6
AUSGEZOGEN
 62
     7
440
 33554687
370
    -3
100
AcDbMText
 10
9.60158
 20
4.912892
 30
0.0
 40
0.0175
 41
0.434598
 46
0.0
 71
     7
 72
     5
  1
\W1.00;FACADE CERAMIQUE DE BATIMENT
  7
ARIAL
 73
     1
 44
1.0
  0
MTEXT
  5
84
330
1F
100
AcDbEntity
  8
XR$1$TB_1414_1
  6
AUSGEZOGEN
 62
     7
440
 33554687
370
    -3
100
AcDbMText
 10
9.60158
 20
4.939142
 30
0.0
 40
0.0175
 41
0.457071
 46
0.0
 71
     7
 72
     5
  1
\W1.00;ARCHITECTURAL CERAMICS FACADE
  7
ARIAL
 73
     1
 44
1.0
  0
MTEXT
  5
85
330
1F
100
AcDbEntity
  8
XR$1$TB_1414_1
  6
AUSGEZOGEN
 62
     7
440
 33554687
370
    -3
100
AcDbMText
 10
9.600752
 20
4.852544
 30
0.0
 40
0.025
 41
0.329608
 46
0.0
 71
     7
 72
     5
  1
\W1.00;FENSTERLEIBUNG
  7
ARIAL
 73
     1
 44
1.0
  0
MTEXT
  5
86
330
1F
100
AcDbEntity
  8
XR$1$TB_1414_1
  6
AUSGEZOGEN
 62
     7
440
 33554687
370
    -3
100
AcDbMText
 10
9.600752
 20
4.797639
 30
0.0
 40
0.0175
 41
0.326106
 46
0.0
 71
     7
 72
     5
  1
\W1.00;EMBRASURE DE FENETRE
  7
ARIAL
 73
     1
 44
1.0
  0
MTEXT
  5
87
330
1F
100
AcDbEntity
  8
XR$1$TB_1414_1
  6
AUSGEZOGEN
 62
     7
440
 33554687
370
    -3
100
AcDbMText
 10
9.600202
 20
3.80549
 30
0.0
 40
0.0175
 41
0.743802
 46
0.0
 71
     7
 72
     5
  1
\W1.01;Die Verlegevorschriften des Klebemittelherstellers sind einzuhalten!
  7
ARIAL
 73
     1
 44
1.0
  0
MTEXT
  5
88
330
1F
100
AcDbEntity
  8
XR$1$TB_1414_1
  6
AUSGEZOGEN
 62
     7
440
 33554687
370
    -3
100
AcDbMText
 10
9.600202
 20
3.776102
 30
0.0
 40
0.0175
 41
0.766251
 46
0.0
 71
     7
 72
     5
  1
\W1.00;The laying instructions of the adhesive producer have to be observed!
  7
ARIAL
 73
     1
 44
1.0
  0
MTEXT
  5
89
330
1F
100
AcDbEntity
  8
XR$1$TB_1414_1
  6
AUSGEZOGEN
 62
     7
440
 33554687
370
    -3
100
AcDbMText
 10
9.600202
 20
3.746714
 30
0.0
 40
0.0175
 41
0.832461
 46
0.0
 71
     7
 72
     5
  1
\W1.01;Les instructions de pose du fabricant de l'adzhésive doivent être observées!
  7
ARIAL
 73
     1
 44
1.0
  0
MTEXT
  5
8A
330
1F
100
AcDbEntity
  8
XR$1$TB_1414_1
  6
AUSGEZOGEN
 62
     7
440
 33554687
370
    -3
100
AcDbMText
 10
9.600752
 20
4.823889
 30
0.0
 40
0.0175
 41
0.278267
 46
0.0
 71
     7
 72
     5
  1
\W1.00;WINDOW EMBRASURE
  7
ARIAL
 73
     1
 44
1.0
  0
LINE
  5
8B
330
1F
100
AcDbEntity
  8
XR$1$TB_1414_1
  6
AUSGEZOGEN
 62
     1
440
 33554687
370
    70
100
AcDbLine
 10
9.482575
 20
3.563845
 30
0.0
 11
10.532575
 21
3.563845
 31
0.0
  0
MTEXT
  5
8C
330
1F
100
AcDbEntity
  8
XR$1$TB_1414_1
  6
AUSGEZOGEN
 62
     7
440
 33554687
370
    -3
100
AcDbMText
 10
9.600383
 20
3.631224
 30
0.0
 40
0.009
 41
0.89646
 46
0.0
 71
     7
 72
     5
  1
\W0.85;THESE ARE NOT BINDING CONSTRUCTION PROPOSALS WHICH HAVE TO BE VERIFIED FOR EACH INDIVIDUAL PROJECT AS REGARDS APPLICABILITY AND CORRECTNESS.
  7
ARIAL
 73
     1
 44
1.0
  0
MTEXT
  5
8D
330
1F
100
AcDbEntity
  8
XR$1$TB_1414_1
  6
AUSGEZOGEN
 62
     7
440
 33554687
370
    -3
100
AcDbMText
 10
9.600383
 20
3.649223
 30
0.0
 40
0.009
 41
0.8975
 46
0.0
 71
     7
 72
     5
  1
\W0.91;DIES SIND UNVERBINDLICHE KONSTRUKTIONSVORSCHLÄGE, DIE FÜR JEDES PROJEKT AUF ANWENDBARKEIT UND RICHTIGKEIT GEPRÜFT WERDEN MÜSSEN.
  7
ARIAL
 73
     1
 44
1.0
  0
MTEXT
  5
8E
330
1F
100
AcDbEntity
  8
XR$1$TB_1414_1
  6
AUSGEZOGEN
 62
     7
440
 33554687
370
    -3
100
AcDbMText
 10
9.600383
 20
3.613224
 30
0.0
 40
0.009
 41
0.895804
 46
0.0
 71
     7
 72
     5
  1
\W0.80;IL S' AGIT DE PROPOSITIONS DE CONSTRUCTION SANS ENGAGEMENT DE NOTRE PART QUI DOIVENT ETRE VERIFIEES POUR CHAQUE PROJET A LEUR EXACTITUDE ET FAISABILITE.
  7
ARIAL
 73
     1
 44
1.0
  0
MTEXT
  5
8F
330
1F
100
AcDbEntity
  8
XR$1$TB_1414_1
  6
AUSGEZOGEN
 62
     7
440
 33554687
370
    -3
100
AcDbMText
 10
10.015044
 20
3.687152
 30
0.0
 40
0.009
 41
0.348436
 46
0.0
 71
     7
 72
     5
  1
\W0.92;Tel. 09435 / 391 3238   e-mail: as.fassade@deutsche-steinzeug.de
  7
ARIAL
 73
     1
 44
1.0
  0
LINE
  5
90
330
1F
100
AcDbEntity
  8
XR$1$TB_1414_1
  6
AUSGEZOGEN
 62
    52
440
 33554687
370
    70
100
AcDbLine
 10
9.482586
 20
5.04883
 30
0.0
 11
9.482586
 21
3.563845
 31
0.0
  0
LINE
  5
91
330
1F
100
AcDbEntity
  8
XR$1$TB_1414_1
  6
AUSGEZOGEN
 62
    52
440
 33554687
370
    70
100
AcDbLine
 10
10.532575
 20
3.563845
 30
0.0
 11
10.532575
 21
5.04883
 31
0.0
  0
LINE
  5
92
330
1F
100
AcDbEntity
  8
XR$1$TB_1414_1
  6
AUSGEZOGEN
 62
    52
440
 33554687
370
    70
100
AcDbLine
 10
10.532575
 20
5.04883
 30
0.0
 11
9.482586
 21
5.04883
 31
0.0
  0
MTEXT
  5
93
330
1F
100
AcDbEntity
  8
XR$1$TB_1414_1
  6
AUSGEZOGEN
 62
     7
440
 33554687
370
    -3
100
AcDbMText
 10
10.014592
 20
3.703394
 30
0.0
 40
0.009
 41
0.418059
 46
0.0
 71
     7
 72
     5
  1
\W1.00;AGROB BUCHTAL GmbH   Architektenservice   D - 92521 Schwarzenfeld
  7
ARIAL
 73
     1
 44
1.0
  0
HATCH
  5
95
330
1F
100
AcDbEntity
  8
XR$1$TB_1414_1
  6
AUSGEZOGEN
 62
    14
440
 33554687
370
    -3
100
AcDbHatch
 10
0.0
 20
0.0
 30
0.0
210
0.0
220
0.0
230
1.0
  2
_USER
 70
     0
 71
     0
 91
        1
 92
        0
 93
        4
 72
     1
 10
9.62853337834228
 20
4.041238948599216
 11
10.18316347230668
 21
4.041238948599216
 72
     1
 10
10.18316347230668
 20
4.041238948599216
 11
10.13816347230668
 21
4.086238948599216
 72
     1
 10
10.13816347230668
 20
4.086238948599216
 11
9.62853337834228
 21
4.086238948599216
 72
     1
 10
9.62853337834228
 20
4.086238948599216
 11
9.62853337834228
 21
4.041238948599216
 97
        0
 75
     0
 76
     0
 52
90.0
 41
0.06
 77
     1
 78
     2
 53
90.00000000000001
 43
0.0
 44
0.0
 45
-0.06
 46
0.0
 79
     0
 53
180.0
 43
0.0
 44
0.0
 45
0.0
 46
-0.06
 79
     0
 98
        0
1001
ACAD
1010
0.0
1020
0.0
1030
0.0
1001
NEM_ODX
1002
{
1000
BZM_DEPEND
1070
     1
1000
BZM_SCALE
1040
5.0
1000
MUSTER_415
1002
}
  0
HATCH
  5
96
330
1F
100
AcDbEntity
  8
XR$1$TB_1414_1
  6
AUSGEZOGEN
 62
    14
440
 33554687
370
    -3
100
AcDbHatch
 10
0.0
 20
0.0
 30
0.0
210
0.0
220
0.0
230
1.0
  2
_USER
 70
     0
 71
     0
 91
        1
 92
        0
 93
        7
 72
     1
 10
10.20437667574228
 20
4.416178813299216
 11
10.15937667574228
 21
4.41617882116752
 72
     1
 10
10.15937667574228
 20
4.41617882116752
 11
10.15937667574228
 21
4.107452152034812
 72
     1
 10
10.15937667574228
 20
4.107452152034812
 11
10.1971993403488
 21
4.069629487428289
 72
     1
 10
10.1971993403488
 20
4.069629487428289
 11
10.20349093284676
 21
4.063337885157018
 72
     1
 10
10.20349093284676
 20
4.063337885157018
 11
10.20417667574228
 21
4.062652152034811
 72
     1
 10
10.20417667574228
 20
4.062652152034811
 11
10.20437667574228
 21
4.06256776777908
 72
     1
 10
10.20437667574228
 20
4.06256776777908
 11
10.20437667574228
 21
4.416178813299216
 97
        0
 75
     0
 76
     0
 52
90.0
 41
0.06
 77
     1
 78
     2
 53
90.00000000000001
 43
0.0
 44
0.0
 45
-0.06
 46
0.0
 79
     0
 53
180.0
 43
0.0
 44
0.0
 45
0.0
 46
-0.06
 79
     0
 98
        0
1001
ACAD
1010
0.0
1020
0.0
1030
0.0
1001
NEM_ODX
1002
{
1000
BZM_DEPEND
1070
     1
1000
BZM_SCALE
1040
5.0
1000
MUSTER_415
1002
}
  0
HATCH
  5
97
330
1F
100
AcDbEntity
  8
XR$1$TB_1414_1
  6
AUSGEZOGEN
 62
     7
440
 33554687
370
    -3
100
AcDbHatch
 10
0.0
 20
0.0
 30
0.0
210
0.0
220
0.0
230
1.0
  2
SCHRAFFUR_12
 70
     0
 71
     0
 91
        1
 92
        0
 93
       89
 72
     1
 10
10.23669923072118
 20
4.058655647794433
 11
10.23599975519893
 21
4.058414404660726
 72
     1
 10
10.23599975519893
 20
4.058414404660726
 11
10.23587734216006
 21
4.058271077407276
 72
     1
 10
10.23587734216006
 20
4.058271077407276
 11
10.23575048750681
 21
4.058131665963646
 72
     1
 10
10.23575048750681
 20
4.058131665963646
 11
10.2356193164294
 21
4.057996307912099
 72
     1
 10
10.2356193164294
 20
4.057996307912099
 11
10.23548395837785
 21
4.057865136834688
 72
     1
 10
10.23548395837785
 20
4.057865136834689
 11
10.23534454693422
 21
4.057738282181435
 72
     1
 10
10.23534454693422
 20
4.057738282181434
 11
10.23520121968077
 21
4.057615869142563
 72
     1
 10
10.23520121968077
 20
4.057615869142563
 11
10.23505411806419
 21
4.057498018524965
 72
     1
 10
10.2350541180642
 20
4.057498018524965
 11
10.23490338725603
 21
4.057384846632968
 72
     1
 10
10.23490338725603
 20
4.057384846632968
 11
10.23474917600939
 21
4.057276465153571
 72
     1
 10
10.23474917600939
 20
4.057276465153571
 11
10.23459163651215
 21
4.057172981046206
 72
     1
 10
10.23459163651215
 20
4.057172981046206
 11
10.23443092423678
 21
4.057074496437195
 72
     1
 10
10.23443092423678
 20
4.057074496437195
 11
10.23426719778689
 21
4.056981108518955
 72
     1
 10
10.23426719778689
 20
4.056981108518955
 11
10.23410061874072
 21
4.056892909454088
 72
     1
 10
10.23410061874072
 20
4.056892909454088
 11
10.23394160101783
 21
4.056814821173464
 72
     1
 10
10.23394160101783
 20
4.056814821173464
 11
10.23393135149167
 21
4.056809986284422
 72
     1
 10
10.23393135149167
 20
4.056809986284422
 11
10.23375956308609
 21
4.056732420845115
 72
     1
 10
10.23375956308609
 20
4.056732420845115
 11
10.23358542305839
 21
4.056660289683888
 72
     1
 10
10.23358542305839
 20
4.056660289683888
 11
10.23340910326375
 21
4.056593663985493
 72
     1
 10
10.23340910326375
 20
4.056593663985493
 11
10.23323077770853
 21
4.056532609501447
 72
     1
 10
10.23323077770853
 20
4.056532609501447
 11
10.23305062237851
 21
4.056477186485156
 72
     1
 10
10.23305062237851
 20
4.056477186485156
 11
10.23286881506527
 21
4.056427449632446
 72
     1
 10
10.23286881506527
 20
4.056427449632445
 11
10.23268553519066
 21
4.056383448027585
 72
     1
 10
10.23268553519066
 20
4.056383448027586
 11
10.23250096362979
 21
4.056345225094846
 72
     1
 10
10.23250096362979
 20
4.056345225094846
 11
10.23231528253252
 21
4.056312818555647
 72
     1
 10
10.23231528253252
 20
4.056312818555647
 11
10.23212867514367
 21
4.056286260391331
 72
     1
 10
10.23212867514366
 20
4.056286260391331
 11
10.23194132562219
 21
4.056265576811599
 72
     1
 10
10.23194132562219
 20
4.056265576811599
 11
10.23175341885945
 21
4.056250788228649
 72
     1
 10
10.23175341885945
 20
4.056250788228648
 11
10.23156514029675
 21
4.056241909237023
 72
     1
 10
10.23156514029675
 20
4.056241909237023
 11
10.23137667574228
 21
4.056238948599217
 72
     1
 10
10.23137667574228
 20
4.056238948599218
 11
10.21937667574228
 21
4.056238948599218
 72
     1
 10
10.21937667574228
 20
4.056238948599218
 11
10.21983678541089
 21
4.055623463511178
 72
     1
 10
10.21983678541089
 20
4.055623463511178
 11
10.22027739941825
 21
4.054993874679268
 72
     1
 10
10.22027739941826
 20
4.054993874679269
 11
10.2206980857507
 21
4.05435079940339
 72
     1
 10
10.2206980857507
 20
4.05435079940339
 11
10.22109843193325
 21
4.053694868206645
 72
     1
 10
10.22109843193325
 20
4.053694868206645
 11
10.22147804543409
 21
4.053026724217125
 72
     1
 10
10.22147804543409
 20
4.053026724217124
 11
10.22183655404937
 21
4.052347022537327
 72
     1
 10
10.22183655404937
 20
4.052347022537327
 11
10.22217360626821
 21
4.051656429601852
 72
     1
 10
10.22217360626821
 20
4.051656429601853
 11
10.22248887161729
 21
4.050955622523966
 72
     1
 10
10.22248887161729
 20
4.050955622523966
 11
10.22278204098494
 21
4.050245288431707
 72
     1
 10
10.22278204098494
 20
4.050245288431707
 11
10.22305282692414
 21
4.049526123794172
 72
     1
 10
10.22305282692414
 20
4.049526123794172
 11
10.22330096393443
 21
4.04879883373864
 72
     1
 10
10.22330096393443
 20
4.04879883373864
 11
10.22352620872217
 21
4.048064131359206
 72
     1
 10
10.22352620872217
 20
4.048064131359206
 11
10.22372834043912
 21
4.04732273701761
 72
     1
 10
10.22372834043912
 20
4.047322737017609
 11
10.22390716089898
 21
4.046575377636931
 72
     1
 10
10.22390716089898
 20
4.046575377636931
 11
10.22406249477167
 21
4.045822785988861
 72
     1
 10
10.22406249477167
 20
4.045822785988861
 11
10.22419418975528
 21
4.045065699975226
 72
     1
 10
10.22419418975528
 20
4.045065699975226
 11
10.22430211672538
 21
4.044304861904495
 72
     1
 10
10.22430211672538
 20
4.044304861904495
 11
10.22438616986163
 21
4.043541017763956
 72
     1
 10
10.22438616986163
 20
4.043541017763955
 11
10.22444626675151
 21
4.042774916488288
 72
     1
 10
10.22444626675151
 20
4.042774916488289
 11
10.22448234847118
 21
4.04200730922526
 72
     1
 10
10.22448234847117
 20
4.04200730922526
 11
10.22449437964317
 21
4.041238948599218
 72
     1
 10
10.22449437964317
 20
4.041238948599218
 11
10.22448234847117
 21
4.040470587973176
 72
     1
 10
10.22448234847117
 20
4.040470587973176
 11
10.22444626675151
 21
4.039702980710146
 72
     1
 10
10.22444626675151
 20
4.039702980710146
 11
10.22438616986163
 21
4.03893687943448
 72
     1
 10
10.22438616986163
 20
4.038936879434481
 11
10.22430211672538
 21
4.038173035293942
 72
     1
 10
10.22430211672538
 20
4.038173035293942
 11
10.22419418975528
 21
4.03741219722321
 72
     1
 10
10.22419418975528
 20
4.037412197223209
 11
10.22406249477167
 21
4.036655111209575
 72
     1
 10
10.22406249477167
 20
4.036655111209575
 11
10.22390716089897
 21
4.035902519561505
 72
     1
 10
10.22390716089898
 20
4.035902519561505
 11
10.22372834043912
 21
4.035155160180826
 72
     1
 10
10.22372834043912
 20
4.035155160180826
 11
10.22352620872216
 21
4.034413765839231
 72
     1
 10
10.22352620872217
 20
4.03441376583923
 11
10.22330096393443
 21
4.033679063459797
 72
     1
 10
10.22330096393443
 20
4.033679063459797
 11
10.22305282692414
 21
4.032951773404264
 72
     1
 10
10.22305282692414
 20
4.032951773404264
 11
10.22278204098494
 21
4.032232608766729
 72
     1
 10
10.22278204098494
 20
4.032232608766729
 11
10.22248887161729
 21
4.031522274674471
 72
     1
 10
10.22248887161729
 20
4.031522274674471
 11
10.22217360626821
 21
4.030821467596584
 72
     1
 10
10.22217360626821
 20
4.030821467596584
 11
10.22183655404937
 21
4.030130874661109
 72
     1
 10
10.22183655404937
 20
4.030130874661108
 11
10.22147804543409
 21
4.029451172981311
 72
     1
 10
10.22147804543409
 20
4.029451172981311
 11
10.22109843193325
 21
4.028783028991791
 72
     1
 10
10.22109843193325
 20
4.028783028991791
 11
10.2206980857507
 21
4.028127097795046
 72
     1
 10
10.2206980857507
 20
4.028127097795046
 11
10.22027739941826
 21
4.027484022519166
 72
     1
 10
10.22027739941826
 20
4.027484022519166
 11
10.21983678541089
 21
4.026854433687257
 72
     1
 10
10.21983678541089
 20
4.026854433687258
 11
10.21937667574228
 21
4.026238948599218
 72
     1
 10
10.21937667574228
 20
4.026238948599218
 11
10.23737667574228
 21
4.026238948599219
 72
     1
 10
10.23737667574228
 20
4.026238948599218
 11
10.23685724216489
 21
4.0283577611415
 72
     1
 10
10.23685724216489
 20
4.0283577611415
 11
10.23640449806941
 21
4.030491818454378
 72
     1
 10
10.23640449806941
 20
4.030491818454378
 11
10.23601888865723
 21
4.03263902203389
 72
     1
 10
10.23601888865723
 20
4.03263902203389
 11
10.2357007931135
 21
4.034797260448826
 72
     1
 10
10.2357007931135
 20
4.034797260448825
 11
10.23545052423431
 21
4.036964411416974
 72
     1
 10
10.23545052423431
 20
4.036964411416974
 11
10.23526832811907
 21
4.039138343892059
 72
     1
 10
10.23526832811907
 20
4.039138343892059
 11
10.2351543839285
 21
4.041316920159274
 72
     1
 10
10.2351543839285
 20
4.041316920159273
 11
10.23510880370848
 21
4.043497997937388
 72
     1
 10
10.23510880370848
 20
4.043497997937388
 11
10.23513163227988
 21
4.045679432485334
 72
     1
 10
10.23513163227988
 20
4.045679432485334
 11
10.23522284719444
 21
4.047859078711215
 72
     1
 10
10.23522284719445
 20
4.047859078711215
 11
10.2353823587569
 21
4.050034793281669
 72
     1
 10
10.2353823587569
 20
4.050034793281669
 11
10.23561001011313
 21
4.052204436729483
 72
     1
 10
10.23561001011313
 20
4.052204436729483
 11
10.23590557740447
 21
4.054365875557425
 72
     1
 10
10.23590557740447
 20
4.054365875557425
 11
10.23626876998775
 21
4.056516984336192
 72
     1
 10
10.23626876998775
 20
4.056516984336192
 11
10.23669923072118
 21
4.058655647794434
 97
        0
 75
     0
 76
     2
 52
90.0
 41
0.001
 77
     0
 78
     2
 53
135.0
 43
0.0
 44
0.0
 45
-0.0017677669529664
 46
-0.0017677669529664
 79
     0
 53
225.0
 43
0.0
 44
0.0
 45
0.0017677669529664
 46
-0.0017677669529664
 79
     0
 98
        0
1001
ACAD
1010
0.0
1020
0.0
1030
0.0
1001
NEM_ODX
1002
{
1000
BZM_DEPEND
1070
     0
1000
SCHRAFFUR_12
1002
}
  0
HATCH
  5
98
330
1F
100
AcDbEntity
  8
XR$1$TB_1414_1
  6
AUSGEZOGEN
 62
     7
440
 33554687
370
    -3
100
AcDbHatch
 10
0.0
 20
0.0
 30
0.0
210
0.0
220
0.0
230
1.0
  2
SCHRAFFUR_304
 70
     0
 71
     0
 91
        1
 92
        0
 93
      138
 72
     1
 10
10.21937667574228
 20
4.056238948599218
 11
10.20437667574228
 21
4.056238948599218
 72
     1
 10
10.20437667574228
 20
4.056238948599218
 11
10.20437667574228
 21
4.056253410140709
 72
     1
 10
10.20437667574228
 20
4.056253410140708
 11
10.20417667574228
 21
4.056252269677081
 72
     1
 10
10.20417667574228
 20
4.056252269677081
 11
10.20408418796752
 21
4.056250840407119
 72
     1
 10
10.20408418796752
 20
4.056250840407119
 11
10.20361602160014
 21
4.056234845856134
 72
     1
 10
10.20361602160014
 20
4.056234845856134
 11
10.20314858296464
 21
4.056204240378916
 72
     1
 10
10.20314858296464
 20
4.056204240378917
 11
10.20268232793951
 21
4.056159053824048
 72
     1
 10
10.20268232793951
 20
4.056159053824047
 11
10.20221771124893
 21
4.056099330260578
 72
     1
 10
10.20221771124893
 20
4.056099330260578
 11
10.20175518601925
 21
4.056025127935066
 72
     1
 10
10.20175518601925
 20
4.056025127935066
 11
10.20129520333709
 21
4.055936519214754
 72
     1
 10
10.20129520333709
 20
4.055936519214754
 11
10.2008382118094
 21
4.055833590516997
 72
     1
 10
10.2008382118094
 20
4.055833590516997
 11
10.20038465712596
 21
4.055716442224989
 72
     1
 10
10.20038465712596
 20
4.055716442224989
 11
10.19993498162466
 21
4.055585188589848
 72
     1
 10
10.19993498162466
 20
4.055585188589847
 11
10.1994896238602
 21
4.055439957619206
 72
     1
 10
10.1994896238602
 20
4.055439957619206
 11
10.19904901817629
 21
4.055280890952357
 72
     1
 10
10.19904901817629
 20
4.055280890952357
 11
10.19861359428208
 21
4.055108143722126
 72
     1
 10
10.19861359428208
 20
4.055108143722126
 11
10.1981837768331
 21
4.054921884403567
 72
     1
 10
10.1981837768331
 20
4.054921884403567
 11
10.19775998501707
 21
4.054722294649659
 72
     1
 10
10.19775998501707
 20
4.054722294649659
 11
10.1973426321451
 21
4.054509569114146
 72
     1
 10
10.1973426321451
 20
4.054509569114146
 11
10.1969321252486
 21
4.054283915261691
 72
     1
 10
10.1969321252486
 20
4.054283915261691
 11
10.19652886468231
 21
4.054045553165553
 72
     1
 10
10.19652886468231
 20
4.054045553165553
 11
10.19613324373385
 21
4.053794715292943
 72
     1
 10
10.19613324373385
 20
4.053794715292943
 11
10.19574564824014
 21
4.053531646278317
 72
     1
 10
10.19574564824014
 20
4.053531646278317
 11
10.19536645621113
 21
4.053256602684787
 72
     1
 10
10.19536645621114
 20
4.053256602684788
 11
10.19499603746116
 21
4.052969852753902
 72
     1
 10
10.19499603746116
 20
4.052969852753902
 11
10.1946347532482
 21
4.052671676144041
 72
     1
 10
10.1946347532482
 20
4.052671676144041
 11
10.19428295592164
 21
4.052362363657673
 72
     1
 10
10.19428295592164
 20
4.052362363657673
 11
10.19394098857857
 21
4.052042216957742
 72
     1
 10
10.19394098857857
 20
4.052042216957742
 11
10.19360918472922
 21
4.051711548273471
 72
     1
 10
10.19360918472922
 20
4.051711548273471
 11
10.19328786797167
 21
4.051370680095846
 72
     1
 10
10.19328786797167
 20
4.051370680095846
 11
10.19297735167626
 21
4.051019944863105
 72
     1
 10
10.19297735167626
 20
4.051019944863105
 11
10.19267793867998
 21
4.050659684636528
 72
     1
 10
10.19267793867998
 20
4.050659684636529
 11
10.19238992099109
 21
4.050290250766818
 72
     1
 10
10.19238992099109
 20
4.050290250766818
 11
10.19211357950439
 21
4.04991200355146
 72
     1
 10
10.19211357950439
 20
4.04991200355146
 11
10.19184918372722
 21
4.049525311883313
 72
     1
 10
10.19184918372722
 20
4.049525311883314
 11
10.19159699151664
 21
4.049130552890859
 72
     1
 10
10.19159699151664
 20
4.049130552890858
 11
10.19135724882795
 21
4.04872811157039
 72
     1
 10
10.19135724882795
 20
4.04872811157039
 11
10.19113018947482
 21
4.048318380410537
 72
     1
 10
10.19113018947482
 20
4.048318380410537
 11
10.19110394618279
 21
4.048269007912975
 72
     1
 10
10.19110394618279
 20
4.048269007912974
 11
10.19091603490124
 21
4.047901759009485
 72
     1
 10
10.19091603490124
 20
4.047901759009486
 11
10.19071499396557
 21
4.047478653685262
 72
     1
 10
10.19071499396557
 20
4.047478653685261
 11
10.19052726273686
 21
4.047049477079463
 72
     1
 10
10.19052726273685
 20
4.047049477079464
 11
10.19035302430357
 21
4.046614647754823
 72
     1
 10
10.19035302430357
 20
4.046614647754822
 11
10.19019244859511
 21
4.046174589786991
 72
     1
 10
10.19019244859511
 20
4.046174589786991
 11
10.19004569221602
 21
4.045729732350959
 72
     1
 10
10.19004569221602
 20
4.045729732350959
 11
10.18991289829326
 21
4.045280509302487
 72
     1
 10
10.18991289829326
 20
4.045280509302487
 11
10.18979419633667
 21
4.044827358754985
 72
     1
 10
10.18979419633667
 20
4.044827358754985
 11
10.1896897021126
 21
4.044370722652233
 72
     1
 10
10.1896897021126
 20
4.044370722652233
 11
10.18959951753107
 21
4.043911046337362
 72
     1
 10
10.18959951753107
 20
4.043911046337362
 11
10.18952373054631
 21
4.043448778118531
 72
     1
 10
10.18952373054631
 20
4.043448778118531
 11
10.18946241507104
 21
4.042984368831703
 72
     1
 10
10.18946241507104
 20
4.042984368831702
 11
10.18941563090436
 21
4.042518271400957
 72
     1
 10
10.18941563090436
 20
4.042518271400957
 11
10.18938342367342
 21
4.04205094039677
 72
     1
 10
10.18938342367341
 20
4.04205094039677
 11
10.18936582478893
 21
4.041582831592682
 72
     1
 10
10.18936582478893
 20
4.041582831592682
 11
10.18936335466441
 21
4.041438948599218
 72
     1
 10
10.18936335466441
 20
4.041438948599218
 11
10.18936221420079
 21
4.041238948599218
 72
     1
 10
10.18936221420079
 20
4.041238948599218
 11
10.1893625904786
 21
4.041146190603077
 72
     1
 10
10.1893625904786
 20
4.041146190603077
 11
10.18938276420153
 21
4.040468377775048
 72
     1
 10
10.18938276420153
 20
4.040468377775048
 11
10.18944437879233
 21
4.039685490169627
 72
     1
 10
10.18944437879233
 20
4.039685490169627
 11
10.18954688211393
 21
4.03890690014304
 72
     1
 10
10.18954688211392
 20
4.03890690014304
 11
10.18968999321184
 21
4.038134741756371
 72
     1
 10
10.18968999321184
 20
4.038134741756371
 11
10.18987331982852
 21
4.037371131442109
 72
     1
 10
10.18987331982852
 20
4.037371131442109
 11
10.19009635947842
 21
4.036618162203028
 72
     1
 10
10.19009635947842
 20
4.036618162203028
 11
10.19035850082539
 21
4.035877897875468
 72
     1
 10
10.19035850082539
 20
4.035877897875468
 11
10.19065902535821
 21
4.03515236747251
 72
     1
 10
10.19065902535821
 20
4.03515236747251
 11
10.19089454334732
 21
4.034648719567979
 72
     1
 10
10.19089454334732
 20
4.034648719567979
 11
10.19137182616609
 21
4.033753417118646
 72
     1
 10
10.19137182616608
 20
4.033753417118646
 11
10.19178214870367
 21
4.033083831593424
 72
     1
 10
10.19178214870367
 20
4.033083831593425
 11
10.19222695230723
 21
4.032436638334249
 72
     1
 10
10.19222695230723
 20
4.032436638334248
 11
10.19270501780099
 21
4.031813611252905
 72
     1
 10
10.19270501780099
 20
4.031813611252905
 11
10.19321503484068
 21
4.031216458023271
 72
     1
 10
10.19321503484068
 20
4.031216458023271
 11
10.19375560550505
 21
4.030646815400845
 72
     1
 10
10.19375560550505
 20
4.030646815400845
 11
10.19432524812748
 21
4.030106244736476
 72
     1
 10
10.19432524812748
 20
4.030106244736476
 11
10.19492240135712
 21
4.029596227696781
 72
     1
 10
10.19492240135711
 20
4.029596227696782
 11
10.19554542843845
 21
4.029118162203031
 72
     1
 10
10.19554542843845
 20
4.02911816220303
 11
10.19619262169763
 21
4.028673358599459
 72
     1
 10
10.19619262169763
 20
4.028673358599459
 11
10.19686220722285
 21
4.02826303606188
 72
     1
 10
10.19686220722285
 20
4.02826303606188
 11
10.19755234972675
 21
4.027888319255823
 72
     1
 10
10.19755234972675
 20
4.027888319255823
 11
10.19797797790683
 21
4.027679853988777
 72
     1
 10
10.19797797790683
 20
4.027679853988777
 11
10.19801075963863
 21
4.027664483621683
 72
     1
 10
10.19801075963863
 20
4.027664483621683
 11
10.19843817797503
 21
4.027472782972463
 72
     1
 10
10.19843817797503
 20
4.027472782972463
 11
10.19887137383477
 21
4.02729452215148
 72
     1
 10
10.19887137383477
 20
4.027294522151481
 11
10.19930992473528
 21
4.027129875011022
 72
     1
 10
10.19930992473528
 20
4.027129875011022
 11
10.19975340297136
 21
4.026979002126377
 72
     1
 10
10.19975340297136
 20
4.026979002126377
 11
10.20020137603235
 21
4.026842050639226
 72
     1
 10
10.20020137603235
 20
4.026842050639226
 11
10.2006534070239
 21
4.026719154114136
 72
     1
 10
10.2006534070239
 20
4.026719154114137
 11
10.2011090550941
 21
4.026610432408306
 72
     1
 10
10.2011090550941
 20
4.026610432408306
 11
10.20156787586343
 21
4.026515991554669
 72
     1
 10
10.20156787586343
 20
4.026515991554669
 11
10.2020294218581
 21
4.026435923658481
 72
     1
 10
10.2020294218581
 20
4.026435923658481
 11
10.20249324294652
 21
4.026370306807496
 72
     1
 10
10.20249324294652
 20
4.026370306807496
 11
10.20295888677827
 21
4.026319204995811
 72
     1
 10
10.20295888677827
 20
4.026319204995811
 11
10.20342589922524
 21
4.026282668061445
 72
     1
 10
10.20342589922524
 20
4.026282668061445
 11
10.20389382482458
 21
4.026260731637751
 72
     1
 10
10.20389382482458
 20
4.026260731637752
 11
10.20436220722285
 21
4.026253417118645
 72
     1
 10
10.20436220722285
 20
4.026253417118644
 11
10.20436220722285
 21
4.026238948599217
 72
     1
 10
10.20436220722285
 20
4.026238948599218
 11
10.21937667574228
 21
4.026238948599218
 72
     1
 10
10.21937667574228
 20
4.026238948599218
 11
10.21983678541088
 21
4.026854433687246
 72
     1
 10
10.21983678541088
 20
4.026854433687246
 11
10.22027739941826
 21
4.027484022519178
 72
     1
 10
10.22027739941826
 20
4.027484022519178
 11
10.22069808575069
 21
4.028127097795037
 72
     1
 10
10.22069808575069
 20
4.028127097795037
 11
10.22109843193325
 21
4.028783028991794
 72
     1
 10
10.22109843193325
 20
4.028783028991793
 11
10.22147804543409
 21
4.029451172981305
 72
     1
 10
10.22147804543409
 20
4.029451172981305
 11
10.22183655404937
 21
4.030130874661112
 72
     1
 10
10.22183655404937
 20
4.030130874661112
 11
10.2221736062682
 21
4.03082146759657
 72
     1
 10
10.2221736062682
 20
4.03082146759657
 11
10.2224888716173
 21
4.031522274674483
 72
     1
 10
10.2224888716173
 20
4.031522274674483
 11
10.22278204098494
 21
4.032232608766726
 72
     1
 10
10.22278204098494
 20
4.032232608766726
 11
10.22305282692414
 21
4.032951773404262
 72
     1
 10
10.22305282692414
 20
4.032951773404262
 11
10.22330096393442
 21
4.033679063459791
 72
     1
 10
10.22330096393442
 20
4.033679063459791
 11
10.22352620872216
 21
4.03441376583922
 72
     1
 10
10.22352620872216
 20
4.03441376583922
 11
10.22372834043912
 21
4.035155160180816
 72
     1
 10
10.22372834043912
 20
4.035155160180816
 11
10.22390716089898
 21
4.0359025195615
 72
     1
 10
10.22390716089898
 20
4.0359025195615
 11
10.22406249477167
 21
4.036655111209572
 72
     1
 10
10.22406249477167
 20
4.036655111209572
 11
10.22419418975528
 21
4.037412197223202
 72
     1
 10
10.22419418975528
 20
4.037412197223202
 11
10.22430211672538
 21
4.03817303529394
 72
     1
 10
10.22430211672538
 20
4.03817303529394
 11
10.22438616986162
 21
4.038936879434434
 72
     1
 10
10.22438616986162
 20
4.038936879434433
 11
10.22444626675152
 21
4.039702980710171
 72
     1
 10
10.22444626675152
 20
4.039702980710172
 11
10.22448234847118
 21
4.040470587973165
 72
     1
 10
10.22448234847117
 20
4.040470587973165
 11
10.22449437964317
 21
4.041238948599235
 72
     1
 10
10.22449437964317
 20
4.041238948599235
 11
10.22448234847117
 21
4.04200730922527
 72
     1
 10
10.22448234847117
 20
4.042007309225269
 11
10.22444626675152
 21
4.042774916488244
 72
     1
 10
10.22444626675152
 20
4.042774916488244
 11
10.22438616986162
 21
4.043541017763987
 72
     1
 10
10.22438616986162
 20
4.043541017763987
 11
10.22430211672538
 21
4.044304861904475
 72
     1
 10
10.22430211672538
 20
4.044304861904475
 11
10.22419418975528
 21
4.045065699975233
 72
     1
 10
10.22419418975528
 20
4.045065699975233
 11
10.22406249477167
 21
4.045822785988864
 72
     1
 10
10.22406249477167
 20
4.045822785988864
 11
10.22390716089897
 21
4.046575377636923
 72
     1
 10
10.22390716089898
 20
4.046575377636923
 11
10.22372834043912
 21
4.047322737017598
 72
     1
 10
10.22372834043912
 20
4.047322737017598
 11
10.22352620872217
 21
4.048064131359193
 72
     1
 10
10.22352620872217
 20
4.048064131359193
 11
10.22330096393443
 21
4.048798833738637
 72
     1
 10
10.22330096393443
 20
4.048798833738637
 11
10.22305282692414
 21
4.049526123794174
 72
     1
 10
10.22305282692414
 20
4.049526123794174
 11
10.22278204098494
 21
4.05024528843171
 72
     1
 10
10.22278204098494
 20
4.05024528843171
 11
10.2224888716173
 21
4.050955622523952
 72
     1
 10
10.2224888716173
 20
4.050955622523952
 11
10.22217360626821
 21
4.051656429601838
 72
     1
 10
10.22217360626821
 20
4.051656429601838
 11
10.22183655404937
 21
4.052347022537324
 72
     1
 10
10.22183655404937
 20
4.052347022537324
 11
10.22147804543409
 21
4.053026724217116
 72
     1
 10
10.22147804543409
 20
4.053026724217116
 11
10.22109843193325
 21
4.053694868206646
 72
     1
 10
10.22109843193325
 20
4.053694868206646
 11
10.22069808575069
 21
4.0543507994034
 72
     1
 10
10.22069808575069
 20
4.0543507994034
 11
10.22027739941826
 21
4.054993874679258
 72
     1
 10
10.22027739941826
 20
4.054993874679258
 11
10.2198367854109
 21
4.055623463511168
 72
     1
 10
10.2198367854109
 20
4.055623463511168
 11
10.21937667574228
 21
4.056238948599218
 97
        0
 75
     0
 76
     2
 52
90.0
 41
0.005
 77
     0
 78
     2
 53
135.0
 43
0.0
 44
0.0
 45
-0.0053033008588991
 46
-0.0053033008588991
 79
     0
 53
225.0
 43
0.0
 44
0.0
 45
0.0053033008588991
 46
-0.0053033008588991
 79
     0
 98
        0
1001
ACAD
1010
0.0
1020
0.0
1030
0.0
1001
NEM_ODX
1002
{
1000
BZM_DEPEND
1070
     1
1000
BZM_SCALE
1040
5.0
1000
SCHRAFFUR_304
1002
}
  0
HATCH
  5
99
330
1F
100
AcDbEntity
  8
XR$1$TB_1414_1
  6
AUSGEZOGEN
 62
     7
440
 33554687
370
    -3
100
AcDbHatch
 10
0.0
 20
0.0
 30
0.0
210
0.0
220
0.0
230
1.0
  2
SCHRAFFUR_12
 70
     0
 71
     0
 91
        1
 92
        0
 93
       59
 72
     1
 10
10.22027739941826
 20
4.44493373937927
 11
10.2206980857507
 21
4.44429066410339
 72
     1
 10
10.2206980857507
 20
4.44429066410339
 11
10.22109843193325
 21
4.443634732906645
 72
     1
 10
10.22109843193325
 20
4.443634732906645
 11
10.22147804543409
 21
4.442966588917124
 72
     1
 10
10.22147804543409
 20
4.442966588917124
 11
10.22183655404937
 21
4.442286887237327
 72
     1
 10
10.22183655404937
 20
4.442286887237327
 11
10.22217360626821
 21
4.441596294301852
 72
     1
 10
10.22217360626821
 20
4.441596294301852
 11
10.22248887161729
 21
4.440895487223965
 72
     1
 10
10.22248887161729
 20
4.440895487223965
 11
10.22278204098494
 21
4.440185153131707
 72
     1
 10
10.22278204098494
 20
4.440185153131707
 11
10.22305282692414
 21
4.439465988494171
 72
     1
 10
10.22305282692414
 20
4.439465988494171
 11
10.22330096393443
 21
4.438738698438639
 72
     1
 10
10.22330096393443
 20
4.438738698438639
 11
10.22352620872217
 21
4.438003996059206
 72
     1
 10
10.22352620872217
 20
4.438003996059206
 11
10.22372834043912
 21
4.437262601717609
 72
     1
 10
10.22372834043912
 20
4.437262601717608
 11
10.22390716089898
 21
4.43651524233693
 72
     1
 10
10.22390716089898
 20
4.43651524233693
 11
10.22406249477167
 21
4.435762650688861
 72
     1
 10
10.22406249477167
 20
4.435762650688861
 11
10.22419418975528
 21
4.435005564675227
 72
     1
 10
10.22419418975528
 20
4.435005564675226
 11
10.22430211672538
 21
4.434244726604494
 72
     1
 10
10.22430211672538
 20
4.434244726604494
 11
10.22438616986163
 21
4.433480882463955
 72
     1
 10
10.22438616986163
 20
4.433480882463955
 11
10.22444626675151
 21
4.432714781188288
 72
     1
 10
10.22444626675151
 20
4.432714781188289
 11
10.22448234847118
 21
4.431947173925259
 72
     1
 10
10.22448234847117
 20
4.431947173925258
 11
10.22449437964317
 21
4.431178813299217
 72
     1
 10
10.22449437964317
 20
4.431178813299218
 11
10.22448234847117
 21
4.430410452673176
 72
     1
 10
10.22448234847117
 20
4.430410452673176
 11
10.22444626675151
 21
4.429642845410147
 72
     1
 10
10.22444626675151
 20
4.429642845410146
 11
10.22438616986163
 21
4.42887674413448
 72
     1
 10
10.22438616986163
 20
4.428876744134481
 11
10.22430211672538
 21
4.42811289999394
 72
     1
 10
10.22430211672538
 20
4.42811289999394
 11
10.22419418975528
 21
4.42735206192321
 72
     1
 10
10.22419418975528
 20
4.42735206192321
 11
10.22406249477167
 21
4.426594975909575
 72
     1
 10
10.22406249477167
 20
4.426594975909575
 11
10.22390716089897
 21
4.425842384261506
 72
     1
 10
10.22390716089898
 20
4.425842384261505
 11
10.22372834043912
 21
4.425095024880826
 72
     1
 10
10.22372834043912
 20
4.425095024880826
 11
10.22352620872216
 21
4.424353630539231
 72
     1
 10
10.22352620872217
 20
4.42435363053923
 11
10.22330096393443
 21
4.423618928159796
 72
     1
 10
10.22330096393443
 20
4.423618928159796
 11
10.22305282692414
 21
4.422891638104264
 72
     1
 10
10.22305282692414
 20
4.422891638104264
 11
10.22278204098494
 21
4.422172473466729
 72
     1
 10
10.22278204098494
 20
4.422172473466729
 11
10.22248887161729
 21
4.42146213937447
 72
     1
 10
10.22248887161729
 20
4.42146213937447
 11
10.22217360626821
 21
4.420761332296584
 72
     1
 10
10.22217360626821
 20
4.420761332296584
 11
10.22183655404937
 21
4.420070739361108
 72
     1
 10
10.22183655404937
 20
4.420070739361108
 11
10.22147804543409
 21
4.419391037681311
 72
     1
 10
10.22147804543409
 20
4.419391037681311
 11
10.22109843193325
 21
4.418722893691791
 72
     1
 10
10.22109843193325
 20
4.418722893691791
 11
10.2206980857507
 21
4.418066962495046
 72
     1
 10
10.2206980857507
 20
4.418066962495046
 11
10.22027739941826
 21
4.417423887219167
 72
     1
 10
10.22027739941826
 20
4.417423887219167
 11
10.21983678541089
 21
4.416794298387257
 72
     1
 10
10.21983678541089
 20
4.416794298387257
 11
10.21937667574228
 21
4.416178813299218
 72
     1
 10
10.21937667574228
 20
4.416178813299218
 11
10.23737667574228
 21
4.416178813299218
 72
     1
 10
10.23737667574228
 20
4.416178813299218
 11
10.237068698131
 21
4.418325579125526
 72
     1
 10
10.237068698131
 20
4.418325579125527
 11
10.23680854844721
 21
4.420476041140246
 72
     1
 10
10.23680854844721
 20
4.420476041140245
 11
10.23659615859859
 21
4.422629400544667
 72
     1
 10
10.23659615859859
 20
4.422629400544667
 11
10.23643146086105
 21
4.424784861882105
 72
     1
 10
10.23643146086105
 20
4.424784861882104
 11
10.236316010289
 21
4.426904276116974
 72
     1
 10
10.236316010289
 20
4.426904276116974
 11
10.23624487176718
 21
4.429098922800319
 72
     1
 10
10.23624487176718
 20
4.429098922800319
 11
10.2361543839285
 21
4.431256784859274
 72
     1
 10
10.2361543839285
 20
4.431256784859274
 11
10.23624824133178
 21
4.43341191190683
 72
     1
 10
10.23624824133178
 20
4.43341191190683
 11
10.23632339060298
 21
4.435619297185334
 72
     1
 10
10.23632339060298
 20
4.435619297185333
 11
10.23644650031327
 21
4.437798943411215
 72
     1
 10
10.23644650031327
 20
4.437798943411215
 11
10.23661803577448
 21
4.439974657981668
 72
     1
 10
10.23661803577448
 20
4.439974657981669
 11
10.23683774863131
 21
4.442144301429483
 72
     1
 10
10.23683774863131
 20
4.442144301429483
 11
10.23737667574228
 21
4.446178813299218
 72
     1
 10
10.23737667574228
 20
4.446178813299218
 11
10.23156514029675
 21
4.446181773937024
 72
     1
 10
10.23156514029675
 20
4.446181773937024
 11
10.23137667574228
 21
4.446178813299218
 72
     1
 10
10.23137667574228
 20
4.446178813299218
 11
10.21937667574228
 21
4.446178813299218
 72
     1
 10
10.21937667574228
 20
4.446178813299218
 11
10.21983678541089
 21
4.445563328211177
 72
     1
 10
10.21983678541089
 20
4.445563328211177
 11
10.22027739941825
 21
4.444933739379269
 97
        0
 75
     0
 76
     2
 52
90.0
 41
0.001
 77
     0
 78
     2
 53
135.0
 43
0.0
 44
0.0
 45
-0.0017677669529664
 46
-0.0017677669529664
 79
     0
 53
225.0
 43
0.0
 44
0.0
 45
0.0017677669529664
 46
-0.0017677669529664
 79
     0
 98
        0
1001
ACAD
1010
0.0
1020
0.0
1030
0.0
1001
NEM_ODX
1002
{
1000
BZM_DEPEND
1070
     0
1000
SCHRAFFUR_12
1002
}
  0
HATCH
  5
9A
330
1F
100
AcDbEntity
  8
XR$1$TB_1414_1
  6
AUSGEZOGEN
 62
    14
440
 33554687
370
    -3
100
AcDbHatch
 10
0.0
 20
0.0
 30
0.0
210
0.0
220
0.0
230
1.0
  2
SCHRAFFUR_304
 70
     0
 71
     0
 91
        1
 92
        0
 93
       14
 72
     1
 10
10.22437432738618
 20
4.431032710673202
 11
10.22367143890865
 21
4.437604358313636
 72
     1
 10
10.22367143890865
 20
4.437604358313636
 11
10.2217019891594
 21
4.442874410542912
 72
     1
 10
10.2217019891594
 20
4.442874410542912
 11
10.21885605181498
 21
4.445799068884074
 72
     1
 10
10.21885605181498
 20
4.445799068884074
 11
10.21569729966959
 21
4.445799068884075
 72
     1
 10
10.21569729966958
 20
4.445799068884075
 11
10.21285136232516
 21
4.442874410542912
 72
     1
 10
10.21285136232516
 20
4.442874410542912
 11
10.21088191257592
 21
4.437604358313636
 72
     1
 10
10.21088191257591
 20
4.437604358313636
 11
10.21017902409838
 21
4.431032710673202
 72
     1
 10
10.21017902409838
 20
4.431032710673202
 11
10.21088191257592
 21
4.424461063032767
 72
     1
 10
10.21088191257591
 20
4.424461063032767
 11
10.21285136232516
 21
4.419191010803491
 72
     1
 10
10.21285136232516
 20
4.419191010803491
 11
10.21569729966959
 21
4.41626635246233
 72
     1
 10
10.21569729966959
 20
4.41626635246233
 11
10.21885605181498
 21
4.41626635246233
 72
     1
 10
10.21885605181498
 20
4.41626635246233
 11
10.2217019891594
 21
4.419191010803491
 72
     1
 10
10.2217019891594
 20
4.419191010803491
 11
10.22367143890865
 21
4.424461063032767
 72
     1
 10
10.22367143890865
 20
4.424461063032767
 11
10.22437432738618
 21
4.431032710673202
 97
        0
 75
     0
 76
     2
 52
90.0
 41
0.005
 77
     0
 78
     2
 53
135.0
 43
0.0
 44
0.0
 45
-0.0053033008588991
 46
-0.0053033008588991
 79
     0
 53
225.0
 43
0.0
 44
0.0
 45
0.0053033008588991
 46
-0.0053033008588991
 79
     0
 98
        0
1001
ACAD
1010
0.0
1020
0.0
1030
0.0
1001
NEM_ODX
1002
{
1000
BZM_DEPEND
1070
     1
1000
BZM_SCALE
1040
5.0
1000
SCHRAFFUR_304
1002
}
  0
HATCH
  5
9B
330
1F
100
AcDbEntity
  8
XR$1$TB_1414_1
  6
AUSGEZOGEN
 62
     7
440
 33554687
370
    -3
100
AcDbHatch
 10
0.0
 20
0.0
 30
0.0
210
0.0
220
0.0
230
1.0
  2
_USER
 70
     0
 71
     0
 91
        1
 92
        0
 93
        4
 72
     1
 10
10.16937667574228
 20
4.526178813299216
 11
10.15937667574228
 21
4.526178813299216
 72
     1
 10
10.15937667574228
 20
4.526178813299216
 11
10.15937667574228
 21
4.446178813299216
 72
     1
 10
10.15937667574228
 20
4.446178813299216
 11
10.16937667574228
 21
4.446178813299216
 72
     1
 10
10.16937667574228
 20
4.446178813299216
 11
10.16937667574228
 21
4.526178813299216
 97
        0
 75
     0
 76
     0
 52
90.0
 41
0.013
 77
     1
 78
     2
 53
90.00000000000001
 43
9.541223702385599
 44
1.506198353435597
 45
-0.013
 46
0.0
 79
     0
 53
180.0
 43
9.541223702385599
 44
1.506198353435597
 45
0.0
 46
-0.013
 79
     0
 98
        0
1001
ACAD
1010
9541.223702
1020
1506.198353
1030
0.0
1001
NEM_ODX
1002
{
1000
BZM_DEPEND
1070
     0
1000
MUSTER_447
1002
}
  0
HATCH
  5
9C
330
1F
100
AcDbEntity
  8
XR$1$TB_1414_1
  6
AUSGEZOGEN
 62
     9
440
 33554687
370
    -3
100
AcDbHatch
 10
0.0
 20
0.0
 30
0.0
210
0.0
220
0.0
230
1.0
  2
SOLID
 70
     1
 71
     0
 91
        1
 92
        3
 72
     0
 73
     1
 93
       34
 10
10.23737667574228
 20
4.026238948599218
 10
9.62853337834228
 20
4.026238948599216
 10
9.62853337834228
 20
4.008238948599216
 10
10.23137667574228
 20
4.008238948599216
 10
10.23169069147974
 20
4.008247171390689
 10
10.23200384652189
 20
4.008271817227007
 10
10.23231528253253
 20
4.008312818555646
 10
10.23262414588719
 20
4.008370062994813
 10
10.2329295900129
 20
4.008443393641482
 10
10.23323077770853
 20
4.008532609501446
 10
10.23352688343956
 20
4.008637466040233
 10
10.23381709560074
 20
4.008757675853361
 10
10.23410061874072
 20
4.008892909454087
 10
10.23437667574228
 20
4.00904279617651
 10
10.23464450995237
 20
4.009206925191544
 10
10.23490338725604
 20
4.009384846632966
 10
10.23515259808858
 20
4.009576072830475
 10
10.23539145938044
 20
4.009780079646352
 10
10.2356193164294
 20
4.009996307912097
 10
10.23583554469515
 20
4.010224164961063
 10
10.23603955151103
 20
4.010463026252917
 10
10.23623077770853
 20
4.010712237085461
 10
10.23640869914996
 20
4.010971114389126
 10
10.23657282816499
 20
4.011238948599217
 10
10.23672271488741
 20
4.011515005600779
 10
10.23685794848814
 20
4.011798528740762
 10
10.23697815830127
 20
4.012088740901945
 10
10.23708301484005
 20
4.012384846632966
 10
10.23717223070002
 20
4.012686034328602
 10
10.23724556134669
 20
4.012991478454309
 10
10.23730280578585
 20
4.013300341808975
 10
10.23734380711449
 20
4.013611777819611
 10
10.23736845295081
 20
4.013924932861759
 10
10.23737667574228
 20
4.014238948599217
 97
        0
 75
     0
 76
     1
 98
        0
  0
HATCH
  5
9D
330
1F
100
AcDbEntity
  8
XR$1$TB_1414_1
  6
AUSGEZOGEN
 62
     9
440
 33554687
370
    -3
100
AcDbHatch
 10
0.0
 20
0.0
 30
0.0
210
0.0
220
0.0
230
1.0
  2
SOLID
 70
     1
 71
     0
 91
        1
 92
        3
 72
     0
 73
     1
 93
       12
 10
10.21937667574228
 20
4.056238948599217
 10
10.23137667574228
 20
4.056238948599217
 10
10.23394160101785
 20
4.056814821173469
 10
10.23601416958635
 20
4.058431895822299
 10
10.2371965363155
 20
4.060779762898781
 10
10.23724556134669
 20
4.06099147845431
 10
10.23730280578585
 20
4.061300341808975
 10
10.23734380711449
 20
4.061611777819611
 10
10.23736845295081
 20
4.061924932861758
 10
10.23737667574228
 20
4.062238948599216
 10
10.23737667574228
 20
4.416178813299216
 10
10.21937667574228
 20
4.416178813299216
 97
        0
 75
     0
 76
     1
 98
        0
  0
LINE
  5
9E
330
1F
100
AcDbEntity
  8
XR$1$TB_1414_1
  6
STRICHPUNKT2_S5
 62
    14
440
 33554687
370
    -3
100
AcDbLine
 10
9.628533
 20
4.356239
 30
0.0
 11
9.628533
 21
3.948239
 31
0.0
  0
LINE
  5
9F
330
1F
100
AcDbEntity
  8
XR$1$TB_1414_1
  6
STRICHPUNKT2_S5
 62
    14
440
 33554687
370
    -3
100
AcDbLine
 10
9.889377
 20
4.71598
 30
0.0
 11
10.240377
 21
4.71598
 31
0.0
  0
LINE
  5
A0
330
1F
100
AcDbEntity
  8
XR$1$TB_1414_1
  6
AUSGEZOGEN
 62
    14
440
 33554687
370
    -3
100
AcDbLine
 10
10.186377
 20
4.446179
 30
0.0
 11
10.159377
 21
4.446179
 31
0.0
  0
ARC
  5
A1
330
1F
100
AcDbEntity
  8
XR$1$TB_1414_1
  6
AUSGEZOGEN
 62
    14
440
 33554687
370
    -3
100
AcDbCircle
 10
10.196877
 20
4.438679
 30
0.0
 40
0.0074999978542328
100
AcDbArc
 50
180.00003
 51
204.295044
  0
ARC
  5
A2
330
1F
100
AcDbEntity
  8
XR$1$TB_1414_1
  6
AUSGEZOGEN
 62
    14
440
 33554687
370
    -3
100
AcDbCircle
 10
10.181877
 20
4.438679
 30
0.0
 40
0.0074999978542328
100
AcDbArc
 50
323.130097
 51
0.0
  0
ARC
  5
A3
330
1F
100
AcDbEntity
  8
XR$1$TB_1414_1
  6
AUSGEZOGEN
 62
    14
440
 33554687
370
    -3
100
AcDbCircle
 10
10.189377
 20
4.423679
 30
0.0
 40
0.0074999978542328
100
AcDbArc
 50
270.000003
 51
323.129936
  0
LINE
  5
A4
330
1F
100
AcDbEntity
  8
XR$1$TB_1414_1
  6
AUSGEZOGEN
 62
    14
440
 33554687
370
    -3
100
AcDbLine
 10
10.175877
 20
4.434179
 30
0.0
 11
10.180377
 21
4.428179
 31
0.0
  0
ARC
  5
A5
330
1F
100
AcDbEntity
  8
XR$1$TB_1414_1
  6
AUSGEZOGEN
 62
    14
440
 33554687
370
    -3
100
AcDbCircle
 10
10.166877
 20
4.438679
 30
0.0
 40
0.0074999978542328
100
AcDbArc
 50
323.130097
 51
0.0
  0
ARC
  5
A6
330
1F
100
AcDbEntity
  8
XR$1$TB_1414_1
  6
AUSGEZOGEN
 62
    14
440
 33554687
370
    -3
100
AcDbCircle
 10
10.174377
 20
4.423679
 30
0.0
 40
0.0074999978542328
100
AcDbArc
 50
143.130127
 51
270.000003
  0
ARC
  5
A7
330
1F
100
AcDbEntity
  8
XR$1$TB_1414_1
  6
AUSGEZOGEN
 62
    14
440
 33554687
370
    -3
100
AcDbCircle
 10
10.174377
 20
4.423679
 30
0.0
 40
0.0074999978542328
100
AcDbArc
 50
270.000003
 51
36.869848
  0
ARC
  5
A8
330
1F
100
AcDbEntity
  8
XR$1$TB_1414_1
  6
AUSGEZOGEN
 62
    14
440
 33554687
370
    -3
100
AcDbCircle
 10
10.196877
 20
4.438679
 30
0.0
 40
0.0074999978542328
100
AcDbArc
 50
65.704888
 51
89.999895
  0
LINE
  5
A9
330
1F
100
AcDbEntity
  8
XR$1$TB_1414_1
  6
AUSGEZOGEN
 62
    14
440
 33554687
370
    -3
100
AcDbLine
 10
10.204377
 20
4.416179
 30
0.0
 11
10.162377
 21
4.416179
 31
0.0
  0
LINE
  5
AA
330
1F
100
AcDbEntity
  8
XR$1$TB_1414_1
  6
AUSGEZOGEN
 62
    54
440
 33554687
370
    -3
100
AcDbLine
 10
10.219377
 20
4.416179
 30
0.0
 11
10.204377
 21
4.416179
 31
0.0
  0
LINE
  5
AB
330
1F
100
AcDbEntity
  8
XR$1$TB_1414_1
  6
AUSGEZOGEN
 62
    94
440
 33554687
370
    25
100
AcDbLine
 10
10.231377
 20
4.008239
 30
0.0
 11
9.628533
 21
4.008239
 31
0.0
  0
LINE
  5
AC
330
1F
100
AcDbEntity
  8
XR$1$TB_1414_1
  6
AUSGEZOGEN
 62
    94
440
 33554687
370
    25
100
AcDbLine
 10
10.237377
 20
4.026239
 30
0.0
 11
9.628533
 21
4.026239
 31
0.0
  0
LINE
  5
AD
330
1F
100
AcDbEntity
  8
XR$1$TB_1414_1
  6
AUSGEZOGEN
 62
    94
440
 33554687
370
    25
100
AcDbLine
 10
10.237377
 20
4.416179
 30
0.0
 11
10.237377
 21
4.062239
 31
0.0
  0
LINE
  5
AE
330
1F
100
AcDbEntity
  8
XR$1$TB_1414_1
  6
AUSGEZOGEN
 62
    94
440
 33554687
370
    25
100
AcDbLine
 10
10.219377
 20
4.416179
 30
0.0
 11
10.219377
 21
4.056239
 31
0.0
  0
LINE
  5
AF
330
1F
100
AcDbEntity
  8
XR$1$TB_1414_1
  6
AUSGEZOGEN
 62
    94
440
 33554687
370
    25
100
AcDbLine
 10
10.219377
 20
4.416179
 30
0.0
 11
10.237377
 21
4.416179
 31
0.0
  0
LINE
  5
B0
330
1F
100
AcDbEntity
  8
XR$1$TB_1414_1
  6
AUSGEZOGEN
 62
   174
440
 33554687
370
    35
100
AcDbLine
 10
10.159377
 20
4.086239
 30
0.0
 11
9.628533
 21
4.086239
 31
0.0
  0
LINE
  5
B1
330
1F
100
AcDbEntity
  8
XR$1$TB_1414_1
  6
AUSGEZOGEN
 62
   174
440
 33554687
370
    35
100
AcDbLine
 10
10.159377
 20
4.71598
 30
0.0
 11
10.159377
 21
4.086239
 31
0.0
  0
LINE
  5
B2
330
1F
100
AcDbEntity
  8
XR$1$TB_1414_1
  6
AUSGEZOGEN
 62
     7
440
 33554687
370
    -3
100
AcDbLine
 10
10.421377
 20
4.446179
 30
0.0
 11
10.277377
 21
4.446179
 31
0.0
  0
LINE
  5
B3
330
1F
100
AcDbEntity
  8
XR$1$TB_1414_1
  6
AUSGEZOGEN
 62
     3
440
 33554687
370
    25
100
AcDbLine
 10
10.277377
 20
4.446179
 30
0.0
 11
10.159377
 21
4.446179
 31
0.0
  0
LINE
  5
B4
330
1F
100
AcDbEntity
  8
XR$1$TB_1414_1
  6
AUSGEZOGEN
 62
     7
440
 33554687
370
    -3
100
AcDbLine
 10
10.317459
 20
4.422491
 30
0.0
 11
10.226352
 21
4.422491
 31
0.0
  0
LINE
  5
B5
330
1F
100
AcDbEntity
  8
XR$1$TB_1414_1
  6
AUSGEZOGEN
 62
    54
440
 33554687
370
    -3
100
AcDbLine
 10
10.189362
 20
4.041239
 30
0.0
 11
9.628533
 21
4.041239
 31
0.0
  0
LINE
  5
B6
330
1F
100
AcDbEntity
  8
XR$1$TB_1414_1
  6
AUSGEZOGEN
 62
    54
440
 33554687
370
    -3
100
AcDbLine
 10
10.204377
 20
4.056253
 30
0.0
 11
10.204377
 21
4.056239
 31
0.0
  0
LINE
  5
B7
330
1F
100
AcDbEntity
  8
XR$1$TB_1414_1
  6
AUSGEZOGEN
 62
    54
440
 33554687
370
    -3
100
AcDbLine
 10
10.219377
 20
4.056239
 30
0.0
 11
10.204377
 21
4.056239
 31
0.0
  0
LINE
  5
B8
330
1F
100
AcDbEntity
  8
XR$1$TB_1414_1
  6
AUSGEZOGEN
 62
    14
440
 33554687
370
    -3
100
AcDbLine
 10
10.179967
 20
4.061406
 30
0.0
 11
10.181028
 21
4.068831
 31
0.0
  0
ARC
  5
B9
330
1F
100
AcDbEntity
  8
XR$1$TB_1414_1
  6
AUSGEZOGEN
 62
    14
440
 33554687
370
    -3
100
AcDbCircle
 10
10.183149
 20
4.05186
 30
0.0
 40
0.0074999978542328
100
AcDbArc
 50
98.130096
 51
135.0
  0
ARC
  5
BA
330
1F
100
AcDbEntity
  8
XR$1$TB_1414_1
  6
AUSGEZOGEN
 62
    14
440
 33554687
370
    -3
100
AcDbCircle
 10
10.183149
 20
4.05186
 30
0.0
 40
0.0074999978542328
100
AcDbArc
 50
135.0
 51
225.000125
  0
ARC
  5
BB
330
1F
100
AcDbEntity
  8
XR$1$TB_1414_1
  6
AUSGEZOGEN
 62
    14
440
 33554687
370
    -3
100
AcDbCircle
 10
10.172542
 20
4.062467
 30
0.0
 40
0.0074999978542328
100
AcDbArc
 50
315.000036
 51
351.869903
  0
ARC
  5
BC
330
1F
100
AcDbEntity
  8
XR$1$TB_1414_1
  6
AUSGEZOGEN
 62
    14
440
 33554687
370
    -3
100
AcDbCircle
 10
10.188452
 20
4.06777
 30
0.0
 40
0.0074999978542328
100
AcDbArc
 50
44.999997
 51
171.869873
  0
ARC
  5
BD
330
1F
100
AcDbEntity
  8
XR$1$TB_1414_1
  6
AUSGEZOGEN
 62
    14
440
 33554687
370
    -3
100
AcDbCircle
 10
10.188452
 20
4.06777
 30
0.0
 40
0.0074999978542328
100
AcDbArc
 50
278.130152
 51
44.999997
  0
ARC
  5
BE
330
1F
100
AcDbEntity
  8
XR$1$TB_1414_1
  6
AUSGEZOGEN
 62
    14
440
 33554687
370
    -3
100
AcDbCircle
 10
10.172542
 20
4.062467
 30
0.0
 40
0.0074999978542328
100
AcDbArc
 50
225.000105
 51
315.000036
  0
LINE
  5
BF
330
1F
100
AcDbEntity
  8
XR$1$TB_1414_1
  6
AUSGEZOGEN
 62
    14
440
 33554687
370
    -3
100
AcDbLine
 10
10.169361
 20
4.072013
 30
0.0
 11
10.170421
 21
4.079437
 31
0.0
  0
ARC
  5
C0
330
1F
100
AcDbEntity
  8
XR$1$TB_1414_1
  6
AUSGEZOGEN
 62
    14
440
 33554687
370
    -3
100
AcDbCircle
 10
10.172542
 20
4.062467
 30
0.0
 40
0.0074999978542328
100
AcDbArc
 50
135.0
 51
225.000125
  0
ARC
  5
C1
330
1F
100
AcDbEntity
  8
XR$1$TB_1414_1
  6
AUSGEZOGEN
 62
    14
440
 33554687
370
    -3
100
AcDbCircle
 10
10.161936
 20
4.073073
 30
0.0
 40
0.0074999978542328
100
AcDbArc
 50
315.000036
 51
351.869903
  0
ARC
  5
C2
330
1F
100
AcDbEntity
  8
XR$1$TB_1414_1
  6
AUSGEZOGEN
 62
    14
440
 33554687
370
    -3
100
AcDbCircle
 10
10.161936
 20
4.073073
 30
0.0
 40
0.0074999978542328
100
AcDbArc
 50
225.000105
 51
315.000036
  0
LINE
  5
C3
330
1F
100
AcDbEntity
  8
XR$1$TB_1414_1
  6
AUSGEZOGEN
 62
    14
440
 33554687
370
    -3
100
AcDbLine
 10
10.160875
 20
4.080498
 30
0.0
 11
10.1683
 21
4.081558
 31
0.0
  0
ARC
  5
C4
330
1F
100
AcDbEntity
  8
XR$1$TB_1414_1
  6
AUSGEZOGEN
 62
    14
440
 33554687
370
    -3
100
AcDbCircle
 10
10.161936
 20
4.073073
 30
0.0
 40
0.0074999978542328
100
AcDbArc
 50
98.130096
 51
135.0
  0
ARC
  5
C5
330
1F
100
AcDbEntity
  8
XR$1$TB_1414_1
  6
AUSGEZOGEN
 62
    14
440
 33554687
370
    -3
100
AcDbCircle
 10
10.161936
 20
4.073073
 30
0.0
 40
0.0074999978542328
100
AcDbArc
 50
135.0
 51
225.000125
  0
ARC
  5
C6
330
1F
100
AcDbEntity
  8
XR$1$TB_1414_1
  6
AUSGEZOGEN
 62
    14
440
 33554687
370
    -3
100
AcDbCircle
 10
10.151329
 20
4.08368
 30
0.0
 40
0.0074999978542328
100
AcDbArc
 50
315.000036
 51
351.869903
  0
ARC
  5
C7
330
1F
100
AcDbEntity
  8
XR$1$TB_1414_1
  6
AUSGEZOGEN
 62
    14
440
 33554687
370
    -3
100
AcDbCircle
 10
10.167239
 20
4.088983
 30
0.0
 40
0.0074999978542328
100
AcDbArc
 50
278.130152
 51
44.999997
  0
ARC
  5
C8
330
1F
100
AcDbEntity
  8
XR$1$TB_1414_1
  6
AUSGEZOGEN
 62
    14
440
 33554687
370
    -3
100
AcDbCircle
 10
10.156633
 20
4.09959
 30
0.0
 40
0.0074999978542328
100
AcDbArc
 50
291.461079
 51
45.074018
  0
LINE
  5
C9
330
1F
100
AcDbEntity
  8
XR$1$TB_1414_1
  6
AUSGEZOGEN
 62
     7
440
 33554687
370
    -3
100
AcDbLine
 10
10.226435
 20
3.930757
 30
0.0
 11
10.226435
 21
4.041361
 31
0.0
  0
LINE
  5
CA
330
1F
100
AcDbEntity
  8
XR$1$TB_1414_1
  6
VERDECKT2_S2
 62
     7
440
 33554687
370
    50
100
AcDbLine
 10
10.189362
 20
4.041439
 30
0.0
 11
9.628533
 21
4.041439
 31
0.0
  0
LINE
  5
CB
330
1F
100
AcDbEntity
  8
XR$1$TB_1414_1
  6
AUSGEZOGEN
 62
    54
440
 33554687
370
    -3
100
AcDbLine
 10
10.204377
 20
4.062452
 30
0.0
 11
10.159377
 21
4.107452
 31
0.0
  0
ARC
  5
CC
330
1F
100
AcDbEntity
  8
XR$1$TB_1414_1
  6
AUSGEZOGEN
 62
    14
440
 33554687
370
    -3
100
AcDbCircle
 10
10.199059
 20
4.057163
 30
0.0
 40
0.0074999978542328
100
AcDbArc
 50
351.870064
 51
352.920508
  0
ARC
  5
CD
330
1F
100
AcDbEntity
  8
XR$1$TB_1414_1
  6
AUSGEZOGEN
 62
    14
440
 33554687
370
    -3
100
AcDbCircle
 10
10.199059
 20
4.057163
 30
0.0
 40
0.0074999978542328
100
AcDbArc
 50
44.84363
 51
44.999997
  0
ARC
  5
CE
330
1F
100
AcDbEntity
  8
XR$1$TB_1414_1
  6
AUSGEZOGEN
 62
    14
440
 33554687
370
    -3
100
AcDbCircle
 10
10.304677
 20
4.043861
 30
0.0
 40
0.0695687354119341
100
AcDbArc
 50
165.924657
 51
194.672963
  0
LINE
  5
CF
330
1F
100
AcDbEntity
  8
XR$1$TB_1414_1
  6
AUSGEZOGEN
 62
    14
440
 33554687
370
    -3
100
AcDbLine
 10
10.187877
 20
4.434179
 30
0.0
 11
10.183377
 21
4.428179
 31
0.0
  0
ARC
  5
D0
330
1F
100
AcDbEntity
  8
XR$1$TB_1414_1
  6
AUSGEZOGEN
 62
    14
440
 33554687
370
    -3
100
AcDbCircle
 10
10.181877
 20
4.438679
 30
0.0
 40
0.0074999978542328
100
AcDbArc
 50
0.0
 51
89.999895
  0
ARC
  5
D1
330
1F
100
AcDbEntity
  8
XR$1$TB_1414_1
  6
AUSGEZOGEN
 62
    14
440
 33554687
370
    -3
100
AcDbCircle
 10
10.189377
 20
4.423679
 30
0.0
 40
0.0074999978542328
100
AcDbArc
 50
143.130127
 51
270.000003
  0
LINE
  5
D2
330
1F
100
AcDbEntity
  8
XR$1$TB_1414_1
  6
AUSGEZOGEN
 62
    14
440
 33554687
370
    -3
100
AcDbLine
 10
10.172877
 20
4.434179
 30
0.0
 11
10.168377
 21
4.428179
 31
0.0
  0
ARC
  5
D3
330
1F
100
AcDbEntity
  8
XR$1$TB_1414_1
  6
AUSGEZOGEN
 62
    14
440
 33554687
370
    -3
100
AcDbCircle
 10
10.181877
 20
4.438679
 30
0.0
 40
0.0074999978542328
100
AcDbArc
 50
180.00003
 51
216.869904
  0
ARC
  5
D4
330
1F
100
AcDbEntity
  8
XR$1$TB_1414_1
  6
AUSGEZOGEN
 62
    14
440
 33554687
370
    -3
100
AcDbCircle
 10
10.181877
 20
4.438679
 30
0.0
 40
0.0074999978542328
100
AcDbArc
 50
89.999875
 51
180.00003
  0
ARC
  5
D5
330
1F
100
AcDbEntity
  8
XR$1$TB_1414_1
  6
AUSGEZOGEN
 62
    14
440
 33554687
370
    -3
100
AcDbCircle
 10
10.166877
 20
4.438679
 30
0.0
 40
0.0074999978542328
100
AcDbArc
 50
0.0
 51
216.86981
  0
LINE
  5
D6
330
1F
100
AcDbEntity
  8
XR$1$TB_1414_1
  6
AUSGEZOGEN
 62
    14
440
 33554687
370
    -3
100
AcDbLine
 10
10.160877
 20
4.434179
 30
0.0
 11
10.165377
 21
4.428179
 31
0.0
  0
ARC
  5
D7
330
1F
100
AcDbEntity
  8
XR$1$TB_1414_1
  6
AUSGEZOGEN
 62
    14
440
 33554687
370
    -3
100
AcDbCircle
 10
10.159377
 20
4.423679
 30
0.0
 40
0.0074999978542328
100
AcDbArc
 50
269.999344
 51
36.869848
  0
ARC
  5
D8
330
1F
100
AcDbEntity
  8
XR$1$TB_1414_1
  6
AUSGEZOGEN
 62
    14
440
 33554687
370
    -3
100
AcDbCircle
 10
10.334299
 20
4.431179
 30
0.0
 40
0.0980757128001628
100
AcDbArc
 50
171.20248
 51
188.79752
  0
ARC
  5
D9
330
1F
100
AcDbEntity
  8
XR$1$TB_1414_1
  6
AUSGEZOGEN
 62
    94
440
 33554687
370
    25
100
AcDbCircle
 10
10.231377
 20
4.014239
 30
0.0
 40
0.006
100
AcDbArc
 50
270.0
 51
0.0
  0
LINE
  5
DA
330
1F
100
AcDbEntity
  8
XR$1$TB_1414_1
  6
AUSGEZOGEN
 62
    94
440
 33554687
370
    25
100
AcDbLine
 10
10.237377
 20
4.026239
 30
0.0
 11
10.237377
 21
4.014239
 31
0.0
  0
ARC
  5
DB
330
1F
100
AcDbEntity
  8
XR$1$TB_1414_1
  6
AUSGEZOGEN
 62
    94
440
 33554687
370
    25
100
AcDbCircle
 10
10.231377
 20
4.062239
 30
0.0
 40
0.006
100
AcDbArc
 50
270.0
 51
0.0
  0
LINE
  5
DC
330
1F
100
AcDbEntity
  8
XR$1$TB_1414_1
  6
AUSGEZOGEN
 62
    54
440
 33554687
370
    -3
100
AcDbLine
 10
10.204377
 20
4.026253
 30
0.0
 11
10.204377
 21
4.026239
 31
0.0
  0
LINE
  5
DD
330
1F
100
AcDbEntity
  8
XR$1$TB_1414_1
  6
AUSGEZOGEN
 62
    14
440
 33554687
370
    -3
100
AcDbLine
 10
10.190574
 20
4.050799
 30
0.0
 11
10.191634
 21
4.058224
 31
0.0
  0
ARC
  5
DE
330
1F
100
AcDbEntity
  8
XR$1$TB_1414_1
  6
AUSGEZOGEN
 62
    14
440
 33554687
370
    -3
100
AcDbCircle
 10
10.193756
 20
4.041253
 30
0.0
 40
0.0074999978542328
100
AcDbArc
 50
110.704956
 51
135.0
  0
ARC
  5
DF
330
1F
100
AcDbEntity
  8
XR$1$TB_1414_1
  6
AUSGEZOGEN
 62
    14
440
 33554687
370
    -3
100
AcDbCircle
 10
10.183149
 20
4.05186
 30
0.0
 40
0.0074999978542328
100
AcDbArc
 50
225.000105
 51
315.000036
  0
ARC
  5
E0
330
1F
100
AcDbEntity
  8
XR$1$TB_1414_1
  6
AUSGEZOGEN
 62
    14
440
 33554687
370
    -3
100
AcDbCircle
 10
10.183149
 20
4.05186
 30
0.0
 40
0.0074999978542328
100
AcDbArc
 50
315.000036
 51
351.869903
  0
ARC
  5
E1
330
1F
100
AcDbEntity
  8
XR$1$TB_1414_1
  6
AUSGEZOGEN
 62
    14
440
 33554687
370
    -3
100
AcDbCircle
 10
10.199059
 20
4.057163
 30
0.0
 40
0.0074999978542328
100
AcDbArc
 50
44.999997
 51
171.869873
  0
ARC
  5
E2
330
1F
100
AcDbEntity
  8
XR$1$TB_1414_1
  6
AUSGEZOGEN
 62
    14
440
 33554687
370
    -3
100
AcDbCircle
 10
10.199059
 20
4.057163
 30
0.0
 40
0.0074999978542328
100
AcDbArc
 50
351.870064
 51
44.999997
  0
LINE
  5
E3
330
1F
100
AcDbEntity
  8
XR$1$TB_1414_1
  6
AUSGEZOGEN
 62
    14
440
 33554687
370
    -3
100
AcDbLine
 10
10.182088
 20
4.059285
 30
0.0
 11
10.189513
 21
4.060345
 31
0.0
  0
LINE
  5
E4
330
1F
100
AcDbEntity
  8
XR$1$TB_1414_1
  6
AUSGEZOGEN
 62
    54
440
 33554687
370
    -3
100
AcDbLine
 10
10.183163
 20
4.041239
 30
0.0
 11
10.138163
 21
4.086239
 31
0.0
  0
LINE
  5
E5
330
1F
100
AcDbEntity
  8
XR$1$TB_1414_1
  6
AUSGEZOGEN
 62
    54
440
 33554687
370
    -3
100
AcDbLine
 10
10.21059
 20
4.056239
 30
0.0
 11
10.159377
 21
4.107452
 31
0.0
  0
ARC
  5
E6
330
1F
100
AcDbEntity
  8
XR$1$TB_1414_1
  6
AUSGEZOGEN
 62
    14
440
 33554687
370
    -3
100
AcDbCircle
 10
10.193756
 20
4.041253
 30
0.0
 40
0.0074999978542328
100
AcDbArc
 50
135.0
 51
180.11047
  0
LINE
  5
E7
330
1F
100
AcDbEntity
  8
XR$1$TB_1414_1
  6
AUSGEZOGEN
 62
    14
440
 33554687
370
    -3
100
AcDbLine
 10
10.171482
 20
4.069891
 30
0.0
 11
10.178906
 21
4.070952
 31
0.0
  0
ARC
  5
E8
330
1F
100
AcDbEntity
  8
XR$1$TB_1414_1
  6
AUSGEZOGEN
 62
    14
440
 33554687
370
    -3
100
AcDbCircle
 10
10.172542
 20
4.062467
 30
0.0
 40
0.0074999978542328
100
AcDbArc
 50
98.130096
 51
135.0
  0
ARC
  5
E9
330
1F
100
AcDbEntity
  8
XR$1$TB_1414_1
  6
AUSGEZOGEN
 62
    14
440
 33554687
370
    -3
100
AcDbCircle
 10
10.177846
 20
4.078376
 30
0.0
 40
0.0074999978542328
100
AcDbArc
 50
44.999997
 51
171.869873
  0
ARC
  5
EA
330
1F
100
AcDbEntity
  8
XR$1$TB_1414_1
  6
AUSGEZOGEN
 62
    14
440
 33554687
370
    -3
100
AcDbCircle
 10
10.177846
 20
4.078376
 30
0.0
 40
0.0074999978542328
100
AcDbArc
 50
278.130152
 51
44.999997
  0
LINE
  5
EB
330
1F
100
AcDbEntity
  8
XR$1$TB_1414_1
  6
AUSGEZOGEN
 62
    14
440
 33554687
370
    -3
100
AcDbLine
 10
10.158754
 20
4.082619
 30
0.0
 11
10.159815
 21
4.090044
 31
0.0
  0
ARC
  5
EC
330
1F
100
AcDbEntity
  8
XR$1$TB_1414_1
  6
AUSGEZOGEN
 62
    14
440
 33554687
370
    -3
100
AcDbCircle
 10
10.167239
 20
4.088983
 30
0.0
 40
0.0074999978542328
100
AcDbArc
 50
44.999997
 51
171.869873
  0
ARC
  5
ED
330
1F
100
AcDbEntity
  8
XR$1$TB_1414_1
  6
AUSGEZOGEN
 62
    14
440
 33554687
370
    -3
100
AcDbCircle
 10
10.151329
 20
4.08368
 30
0.0
 40
0.0074999978542328
100
AcDbArc
 50
225.000105
 51
315.000036
  0
ARC
  5
EE
330
1F
100
AcDbEntity
  8
XR$1$TB_1414_1
  6
AUSGEZOGEN
 62
    14
440
 33554687
370
    -3
100
AcDbCircle
 10
10.156633
 20
4.09959
 30
0.0
 40
0.0074999978542328
100
AcDbArc
 50
44.999997
 51
68.538921
  0
ARC
  5
EF
330
1F
100
AcDbEntity
  8
XR$1$TB_1414_1
  6
AUSGEZOGEN
 62
    14
440
 33554687
370
    -3
100
AcDbCircle
 10
10.140723
 20
4.094286
 30
0.0
 40
0.0074999978542328
100
AcDbArc
 50
315.000036
 51
315.103172
  0
ARC
  5
F0
330
1F
100
AcDbEntity
  8
XR$1$TB_1414_1
  6
AUSGEZOGEN
 62
    14
440
 33554687
370
    -3
100
AcDbCircle
 10
10.151329
 20
4.08368
 30
0.0
 40
0.0074999978542328
100
AcDbArc
 50
134.896828
 51
135.0
  0
ARC
  5
F1
330
1F
100
AcDbEntity
  8
XR$1$TB_1414_1
  6
AUSGEZOGEN
 62
    14
440
 33554687
370
    -3
100
AcDbCircle
 10
10.151329
 20
4.08368
 30
0.0
 40
0.0074999978542328
100
AcDbArc
 50
160.047918
 51
225.000125
  0
LINE
  5
F2
330
1F
100
AcDbEntity
  8
XR$1$TB_1414_1
  6
AUSGEZOGEN
 62
    94
440
 33554687
370
    25
100
AcDbLine
 10
10.231377
 20
4.056239
 30
0.0
 11
10.219377
 21
4.056239
 31
0.0
  0
LINE
  5
F3
330
1F
100
AcDbEntity
  8
XR$1$TB_1414_1
  6
AUSGEZOGEN
 62
    54
440
 33554687
370
    -3
100
AcDbLine
 10
10.219377
 20
4.056239
 30
0.0
 11
10.204177
 21
4.056239
 31
0.0
  0
ARC
  5
F4
330
1F
100
AcDbEntity
  8
XR$1$TB_1414_1
  6
AUSGEZOGEN
 62
     7
440
 33554687
370
    -3
100
AcDbCircle
 10
10.199953
 20
4.041239
 30
0.0
 40
0.0245413664097806
100
AcDbArc
 50
322.322744
 51
37.677256
  0
ARC
  5
F5
330
1F
100
AcDbEntity
  8
XR$1$TB_1414_1
  6
AUSGEZOGEN
 62
    14
440
 33554687
370
    -3
100
AcDbCircle
 10
10.204362
 20
4.041253
 30
0.0
 40
0.015
100
AcDbArc
 50
87.483256
 51
270.0
  0
LINE
  5
F6
330
1F
100
AcDbEntity
  8
XR$1$TB_1414_1
  6
AUSGEZOGEN
 62
     7
440
 33554687
370
    -3
100
AcDbLine
 10
10.204362
 20
4.026253
 30
0.0
 11
10.204362
 21
4.026239
 31
0.0
  0
ELLIPSE
  5
F7
330
1F
100
AcDbEntity
  8
XR$1$TB_1414_1
  6
AUSGEZOGEN
 62
    14
440
 33554687
370
    -3
100
AcDbEllipse
 10
10.217277
 20
4.431033
 30
0.0
 11
9.274313050253677E-19
 21
0.01514610262601562
 31
0.0
210
0.0
220
0.0
230
1.0
 40
0.468612
 41
0.0
 42
6.283185307179586
  0
LINE
  5
F8
330
1F
100
AcDbEntity
  8
XR$1$TB_1414_1
  6
AUSGEZOGEN
 62
    14
440
 33554687
370
    -3
100
AcDbLine
 10
10.202877
 20
4.434179
 30
0.0
 11
10.198377
 21
4.428179
 31
0.0
  0
ARC
  5
F9
330
1F
100
AcDbEntity
  8
XR$1$TB_1414_1
  6
AUSGEZOGEN
 62
    14
440
 33554687
370
    -3
100
AcDbCircle
 10
10.196877
 20
4.438679
 30
0.0
 40
0.0074999978542328
100
AcDbArc
 50
0.0
 51
89.999895
  0
ARC
  5
FA
330
1F
100
AcDbEntity
  8
XR$1$TB_1414_1
  6
AUSGEZOGEN
 62
    14
440
 33554687
370
    -3
100
AcDbCircle
 10
10.196877
 20
4.438679
 30
0.0
 40
0.0074999978542328
100
AcDbArc
 50
323.130097
 51
0.0
  0
ARC
  5
FB
330
1F
100
AcDbEntity
  8
XR$1$TB_1414_1
  6
AUSGEZOGEN
 62
    14
440
 33554687
370
    -3
100
AcDbCircle
 10
10.204377
 20
4.423679
 30
0.0
 40
0.0074999978542328
100
AcDbArc
 50
143.130127
 51
270.000003
  0
LINE
  5
FC
330
1F
100
AcDbEntity
  8
XR$1$TB_1414_1
  6
AUSGEZOGEN
 62
    14
440
 33554687
370
    -3
100
AcDbLine
 10
10.190877
 20
4.434179
 30
0.0
 11
10.195377
 21
4.428179
 31
0.0
  0
ARC
  5
FD
330
1F
100
AcDbEntity
  8
XR$1$TB_1414_1
  6
AUSGEZOGEN
 62
    14
440
 33554687
370
    -3
100
AcDbCircle
 10
10.196877
 20
4.438679
 30
0.0
 40
0.0074999978542328
100
AcDbArc
 50
180.00003
 51
216.869904
  0
ARC
  5
FE
330
1F
100
AcDbEntity
  8
XR$1$TB_1414_1
  6
AUSGEZOGEN
 62
    14
440
 33554687
370
    -3
100
AcDbCircle
 10
10.196877
 20
4.438679
 30
0.0
 40
0.0074999978542328
100
AcDbArc
 50
89.999875
 51
180.00003
  0
ARC
  5
FF
330
1F
100
AcDbEntity
  8
XR$1$TB_1414_1
  6
AUSGEZOGEN
 62
    14
440
 33554687
370
    -3
100
AcDbCircle
 10
10.189377
 20
4.423679
 30
0.0
 40
0.0074999978542328
100
AcDbArc
 50
270.000003
 51
36.869848
  0
LINE
  5
100
330
1F
100
AcDbEntity
  8
XR$1$TB_1414_1
  6
AUSGEZOGEN
 62
    14
440
 33554687
370
    -3
100
AcDbLine
 10
10.205877
 20
4.434179
 30
0.0
 11
10.210377
 21
4.428179
 31
0.0
  0
ARC
  5
101
330
1F
100
AcDbEntity
  8
XR$1$TB_1414_1
  6
AUSGEZOGEN
 62
    14
440
 33554687
370
    -3
100
AcDbCircle
 10
10.211877
 20
4.438679
 30
0.0
 40
0.0074999978542328
100
AcDbArc
 50
180.00003
 51
216.869904
  0
ARC
  5
102
330
1F
100
AcDbEntity
  8
XR$1$TB_1414_1
  6
AUSGEZOGEN
 62
    14
440
 33554687
370
    -3
100
AcDbCircle
 10
10.211877
 20
4.438679
 30
0.0
 40
0.0074999978542328
100
AcDbArc
 50
89.999875
 51
180.00003
  0
ARC
  5
103
330
1F
100
AcDbEntity
  8
XR$1$TB_1414_1
  6
AUSGEZOGEN
 62
    14
440
 33554687
370
    -3
100
AcDbCircle
 10
10.211877
 20
4.438679
 30
0.0
 40
0.0074999978542328
100
AcDbArc
 50
64.533142
 51
89.999895
  0
ARC
  5
104
330
1F
100
AcDbEntity
  8
XR$1$TB_1414_1
  6
AUSGEZOGEN
 62
    14
440
 33554687
370
    -3
100
AcDbCircle
 10
10.219377
 20
4.423679
 30
0.0
 40
0.0074999978542328
100
AcDbArc
 50
179.896828
 51
180.103172
  0
ARC
  5
105
330
1F
100
AcDbEntity
  8
XR$1$TB_1414_1
  6
AUSGEZOGEN
 62
    14
440
 33554687
370
    -3
100
AcDbCircle
 10
10.219377
 20
4.423679
 30
0.0
 40
0.0074999978542328
100
AcDbArc
 50
265.04269
 51
270.000003
  0
ARC
  5
106
330
1F
100
AcDbEntity
  8
XR$1$TB_1414_1
  6
AUSGEZOGEN
 62
    14
440
 33554687
370
    -3
100
AcDbCircle
 10
10.204377
 20
4.423679
 30
0.0
 40
0.0074999978542328
100
AcDbArc
 50
270.000003
 51
345.654017
  0
ARC
  5
107
330
1F
100
AcDbEntity
  8
XR$1$TB_1414_1
  6
AUSGEZOGEN
 62
    14
440
 33554687
370
    -3
100
AcDbCircle
 10
10.204377
 20
4.423679
 30
0.0
 40
0.0074999978542328
100
AcDbArc
 50
359.896828
 51
0.103172
  0
LINE
  5
108
330
1F
100
AcDbEntity
  8
XR$1$TB_1414_1
  6
AUSGEZOGEN
 62
    54
440
 33554687
370
    -3
100
AcDbLine
 10
10.219201
 20
4.416119
 30
0.0
 11
10.204201
 21
4.416119
 31
0.0
  0
LINE
  5
109
330
1F
100
AcDbEntity
  8
XR$1$TB_1414_1
  6
AUSGEZOGEN
 62
    54
440
 33554687
370
    -3
100
AcDbLine
 10
10.204377
 20
4.416179
 30
0.0
 11
10.204377
 21
4.062452
 31
0.0
  0
LINE
  5
10A
330
1F
100
AcDbEntity
  8
XR$1$TB_1414_1
  6
VERDECKT2_S2
 62
     7
440
 33554687
370
    50
100
AcDbLine
 10
10.204177
 20
4.416179
 30
0.0
 11
10.204177
 21
4.062646
 31
0.0
  0
LINE
  5
10B
330
1F
100
AcDbEntity
  8
XR$1$TB_1414_1
  6
VERDECKT2_S2
 62
     7
440
 33554687
370
    50
100
AcDbLine
 10
10.204177
 20
4.056252
 30
0.0
 11
10.204177
 21
4.056239
 31
0.0
  0
CIRCLE
  5
10C
330
1F
100
AcDbEntity
  8
XR$1$TB_1414_1
  6
AUSGEZOGEN
 62
     7
440
 33554687
370
    -3
100
AcDbCircle
 10
10.226341
 20
3.912965
 30
0.0
 40
0.0177913987405051
  0
MTEXT
  5
10D
330
1F
100
AcDbEntity
  8
XR$1$TB_1414_1
  6
AUSGEZOGEN
 62
    14
440
 33554687
370
    -3
100
AcDbMText
 10
10.220284
 20
3.9054
 30
0.0
 40
0.0175
 41
0.022374
 46
0.0
 71
     7
 72
     5
  1
\W0.99;6
  7
ARIAL
 73
     1
 44
1.0
  0
CIRCLE
  5
10E
330
1F
100
AcDbEntity
  8
XR$1$TB_1414_1
  6
AUSGEZOGEN
 62
     7
440
 33554687
370
    -3
100
AcDbCircle
 10
10.33525
 20
4.422491
 30
0.0
 40
0.0177913987405051
  0
MTEXT
  5
10F
330
1F
100
AcDbEntity
  8
XR$1$TB_1414_1
  6
AUSGEZOGEN
 62
     7
440
 33554687
370
    -3
100
AcDbMText
 10
10.32879
 20
4.413776
 30
0.0
 40
0.0175
 41
0.022374
 46
0.0
 71
     7
 72
     5
  1
\W0.99;6
  7
ARIAL
 73
     1
 44
1.0
  0
LINE
  5
110
330
1F
100
AcDbEntity
  8
XR$1$TB_1414_1
  6
AUSGEZOGEN
 62
     7
440
 33554687
370
    -3
100
AcDbLine
 10
10.263317
 20
4.372491
 30
0.0
 11
10.317459
 21
4.372491
 31
0.0
  0
CIRCLE
  5
111
330
1F
100
AcDbEntity
  8
XR$1$TB_1414_1
  6
AUSGEZOGEN
 62
     7
440
 33554687
370
    -3
100
AcDbCircle
 10
10.33525
 20
4.372178
 30
0.0
 40
0.0177913987405051
  0
MTEXT
  5
112
330
1F
100
AcDbEntity
  8
XR$1$TB_1414_1
  6
AUSGEZOGEN
 62
     7
440
 33554687
370
    -3
100
AcDbMText
 10
10.32843
 20
4.363411
 30
0.0
 40
0.0175
 41
0.022374
 46
0.0
 71
     7
 72
     5
  1
\W0.99;7
  7
ARIAL
 73
     1
 44
1.0
  0
LINE
  5
113
330
1F
100
AcDbEntity
  8
XR$1$TB_1414_1
  6
AUSGEZOGEN
 62
     7
440
 33554687
370
    -3
100
AcDbLine
 10
10.316633
 20
4.322491
 30
0.0
 11
10.26799
 21
4.322491
 31
0.0
  0
CIRCLE
  5
114
330
1F
100
AcDbEntity
  8
XR$1$TB_1414_1
  6
AUSGEZOGEN
 62
     7
440
 33554687
370
    -3
100
AcDbCircle
 10
10.334424
 20
4.322434
 30
0.0
 40
0.0177913987405051
  0
MTEXT
  5
115
330
1F
100
AcDbEntity
  8
XR$1$TB_1414_1
  6
AUSGEZOGEN
 62
     7
440
 33554687
370
    -3
100
AcDbMText
 10
10.327788
 20
4.313667
 30
0.0
 40
0.0175
 41
0.022374
 46
0.0
 71
     7
 72
     5
  1
\W0.99;8
  7
ARIAL
 73
     1
 44
1.0
  0
LINE
  5
116
330
1F
100
AcDbEntity
  8
XR$1$TB_1414_1
  6
AUSGEZOGEN
 62
     7
440
 33554687
370
    -3
100
AcDbLine
 10
10.317459
 20
4.272491
 30
0.0
 11
10.229359
 21
4.272491
 31
0.0
  0
CIRCLE
  5
117
330
1F
100
AcDbEntity
  8
XR$1$TB_1414_1
  6
AUSGEZOGEN
 62
     7
440
 33554687
370
    -3
100
AcDbCircle
 10
10.33525
 20
4.272491
 30
0.0
 40
0.0177913987405051
  0
MTEXT
  5
118
330
1F
100
AcDbEntity
  8
XR$1$TB_1414_1
  6
AUSGEZOGEN
 62
     7
440
 33554687
370
    -3
100
AcDbMText
 10
10.32843
 20
4.263724
 30
0.0
 40
0.0175
 41
0.022374
 46
0.0
 71
     7
 72
     5
  1
\W0.99;5
  7
ARIAL
 73
     1
 44
1.0
  0
LINE
  5
119
330
1F
100
AcDbEntity
  8
XR$1$TB_1414_1
  6
AUSGEZOGEN
 62
     7
440
 33554687
370
    -3
100
AcDbLine
 10
10.212073
 20
4.222491
 30
0.0
 11
10.317459
 21
4.222491
 31
0.0
  0
CIRCLE
  5
11A
330
1F
100
AcDbEntity
  8
XR$1$TB_1414_1
  6
AUSGEZOGEN
 62
     7
440
 33554687
370
    -3
100
AcDbCircle
 10
10.33525
 20
4.221268
 30
0.0
 40
0.0177913987405051
  0
MTEXT
  5
11B
330
1F
100
AcDbEntity
  8
XR$1$TB_1414_1
  6
AUSGEZOGEN
 62
     7
440
 33554687
370
    -3
100
AcDbMText
 10
10.32843
 20
4.212501
 30
0.0
 40
0.0175
 41
0.022374
 46
0.0
 71
     7
 72
     5
  1
\W0.99;4
  7
ARIAL
 73
     1
 44
1.0
  0
LINE
  5
11C
330
1F
100
AcDbEntity
  8
XR$1$TB_1414_1
  6
AUSGEZOGEN
 62
     7
440
 33554687
370
    -3
100
AcDbLine
 10
10.316633
 20
4.172491
 30
0.0
 11
10.204177
 21
4.172491
 31
0.0
  0
CIRCLE
  5
11D
330
1F
100
AcDbEntity
  8
XR$1$TB_1414_1
  6
AUSGEZOGEN
 62
     7
440
 33554687
370
    -3
100
AcDbCircle
 10
10.334424
 20
4.172434
 30
0.0
 40
0.0177913987405051
  0
MTEXT
  5
11E
330
1F
100
AcDbEntity
  8
XR$1$TB_1414_1
  6
AUSGEZOGEN
 62
     7
440
 33554687
370
    -3
100
AcDbMText
 10
10.327604
 20
4.163667
 30
0.0
 40
0.0175
 41
0.022374
 46
0.0
 71
     7
 72
     5
  1
\W0.99;3
  7
ARIAL
 73
     1
 44
1.0
  0
LINE
  5
11F
330
1F
100
AcDbEntity
  8
XR$1$TB_1414_1
  6
AUSGEZOGEN
 62
     7
440
 33554687
370
    -3
100
AcDbLine
 10
10.315807
 20
4.122491
 30
0.0
 11
10.186241
 21
4.122491
 31
0.0
  0
MTEXT
  5
120
330
1F
100
AcDbEntity
  8
XR$1$TB_1414_1
  6
AUSGEZOGEN
 62
     7
440
 33554687
370
    -3
100
AcDbMText
 10
10.326778
 20
4.113667
 30
0.0
 40
0.0175
 41
0.022374
 46
0.0
 71
     7
 72
     5
  1
\W0.99;2
  7
ARIAL
 73
     1
 44
1.0
  0
CIRCLE
  5
121
330
1F
100
AcDbEntity
  8
XR$1$TB_1414_1
  6
AUSGEZOGEN
 62
     7
440
 33554687
370
    -3
100
AcDbCircle
 10
10.333598
 20
4.122434
 30
0.0
 40
0.0177913987405051
  0
LINE
  5
122
330
1F
100
AcDbEntity
  8
XR$1$TB_1414_1
  6
AUSGEZOGEN
 62
     7
440
 33554687
370
    -3
100
AcDbLine
 10
10.316633
 20
4.072491
 30
0.0
 11
10.096245
 21
4.072491
 31
0.0
  0
MTEXT
  5
123
330
1F
100
AcDbEntity
  8
XR$1$TB_1414_1
  6
AUSGEZOGEN
 62
     7
440
 33554687
370
    -3
100
AcDbMText
 10
10.327604
 20
4.063724
 30
0.0
 40
0.0175
 41
0.021605
 46
0.0
 71
     7
 72
     5
  1
\W0.90;1
  7
ARIAL
 73
     1
 44
1.0
  0
CIRCLE
  5
124
330
1F
100
AcDbEntity
  8
XR$1$TB_1414_1
  6
AUSGEZOGEN
 62
     7
440
 33554687
370
    -3
100
AcDbCircle
 10
10.334424
 20
4.072491
 30
0.0
 40
0.0177913987405051
  0
LINE
  5
125
330
1F
100
AcDbEntity
  8
XR$1$TB_1414_1
  6
AUSGEZOGEN
 62
     7
440
 33554687
370
    -3
100
AcDbLine
 10
10.214377
 20
4.425826
 30
0.0
 11
10.263317
 21
4.372491
 31
0.0
  0
LINE
  5
126
330
1F
100
AcDbEntity
  8
XR$1$TB_1414_1
  6
AUSGEZOGEN
 62
     7
440
 33554687
370
    -3
100
AcDbLine
 10
10.174377
 20
4.418326
 30
0.0
 11
10.26799
 21
4.322491
 31
0.0
  0
LINE
  5
127
330
1F
100
AcDbEntity
  8
XR$1$TB_1414_1
  6
AUSGEZOGEN
 62
     7
440
 33554687
370
    -3
100
AcDbLine
 10
10.166435
 20
3.930757
 30
0.0
 11
10.166435
 21
3.999173
 31
0.0
  0
CIRCLE
  5
128
330
1F
100
AcDbEntity
  8
XR$1$TB_1414_1
  6
AUSGEZOGEN
 62
     7
440
 33554687
370
    -3
100
AcDbCircle
 10
10.166341
 20
3.912965
 30
0.0
 40
0.0177913987405051
  0
MTEXT
  5
129
330
1F
100
AcDbEntity
  8
XR$1$TB_1414_1
  6
AUSGEZOGEN
 62
    14
440
 33554687
370
    -3
100
AcDbMText
 10
10.160284
 20
3.9054
 30
0.0
 40
0.0175
 41
0.022374
 46
0.0
 71
     7
 72
     5
  1
\W0.99;7
  7
ARIAL
 73
     1
 44
1.0
  0
LINE
  5
12A
330
1F
100
AcDbEntity
  8
XR$1$TB_1414_1
  6
AUSGEZOGEN
 62
     7
440
 33554687
370
    -3
100
AcDbLine
 10
10.106435
 20
3.930757
 30
0.0
 11
10.106435
 21
3.992832
 31
0.0
  0
CIRCLE
  5
12B
330
1F
100
AcDbEntity
  8
XR$1$TB_1414_1
  6
AUSGEZOGEN
 62
     7
440
 33554687
370
    -3
100
AcDbCircle
 10
10.106478
 20
3.912965
 30
0.0
 40
0.0177913987405051
  0
MTEXT
  5
12C
330
1F
100
AcDbEntity
  8
XR$1$TB_1414_1
  6
AUSGEZOGEN
 62
    14
440
 33554687
370
    -3
100
AcDbMText
 10
10.100001
 20
3.905561
 30
0.0
 40
0.0175
 41
0.022374
 46
0.0
 71
     7
 72
     5
  1
\W0.99;8
  7
ARIAL
 73
     1
 44
1.0
  0
LINE
  5
12D
330
1F
100
AcDbEntity
  8
XR$1$TB_1414_1
  6
AUSGEZOGEN
 62
    14
440
 33554687
370
    -3
100
AcDbLine
 10
10.207226
 20
4.041239
 30
0.0
 11
10.166435
 21
3.999173
 31
0.0
  0
LINE
  5
12E
330
1F
100
AcDbEntity
  8
XR$1$TB_1414_1
  6
AUSGEZOGEN
 62
    14
440
 33554687
370
    -3
100
AcDbLine
 10
10.186454
 20
4.057967
 30
0.0
 11
10.106435
 21
3.992832
 31
0.0
  0
LINE
  5
12F
330
1F
100
AcDbEntity
  8
XR$1$TB_1414_1
  6
AUSGEZOGEN
 62
     3
440
 33554687
370
    25
100
AcDbLine
 10
10.252377
 20
4.526179
 30
0.0
 11
10.252377
 21
4.541179
 31
0.0
  0
LINE
  5
130
330
1F
100
AcDbEntity
  8
XR$1$TB_1414_1
  6
AUSGEZOGEN
 62
     3
440
 33554687
370
    25
100
AcDbLine
 10
10.332377
 20
4.541179
 30
0.0
 11
10.332377
 21
4.481179
 31
0.0
  0
LINE
  5
131
330
1F
100
AcDbEntity
  8
XR$1$TB_1414_1
  6
AUSGEZOGEN
 62
     3
440
 33554687
370
    25
100
AcDbLine
 10
10.277377
 20
4.481179
 30
0.0
 11
10.332377
 21
4.481179
 31
0.0
  0
LINE
  5
132
330
1F
100
AcDbEntity
  8
XR$1$TB_1414_1
  6
AUSGEZOGEN
 62
     3
440
 33554687
370
    25
100
AcDbLine
 10
10.252377
 20
4.541179
 30
0.0
 11
10.332377
 21
4.541179
 31
0.0
  0
LINE
  5
133
330
1F
100
AcDbEntity
  8
XR$1$TB_1414_1
  6
AUSGEZOGEN
 62
     3
440
 33554687
370
    25
100
AcDbLine
 10
10.277377
 20
4.526179
 30
0.0
 11
10.277377
 21
4.446179
 31
0.0
  0
LINE
  5
134
330
1F
100
AcDbEntity
  8
XR$1$TB_1414_1
  6
AUSGEZOGEN
 62
    14
440
 33554687
370
    -3
100
AcDbLine
 10
10.174377
 20
4.71598
 30
0.0
 11
10.174377
 21
4.526179
 31
0.0
  0
LINE
  5
135
330
1F
100
AcDbEntity
  8
XR$1$TB_1414_1
  6
AUSGEZOGEN
 62
     3
440
 33554687
370
    25
100
AcDbLine
 10
10.277377
 20
4.526179
 30
0.0
 11
10.159377
 21
4.526179
 31
0.0
  0
LINE
  5
136
330
1F
100
AcDbEntity
  8
XR$1$TB_1414_1
  6
AUSGEZOGEN
 62
     3
440
 33554687
370
    25
100
AcDbLine
 10
10.169377
 20
4.526179
 30
0.0
 11
10.169377
 21
4.446179
 31
0.0
  0
LINE
  5
137
330
1F
100
AcDbEntity
  8
XR$1$TB_1414_1
  6
AUSGEZOGEN
 62
     7
440
 33554687
370
    -3
100
AcDbLine
 10
10.421377
 20
4.541179
 30
0.0
 11
10.332377
 21
4.541179
 31
0.0
  0
LINE
  5
138
330
1F
100
AcDbEntity
  8
XR$1$TB_1414_1
  6
AUSGEZOGEN
 62
     7
440
 33554687
370
    -3
100
AcDbLine
 10
10.421377
 20
4.523179
 30
0.0
 11
10.332377
 21
4.523179
 31
0.0
  0
LINE
  5
139
330
1F
100
AcDbEntity
  8
XR$1$TB_1414_1
  6
AUSGEZOGEN
 62
     7
440
 33554687
370
    -3
100
AcDbLine
 10
10.421377
 20
4.519179
 30
0.0
 11
10.332377
 21
4.519179
 31
0.0
  0
LINE
  5
13A
330
1F
100
AcDbEntity
  8
XR$1$TB_1414_1
  6
AUSGEZOGEN
 62
     7
440
 33554687
370
    -3
100
AcDbLine
 10
10.421377
 20
4.499179
 30
0.0
 11
10.332377
 21
4.499179
 31
0.0
  0
LINE
  5
13B
330
1F
100
AcDbEntity
  8
XR$1$TB_1414_1
  6
AUSGEZOGEN
 62
     7
440
 33554687
370
    -3
100
AcDbLine
 10
10.421377
 20
4.503179
 30
0.0
 11
10.332377
 21
4.503179
 31
0.0
  0
LINE
  5
13C
330
1F
100
AcDbEntity
  8
XR$1$TB_1414_1
  6
AUSGEZOGEN
 62
     7
440
 33554687
370
    -3
100
AcDbLine
 10
10.421377
 20
4.481179
 30
0.0
 11
10.332377
 21
4.481179
 31
0.0
  0
MTEXT
  5
13D
330
1F
100
AcDbEntity
  8
XR$1$TB_1414_1
  6
AUSGEZOGEN
 62
     7
440
 33554687
370
    -3
100
AcDbMText
 10
10.379551
 20
3.667508
 30
0.0
 40
0.009
 41
0.095517
 46
0.0
 71
     7
 72
     5
  1
\W0.91;STAND: Juli 2019
  7
ARIAL
 73
     1
 44
1.0
  0
VIEWPORT
  5
72
330
6E
100
AcDbEntity
 67
     1
  8
0
100
AcDbViewport
 10
0.105
 20
0.148499
 30
0.0
 40
0.2102
 41
0.297197
 68
     1
 69
     1
 12
0.105
 22
0.148499
 13
0.0
 23
0.0
 14
0.5
 24
0.5
 15
0.5
 25
0.5
 16
0.0
 26
0.0
 36
1.0
 17
0.0
 27
0.0
 37
0.0
 42
50.0
 43
0.0
 44
0.0
 45
0.297197
 50
0.0
 51
0.0
 72
   100
 90
   557152
  1

281
     0
 71
     1
 74
     0
110
0.0
120
0.0
130
0.0
111
1.0
121
0.0
131
0.0
112
0.0
122
1.0
132
0.0
 79
     0
146
0.0
170
     0
 61
     5
348
2F
292
     1
282
     1
141
0.0
142
0.0
 63
   256
361
73
  0
VIEWPORT
  5
140
330
6E
100
AcDbEntity
 67
     1
  8
PLAN_1414
  6
AUSGEZOGEN
 62
     7
370
    35
100
AcDbViewport
 10
0.105
 20
0.148499
 30
0.0
 40
0.2102
 41
0.297197
 68
     2
 69
     2
 12
0.0
 22
0.0
 13
0.0
 23
0.0
 14
1.0
 24
1.0
 15
0.0
 25
0.0
 16
0.0
 26
0.0
 36
1.0
 17
10.007575
 27
4.306338
 37
0.0
 42
50.0
 43
0.0
 44
0.0
 45
1.485985
 50
0.0
 51
0.0
 72
   100
331
10
331
76
331
78
 90
   557280
  1

281
     0
 71
     1
 74
     0
110
0.0
120
0.0
130
0.0
111
1.0
121
0.0
131
0.0
112
0.0
122
1.0
132
0.0
 79
     0
146
0.0
170
     0
 61
     5
348
2F
292
     1
282
     1
141
0.0
142
0.0
 63
   256
361
141
  0
ENDSEC
  0
SECTION
  2
OBJECTS
  0
DICTIONARY
  5
C
330
0
100
AcDbDictionary
281
     1
  3
ACAD_DETAILVIEWSTYLE
350
179
  3
ACAD_GROUP
350
D
  3
ACAD_LAYOUT
350
1A
  3
ACAD_MATERIAL
350
43
  3
ACAD_MLEADERSTYLE
350
6B
  3
ACAD_MLINESTYLE
350
17
  3
ACAD_PLOTSETTINGS
350
19
  3
ACAD_PLOTSTYLENAME
350
E
  3
ACAD_SCALELIST
350
47
  3
ACAD_SECTIONVIEWSTYLE
350
17A
  3
ACAD_TABLESTYLE
350
69
  3
ACAD_VISUALSTYLE
350
2A
  3
ACDB_RECOMPOSE_DATA
350
176
  3
AcDbVariableDictionary
350
142
  0
SUN
  5
6D
330
29
100
AcDbSun
 90
        1
290
     0
 63
     7
421
 16777215
 40
1.0
291
     1
 91
  2455826
 92
 54000000
292
     0
 70
     2
 71
   256
280
     1
  0
DICTIONARY
  5
13E
330
1F
100
AcDbDictionary
280
     1
281
     1
  3
ACAD_SORTENTS
360
13F
  0
SUN
  5
73
330
72
100
AcDbSun
 90
        1
290
     0
 63
     7
421
 16777215
 40
1.0
291
     1
 91
  2455826
 92
 54000000
292
     0
 70
     2
 71
   256
280
     1
  0
SUN
  5
141
330
140
100
AcDbSun
 90
        1
290
     0
 63
     7
421
 16777215
 40
1.0
291
     1
 91
  2455826
 92
 54000000
292
     0
 70
     2
 71
   256
280
     1
  0
DICTIONARY
  5
179
102
{ACAD_REACTORS
330
C
102
}
330
C
100
AcDbDictionary
281
     1
  0
DICTIONARY
  5
D
102
{ACAD_REACTORS
330
C
102
}
330
C
100
AcDbDictionary
281
     1
  3
VERBUNDBLOCK_0
350
7F
  0
DICTIONARY
  5
1A
102
{ACAD_REACTORS
330
C
102
}
330
C
100
AcDbDictionary
281
     1
  3
Baukeramikfassade 15
350
6F
  3
Model
350
22
  0
DICTIONARY
  5
43
102
{ACAD_REACTORS
330
C
102
}
330
C
100
AcDbDictionary
281
     1
  3
ByBlock
350
45
  3
ByLayer
350
44
  3
Global
350
46
  0
DICTIONARY
  5
6B
102
{ACAD_REACTORS
330
C
102
}
330
C
100
AcDbDictionary
281
     1
  3
Standard
350
6C
  0
DICTIONARY
  5
17
102
{ACAD_REACTORS
330
C
102
}
330
C
100
AcDbDictionary
281
     1
  3
Standard
350
18
  0
DICTIONARY
  5
19
102
{ACAD_REACTORS
330
C
102
}
330
C
100
AcDbDictionary
281
     1
  0
ACDBDICTIONARYWDFLT
  5
E
102
{ACAD_REACTORS
330
C
102
}
330
C
100
AcDbDictionary
281
     1
  3
Normal
350
F
100
AcDbDictionaryWithDefault
340
F
  0
DICTIONARY
  5
47
102
{ACAD_REACTORS
330
C
102
}
330
C
100
AcDbDictionary
281
     1
  3
A0
350
48
  3
A1
350
49
  3
A2
350
4A
  3
A3
350
4B
  3
A4
350
4C
  3
A5
350
4D
  3
A6
350
4E
  3
A7
350
4F
  3
A8
350
50
  3
A9
350
51
  3
B0
350
52
  3
B1
350
53
  3
B2
350
54
  3
B3
350
55
  3
B4
350
56
  3
B5
350
57
  3
B6
350
58
  3
B7
350
59
  3
B8
350
5A
  3
B9
350
5B
  3
C0
350
5C
  3
C1
350
5D
  3
C2
350
5E
  3
C3
350
5F
  3
C4
350
60
  3
C5
350
61
  3
C6
350
62
  3
C7
350
63
  3
C8
350
64
  3
C9
350
65
  3
D0
350
66
  3
D1
350
67
  3
D2
350
68
  0
DICTIONARY
  5
17A
102
{ACAD_REACTORS
330
C
102
}
330
C
100
AcDbDictionary
281
     1
  0
DICTIONARY
  5
69
102
{ACAD_REACTORS
330
C
102
}
330
C
100
AcDbDictionary
281
     1
  3
Standard
350
6A
  0
DICTIONARY
  5
2A
102
{ACAD_REACTORS
330
C
102
}
330
C
100
AcDbDictionary
281
     1
  3
2dWireframe
350
2F
  3
Basic
350
32
  3
Brighten
350
36
  3
ColorChange
350
3A
  3
Conceptual
350
34
  3
Dim
350
35
  3
EdgeColorOff
350
3D
  3
Facepattern
350
39
  3
Flat
350
2B
  3
FlatWithEdges
350
2C
  3
Gouraud
350
2D
  3
GouraudWithEdges
350
2E
  3
Hidden
350
31
  3
JitterOff
350
3B
  3
Linepattern
350
38
  3
OverhangOff
350
3C
  3
Realistic
350
33
  3
Shaded
350
42
  3
Shaded with edges
350
41
  3
Shades of Gray
350
3E
  3
Sketchy
350
3F
  3
Thicken
350
37
  3
Wireframe
350
30
  3
X-Ray
350
40
  0
XRECORD
  5
176
102
{ACAD_REACTORS
330
C
102
}
330
C
100
AcDbXrecord
280
     1
 90
        1
330
6A
  0
DICTIONARY
  5
142
102
{ACAD_REACTORS
330
C
102
}
330
C
100
AcDbDictionary
281
     1
  3
CANNOSCALE
350
143
  3
CMLEADERSTYLE
350
178
  3
CTABLESTYLE
350
177
  0
SORTENTSTABLE
  5
13F
102
{ACAD_REACTORS
330
13E
102
}
330
13E
100
AcDbSortentsTable
330
1F
331
82
  5
84
331
83
  5
85
331
84
  5
86
331
85
  5
87
331
86
  5
88
331
87
  5
89
331
88
  5
8A
331
89
  5
8B
331
8A
  5
8C
331
8B
  5
8D
331
8C
  5
8E
331
8D
  5
8F
331
8E
  5
90
331
8F
  5
91
331
90
  5
92
331
91
  5
93
331
92
  5
95
331
93
  5
96
331
95
  5
97
331
96
  5
98
331
97
  5
99
331
98
  5
9A
331
99
  5
9B
331
9A
  5
9C
331
9B
  5
9D
331
9C
  5
82
331
9D
  5
83
  0
GROUP
  5
7F
102
{ACAD_REACTORS
330
D
102
}
330
D
100
AcDbGroup
300

 70
     0
 71
     1
340
80
340
81
  0
LAYOUT
  5
6F
102
{ACAD_REACTORS
330
1A
102
}
330
1A
100
AcDbPlotSettings
  1

  2
none_device
  4
none_user_media
  6

 40
0.0
 41
0.0
 42
0.0
 43
0.0
 44
297.0
 45
209.9
 46
0.0
 47
0.0
 48
0.0
 49
0.0
140
0.0
141
0.0
142
1000.0
143
1.0
 70
   688
 72
     1
 73
     1
 74
     5
  7

 75
    33
 76
     0
 77
     2
 78
   300
147
1000.0
148
0.0
149
0.0
100
AcDbLayout
  1
Baukeramikfassade 15
 70
     0
 71
     1
 10
-0.0001
 20
-0.0001
 11
0.2101
 21
0.297097
 12
0.0
 22
0.0
 32
0.0
 14
-0.0001
 24
-0.0001
 34
0.0
 15
0.2101
 25
0.297097
 35
0.0
146
0.0
 13
0.0
 23
0.0
 33
0.0
 16
1.0
 26
0.0
 36
0.0
 17
0.0
 27
1.0
 37
0.0
 76
     0
330
6E
331
72
  0
LAYOUT
  5
22
102
{ACAD_REACTORS
330
1A
102
}
330
1A
100
AcDbPlotSettings
  1

  2
none_device
  4
Letter_(8.50_x_11.00_Inches)
  6

 40
6.35
 41
6.35
 42
6.350005
 43
6.350005
 44
215.9
 45
279.4
 46
0.0
 47
0.0
 48
0.0
 49
0.0
140
0.0
141
0.0
142
1.0
143
1.0
 70
  1712
 72
     0
 73
     0
 74
     0
  7

 75
     0
 76
     0
 77
     2
 78
   300
147
1.0
148
0.0
149
0.0
100
AcDbLayout
  1
Model
 70
     1
 71
     0
 10
9.482575
 20
3.563845
 11
10.532575
 21
5.04883
 12
0.0
 22
0.0
 32
0.0
 14
9.482575
 24
3.563845
 34
9.482575
 15
10.532575
 25
5.04883
 35
10.532575
146
0.0
 13
0.0
 23
0.0
 33
0.0
 16
1.0
 26
0.0
 36
0.0
 17
0.0
 27
1.0
 37
0.0
 76
     0
330
1F
331
29
  0
MATERIAL
  5
45
102
{ACAD_REACTORS
330
43
102
}
330
43
100
AcDbMaterial
  1
ByBlock
 72
     1
 94
      127
  0
MATERIAL
  5
44
102
{ACAD_REACTORS
330
43
102
}
330
43
100
AcDbMaterial
  1
ByLayer
 72
     1
 94
      127
  0
MATERIAL
  5
46
102
{ACAD_REACTORS
330
43
102
}
330
43
100
AcDbMaterial
  1
Global
 72
     1
 94
      127
  0
MLEADERSTYLE
  5
6C
102
{ACAD_REACTORS
330
6B
102
}
330
6B
100
AcDbMLeaderStyle
179
     2
170
     2
171
     1
172
     0
 90
        2
 40
0.0
 41
0.0
173
     1
 91
-1056964608
340
14
 92
       -2
290
     1
 42
0.09
291
     1
 43
0.36
  3
Standard
341
0
 44
0.18
300

342
11
174
     1
178
     6
175
     1
176
     0
 93
-1056964608
 45
0.18
292
     0
297
     0
 46
0.18
343
0
 94
-1056964608
 47
1.0
 49
1.0
140
1.0
293
     1
141
0.0
294
     1
177
     0
142
1.0
295
     0
296
     0
143
0.125
271
     0
272
     9
273
     9
  0
MLINESTYLE
  5
18
102
{ACAD_REACTORS
330
17
102
}
330
17
100
AcDbMlineStyle
  2
Standard
 70
     0
  3

 62
   256
 51
90.0
 52
90.0
 71
     2
 49
0.5
 62
   256
  6
BYLAYER
 49
-0.5
 62
   256
  6
BYLAYER
  0
ACDBPLACEHOLDER
  5
F
102
{ACAD_REACTORS
330
E
102
}
330
E
  0
SCALE
  5
48
102
{ACAD_REACTORS
330
47
102
}
330
47
100
AcDbScale
 70
     0
300
1:1
140
1.0
141
1.0
290
     1
  0
SCALE
  5
49
102
{ACAD_REACTORS
330
47
102
}
330
47
100
AcDbScale
 70
     0
300
1:2
140
1.0
141
2.0
290
     0
  0
SCALE
  5
4A
102
{ACAD_REACTORS
330
47
102
}
330
47
100
AcDbScale
 70
     0
300
1:4
140
1.0
141
4.0
290
     0
  0
SCALE
  5
4B
102
{ACAD_REACTORS
330
47
102
}
330
47
100
AcDbScale
 70
     0
300
1:5
140
1.0
141
5.0
290
     0
  0
SCALE
  5
4C
102
{ACAD_REACTORS
330
47
102
}
330
47
100
AcDbScale
 70
     0
300
1:8
140
1.0
141
8.0
290
     0
  0
SCALE
  5
4D
102
{ACAD_REACTORS
330
47
102
}
330
47
100
AcDbScale
 70
     0
300
1:10
140
1.0
141
10.0
290
     0
  0
SCALE
  5
4E
102
{ACAD_REACTORS
330
47
102
}
330
47
100
AcDbScale
 70
     0
300
1:16
140
1.0
141
16.0
290
     0
  0
SCALE
  5
4F
102
{ACAD_REACTORS
330
47
102
}
330
47
100
AcDbScale
 70
     0
300
1:20
140
1.0
141
20.0
290
     0
  0
SCALE
  5
50
102
{ACAD_REACTORS
330
47
102
}
330
47
100
AcDbScale
 70
     0
300
1:30
140
1.0
141
30.0
290
     0
  0
SCALE
  5
51
102
{ACAD_REACTORS
330
47
102
}
330
47
100
AcDbScale
 70
     0
300
1:40
140
1.0
141
40.0
290
     0
  0
SCALE
  5
52
102
{ACAD_REACTORS
330
47
102
}
330
47
100
AcDbScale
 70
     0
300
1:50
140
1.0
141
50.0
290
     0
  0
SCALE
  5
53
102
{ACAD_REACTORS
330
47
102
}
330
47
100
AcDbScale
 70
     0
300
1:100
140
1.0
141
100.0
290
     0
  0
SCALE
  5
54
102
{ACAD_REACTORS
330
47
102
}
330
47
100
AcDbScale
 70
     0
300
2:1
140
2.0
141
1.0
290
     0
  0
SCALE
  5
55
102
{ACAD_REACTORS
330
47
102
}
330
47
100
AcDbScale
 70
     0
300
4:1
140
4.0
141
1.0
290
     0
  0
SCALE
  5
56
102
{ACAD_REACTORS
330
47
102
}
330
47
100
AcDbScale
 70
     0
300
8:1
140
8.0
141
1.0
290
     0
  0
SCALE
  5
57
102
{ACAD_REACTORS
330
47
102
}
330
47
100
AcDbScale
 70
     0
300
10:1
140
10.0
141
1.0
290
     0
  0
SCALE
  5
58
102
{ACAD_REACTORS
330
47
102
}
330
47
100
AcDbScale
 70
     0
300
100:1
140
100.0
141
1.0
290
     0
  0
SCALE
  5
59
102
{ACAD_REACTORS
330
47
102
}
330
47
100
AcDbScale
 70
     0
300
1/128" = 1'-0"
140
0.007812
141
12.0
290
     0
  0
SCALE
  5
5A
102
{ACAD_REACTORS
330
47
102
}
330
47
100
AcDbScale
 70
     0
300
1/64" = 1'-0"
140
0.015625
141
12.0
290
     0
  0
SCALE
  5
5B
102
{ACAD_REACTORS
330
47
102
}
330
47
100
AcDbScale
 70
     0
300
1/32" = 1'-0"
140
0.03125
141
12.0
290
     0
  0
SCALE
  5
5C
102
{ACAD_REACTORS
330
47
102
}
330
47
100
AcDbScale
 70
     0
300
1/16" = 1'-0"
140
0.0625
141
12.0
290
     0
  0
SCALE
  5
5D
102
{ACAD_REACTORS
330
47
102
}
330
47
100
AcDbScale
 70
     0
300
3/32" = 1'-0"
140
0.09375
141
12.0
290
     0
  0
SCALE
  5
5E
102
{ACAD_REACTORS
330
47
102
}
330
47
100
AcDbScale
 70
     0
300
1/8" = 1'-0"
140
0.125
141
12.0
290
     0
  0
SCALE
  5
5F
102
{ACAD_REACTORS
330
47
102
}
330
47
100
AcDbScale
 70
     0
300
3/16" = 1'-0"
140
0.1875
141
12.0
290
     0
  0
SCALE
  5
60
102
{ACAD_REACTORS
330
47
102
}
330
47
100
AcDbScale
 70
     0
300
1/4" = 1'-0"
140
0.25
141
12.0
290
     0
  0
SCALE
  5
61
102
{ACAD_REACTORS
330
47
102
}
330
47
100
AcDbScale
 70
     0
300
3/8" = 1'-0"
140
0.375
141
12.0
290
     0
  0
SCALE
  5
62
102
{ACAD_REACTORS
330
47
102
}
330
47
100
AcDbScale
 70
     0
300
1/2" = 1'-0"
140
0.5
141
12.0
290
     0
  0
SCALE
  5
63
102
{ACAD_REACTORS
330
47
102
}
330
47
100
AcDbScale
 70
     0
300
3/4" = 1'-0"
140
0.75
141
12.0
290
     0
  0
SCALE
  5
64
102
{ACAD_REACTORS
330
47
102
}
330
47
100
AcDbScale
 70
     0
300
1" = 1'-0"
140
1.0
141
12.0
290
     0
  0
SCALE
  5
65
102
{ACAD_REACTORS
330
47
102
}
330
47
100
AcDbScale
 70
     0
300
1-1/2" = 1'-0"
140
1.5
141
12.0
290
     0
  0
SCALE
  5
66
102
{ACAD_REACTORS
330
47
102
}
330
47
100
AcDbScale
 70
     0
300
3" = 1'-0"
140
3.0
141
12.0
290
     0
  0
SCALE
  5
67
102
{ACAD_REACTORS
330
47
102
}
330
47
100
AcDbScale
 70
     0
300
6" = 1'-0"
140
6.0
141
12.0
290
     0
  0
SCALE
  5
68
102
{ACAD_REACTORS
330
47
102
}
330
47
100
AcDbScale
 70
     0
300
1'-0" = 1'-0"
140
12.0
141
12.0
290
     0
  0
TABLESTYLE
  5
6A
102
{ACAD_REACTORS
330
69
102
}
102
{ACAD_XDICTIONARY
360
174
102
}
330
69
100
AcDbTableStyle
  3
Standard
 70
     0
 71
     0
 40
0.06
 41
0.06
280
     0
281
     0
  7
Standard
140
0.18
170
     2
 62
     0
 63
   257
283
     0
 90
        4
 91
        0
  1

274
    -2
284
     1
 64
     0
275
    -2
285
     1
 65
     0
276
    -2
286
     1
 66
     0
277
    -2
287
     1
 67
     0
278
    -2
288
     1
 68
     0
279
    -2
289
     1
 69
     0
  7
Standard
140
0.25
170
     5
 62
     0
 63
   257
283
     0
 90
        4
 91
        0
  1

274
    -2
284
     1
 64
     0
275
    -2
285
     1
 65
     0
276
    -2
286
     1
 66
     0
277
    -2
287
     1
 67
     0
278
    -2
288
     1
 68
     0
279
    -2
289
     1
 69
     0
  7
Standard
140
0.18
170
     5
 62
     0
 63
   257
283
     0
 90
        4
 91
        0
  1

274
    -2
284
     1
 64
     0
275
    -2
285
     1
 65
     0
276
    -2
286
     1
 66
     0
277
    -2
287
     1
 67
     0
278
    -2
288
     1
 68
     0
279
    -2
289
     1
 69
     0
  0
VISUALSTYLE
  5
2F
102
{ACAD_REACTORS
330
2A
102
}
102
{ACAD_XDICTIONARY
360
14C
102
}
330
2A
100
AcDbVisualStyle
  2
2dWireframe
 70
     4
177
     2
291
     0
 71
     0
176
     1
 72
     2
176
     1
 73
     0
176
     1
 90
        0
176
     1
 40
0.6
176
     1
 41
30.0
176
     1
 62
     5
 63
     7
421
 16777215
176
     1
 74
     1
176
     1
 91
        4
176
     1
 64
     7
176
     1
 65
   257
176
     1
 75
     1
176
     1
175
     1
176
     1
 42
1.0
176
     1
 92
        0
176
     1
 66
   257
176
     1
 43
1.0
176
     1
 76
     1
176
     1
 77
     6
176
     1
 78
     2
176
     1
 67
     7
176
     1
 79
     5
176
     1
170
     0
176
     1
171
     0
176
     1
290
     0
176
     1
 93
        1
176
     1
 44
0.0
176
     1
173
     0
176
     1
  0
VISUALSTYLE
  5
32
102
{ACAD_REACTORS
330
2A
102
}
102
{ACAD_XDICTIONARY
360
152
102
}
330
2A
100
AcDbVisualStyle
  2
Basic
 70
     7
177
     2
291
     1
 71
     1
176
     1
 72
     0
176
     1
 73
     1
176
     1
 90
        0
176
     1
 40
0.6
176
     1
 41
30.0
176
     1
 62
     5
 63
     7
421
 16777215
176
     1
 74
     0
176
     1
 91
        4
176
     1
 64
     7
176
     1
 65
   257
176
     1
 75
     1
176
     1
175
     1
176
     1
 42
1.0
176
     1
 92
        8
176
     1
 66
     7
176
     1
 43
1.0
176
     1
 76
     1
176
     1
 77
     6
176
     1
 78
     2
176
     1
 67
     7
176
     1
 79
     5
176
     1
170
     0
176
     1
171
     0
176
     1
290
     0
176
     1
 93
        1
176
     1
 44
0.0
176
     1
173
     0
176
     1
  0
VISUALSTYLE
  5
36
102
{ACAD_REACTORS
330
2A
102
}
102
{ACAD_XDICTIONARY
360
15A
102
}
330
2A
100
AcDbVisualStyle
  2
Brighten
 70
    12
177
     2
291
     1
 71
     2
176
     1
 72
     2
176
     1
 73
     0
176
     1
 90
        0
176
     1
 40
0.6
176
     1
 41
30.0
176
     1
 62
     5
 63
     7
421
 16777215
176
     1
 74
     1
176
     1
 91
        4
176
     1
 64
     7
176
     1
 65
   257
176
     1
 75
     1
176
     1
175
     1
176
     1
 42
1.0
176
     1
 92
        8
176
     1
 66
     7
176
     1
 43
1.0
176
     1
 76
     1
176
     1
 77
     6
176
     1
 78
     2
176
     1
 67
     7
176
     1
 79
     5
176
     1
170
     0
176
     1
171
     0
176
     1
290
     0
176
     1
 93
        1
176
     1
 44
50.0
176
     1
173
     0
176
     1
  0
VISUALSTYLE
  5
3A
102
{ACAD_REACTORS
330
2A
102
}
102
{ACAD_XDICTIONARY
360
162
102
}
330
2A
100
AcDbVisualStyle
  2
ColorChange
 70
    16
177
     2
291
     1
 71
     2
176
     1
 72
     2
176
     1
 73
     3
176
     1
 90
        0
176
     1
 40
0.6
176
     1
 41
30.0
176
     1
 62
     5
 63
     8
421
  8421504
176
     1
 74
     1
176
     1
 91
        4
176
     1
 64
     7
176
     1
 65
   257
176
     1
 75
     1
176
     1
175
     1
176
     1
 42
1.0
176
     1
 92
        8
176
     1
 66
     8
424
  8421504
176
     1
 43
1.0
176
     1
 76
     1
176
     1
 77
     6
176
     1
 78
     2
176
     1
 67
     7
176
     1
 79
     5
176
     1
170
     0
176
     1
171
     0
176
     1
290
     0
176
     1
 93
        1
176
     1
 44
0.0
176
     1
173
     0
176
     1
  0
VISUALSTYLE
  5
34
102
{ACAD_REACTORS
330
2A
102
}
102
{ACAD_XDICTIONARY
360
156
102
}
330
2A
100
AcDbVisualStyle
  2
Conceptual
 70
     9
177
     2
291
     0
 71
     3
176
     1
 72
     2
176
     1
 73
     0
176
     1
 90
        0
176
     1
 40
0.6
176
     1
 41
30.0
176
     1
 62
     5
 63
     7
421
 16777215
176
     1
 74
     2
176
     1
 91
        2
176
     1
 64
     7
176
     1
 65
   257
176
     1
 75
     1
176
     1
175
     1
176
     1
 42
179.0
176
     1
 92
        8
176
     1
 66
     7
176
     1
 43
1.0
176
     1
 76
     1
176
     1
 77
     6
176
     1
 78
     2
176
     1
 67
     7
176
     1
 79
     3
176
     1
170
     0
176
     1
171
     0
176
     1
290
     0
176
     1
 93
        1
176
     1
 44
0.0
176
     1
173
     0
176
     1
  0
VISUALSTYLE
  5
35
102
{ACAD_REACTORS
330
2A
102
}
102
{ACAD_XDICTIONARY
360
158
102
}
330
2A
100
AcDbVisualStyle
  2
Dim
 70
    11
177
     2
291
     1
 71
     2
176
     1
 72
     2
176
     1
 73
     0
176
     1
 90
        0
176
     1
 40
0.6
176
     1
 41
30.0
176
     1
 62
     5
 63
     7
421
 16777215
176
     1
 74
     1
176
     1
 91
        4
176
     1
 64
     7
176
     1
 65
   257
176
     1
 75
     1
176
     1
175
     1
176
     1
 42
1.0
176
     1
 92
        8
176
     1
 66
     7
176
     1
 43
1.0
176
     1
 76
     1
176
     1
 77
     6
176
     1
 78
     2
176
     1
 67
     7
176
     1
 79
     5
176
     1
170
     0
176
     1
171
     0
176
     1
290
     0
176
     1
 93
        1
176
     1
 44
-50.0
176
     1
173
     0
176
     1
  0
VISUALSTYLE
  5
3D
102
{ACAD_REACTORS
330
2A
102
}
102
{ACAD_XDICTIONARY
360
168
102
}
330
2A
100
AcDbVisualStyle
  2
EdgeColorOff
 70
    22
177
     2
291
     1
 71
     2
176
     0
 72
     2
176
     0
 73
     0
176
     0
 90
        0
176
     0
 40
0.6
176
     0
 41
30.0
176
     0
 62
     5
 63
     7
421
 16777215
176
     0
 74
     1
176
     0
 91
        4
176
     0
 64
     7
176
     0
 65
   257
176
     0
 75
     1
176
     0
175
     1
176
     0
 42
1.0
176
     0
 92
        8
176
     2
 66
     7
176
     0
 43
1.0
176
     0
 76
     1
176
     0
 77
     6
176
     0
 78
     2
176
     0
 67
     7
176
     0
 79
     5
176
     0
170
     0
176
     0
171
     0
176
     0
290
     0
176
     0
 93
        1
176
     0
 44
0.0
176
     0
173
     0
176
     0
  0
VISUALSTYLE
  5
39
102
{ACAD_REACTORS
330
2A
102
}
102
{ACAD_XDICTIONARY
360
160
102
}
330
2A
100
AcDbVisualStyle
  2
Facepattern
 70
    15
177
     2
291
     1
 71
     2
176
     1
 72
     2
176
     1
 73
     0
176
     1
 90
        0
176
     1
 40
0.6
176
     1
 41
30.0
176
     1
 62
     5
 63
     7
421
 16777215
176
     1
 74
     1
176
     1
 91
        4
176
     1
 64
     7
176
     1
 65
   257
176
     1
 75
     1
176
     1
175
     1
176
     1
 42
1.0
176
     1
 92
        8
176
     1
 66
     7
176
     1
 43
1.0
176
     1
 76
     1
176
     1
 77
     6
176
     1
 78
     2
176
     1
 67
     7
176
     1
 79
     5
176
     1
170
     0
176
     1
171
     0
176
     1
290
     0
176
     1
 93
        1
176
     1
 44
0.0
176
     1
173
     0
176
     1
  0
VISUALSTYLE
  5
2B
102
{ACAD_REACTORS
330
2A
102
}
102
{ACAD_XDICTIONARY
360
144
102
}
330
2A
100
AcDbVisualStyle
  2
Flat
 70
     0
177
     2
291
     1
 71
     2
176
     1
 72
     1
176
     1
 73
     1
176
     1
 90
        2
176
     1
 40
0.6
176
     1
 41
30.0
176
     1
 62
     5
 63
     7
421
 16777215
176
     1
 74
     0
176
     1
 91
        0
176
     1
 64
     7
176
     1
 65
   257
176
     1
 75
     1
176
     1
175
     1
176
     1
 42
1.0
176
     1
 92
        8
176
     1
 66
     7
176
     1
 43
1.0
176
     1
 76
     1
176
     1
 77
     6
176
     1
 78
     2
176
     1
 67
     7
176
     1
 79
     5
176
     1
170
     0
176
     1
171
     0
176
     1
290
     0
176
     1
 93
       13
176
     1
 44
0.0
176
     1
173
     0
176
     1
  0
VISUALSTYLE
  5
2C
102
{ACAD_REACTORS
330
2A
102
}
102
{ACAD_XDICTIONARY
360
146
102
}
330
2A
100
AcDbVisualStyle
  2
FlatWithEdges
 70
     1
177
     2
291
     1
 71
     2
176
     1
 72
     1
176
     1
 73
     1
176
     1
 90
        2
176
     1
 40
0.6
176
     1
 41
30.0
176
     1
 62
     5
 63
     7
421
 16777215
176
     1
 74
     1
176
     1
 91
        0
176
     1
 64
     7
176
     1
 65
   257
176
     1
 75
     1
176
     1
175
     1
176
     1
 42
1.0
176
     1
 92
        0
176
     1
 66
   257
176
     1
 43
1.0
176
     1
 76
     1
176
     1
 77
     6
176
     1
 78
     2
176
     1
 67
     7
176
     1
 79
     5
176
     1
170
     0
176
     1
171
     0
176
     1
290
     0
176
     1
 93
       13
176
     1
 44
0.0
176
     1
173
     0
176
     1
  0
VISUALSTYLE
  5
2D
102
{ACAD_REACTORS
330
2A
102
}
102
{ACAD_XDICTIONARY
360
148
102
}
330
2A
100
AcDbVisualStyle
  2
Gouraud
 70
     2
177
     2
291
     1
 71
     2
176
     1
 72
     2
176
     1
 73
     1
176
     1
 90
        2
176
     1
 40
0.6
176
     1
 41
30.0
176
     1
 62
     5
 63
     7
421
 16777215
176
     1
 74
     0
176
     1
 91
        0
176
     1
 64
     7
176
     1
 65
   257
176
     1
 75
     1
176
     1
175
     1
176
     1
 42
1.0
176
     1
 92
        0
176
     1
 66
     7
176
     1
 43
1.0
176
     1
 76
     1
176
     1
 77
     6
176
     1
 78
     2
176
     1
 67
     7
176
     1
 79
     5
176
     1
170
     0
176
     1
171
     0
176
     1
290
     0
176
     1
 93
       13
176
     1
 44
0.0
176
     1
173
     0
176
     1
  0
VISUALSTYLE
  5
2E
102
{ACAD_REACTORS
330
2A
102
}
102
{ACAD_XDICTIONARY
360
14A
102
}
330
2A
100
AcDbVisualStyle
  2
GouraudWithEdges
 70
     3
177
     2
291
     1
 71
     2
176
     1
 72
     2
176
     1
 73
     1
176
     1
 90
        2
176
     1
 40
0.6
176
     1
 41
30.0
176
     1
 62
     5
 63
     7
421
 16777215
176
     1
 74
     1
176
     1
 91
        0
176
     1
 64
     7
176
     1
 65
   257
176
     1
 75
     1
176
     1
175
     1
176
     1
 42
1.0
176
     1
 92
        0
176
     1
 66
   257
176
     1
 43
1.0
176
     1
 76
     1
176
     1
 77
     6
176
     1
 78
     2
176
     1
 67
     7
176
     1
 79
     5
176
     1
170
     0
176
     1
171
     0
176
     1
290
     0
176
     1
 93
       13
176
     1
 44
0.0
176
     1
173
     0
176
     1
  0
VISUALSTYLE
  5
31
102
{ACAD_REACTORS
330
2A
102
}
102
{ACAD_XDICTIONARY
360
150
102
}
330
2A
100
AcDbVisualStyle
  2
Hidden
 70
     6
177
     2
291
     0
 71
     1
176
     1
 72
     2
176
     1
 73
     2
176
     1
 90
        0
176
     1
 40
0.6
176
     1
 41
30.0
176
     1
 62
     5
 63
     7
421
 16777215
176
     1
 74
     2
176
     1
 91
        2
176
     1
 64
     7
176
     1
 65
   257
176
     1
 75
     2
176
     1
175
     1
176
     1
 42
40.0
176
     1
 92
        0
176
     1
 66
   257
176
     1
 43
1.0
176
     1
 76
     1
176
     1
 77
     6
176
     1
 78
     2
176
     1
 67
     7
176
     1
 79
     3
176
     1
170
     0
176
     1
171
     0
176
     1
290
     0
176
     1
 93
        1
176
     1
 44
0.0
176
     1
173
     0
176
     1
  0
VISUALSTYLE
  5
3B
102
{ACAD_REACTORS
330
2A
102
}
102
{ACAD_XDICTIONARY
360
164
102
}
330
2A
100
AcDbVisualStyle
  2
JitterOff
 70
    20
177
     2
291
     1
 71
     2
176
     0
 72
     2
176
     0
 73
     0
176
     0
 90
        0
176
     0
 40
0.6
176
     0
 41
30.0
176
     0
 62
     5
 63
     7
421
 16777215
176
     0
 74
     1
176
     0
 91
        4
176
     0
 64
     7
176
     0
 65
   257
176
     0
 75
     1
176
     0
175
     1
176
     0
 42
1.0
176
     0
 92
       10
176
     2
 66
     7
176
     0
 43
1.0
176
     0
 76
     1
176
     0
 77
     6
176
     0
 78
     2
176
     0
 67
     7
176
     0
 79
     5
176
     0
170
     0
176
     0
171
     0
176
     0
290
     0
176
     0
 93
        1
176
     0
 44
0.0
176
     0
173
     0
176
     0
  0
VISUALSTYLE
  5
38
102
{ACAD_REACTORS
330
2A
102
}
102
{ACAD_XDICTIONARY
360
15E
102
}
330
2A
100
AcDbVisualStyle
  2
Linepattern
 70
    14
177
     2
291
     1
 71
     2
176
     1
 72
     2
176
     1
 73
     0
176
     1
 90
        0
176
     1
 40
0.6
176
     1
 41
30.0
176
     1
 62
     5
 63
     7
421
 16777215
176
     1
 74
     1
176
     1
 91
        4
176
     1
 64
     7
176
     1
 65
   257
176
     1
 75
     7
176
     1
175
     7
176
     1
 42
1.0
176
     1
 92
        8
176
     1
 66
     7
176
     1
 43
1.0
176
     1
 76
     1
176
     1
 77
     6
176
     1
 78
     2
176
     1
 67
     7
176
     1
 79
     5
176
     1
170
     0
176
     1
171
     0
176
     1
290
     0
176
     1
 93
        1
176
     1
 44
0.0
176
     1
173
     0
176
     1
  0
VISUALSTYLE
  5
3C
102
{ACAD_REACTORS
330
2A
102
}
102
{ACAD_XDICTIONARY
360
166
102
}
330
2A
100
AcDbVisualStyle
  2
OverhangOff
 70
    21
177
     2
291
     1
 71
     2
176
     0
 72
     2
176
     0
 73
     0
176
     0
 90
        0
176
     0
 40
0.6
176
     0
 41
30.0
176
     0
 62
     5
 63
     7
421
 16777215
176
     0
 74
     1
176
     0
 91
        4
176
     0
 64
     7
176
     0
 65
   257
176
     0
 75
     1
176
     0
175
     1
176
     0
 42
1.0
176
     0
 92
        9
176
     2
 66
     7
176
     0
 43
1.0
176
     0
 76
     1
176
     0
 77
     6
176
     0
 78
     2
176
     0
 67
     7
176
     0
 79
     5
176
     0
170
     0
176
     0
171
     0
176
     0
290
     0
176
     0
 93
        1
176
     0
 44
0.0
176
     0
173
     0
176
     0
  0
VISUALSTYLE
  5
33
102
{ACAD_REACTORS
330
2A
102
}
102
{ACAD_XDICTIONARY
360
154
102
}
330
2A
100
AcDbVisualStyle
  2
Realistic
 70
     8
177
     2
291
     0
 71
     2
176
     1
 72
     3
176
     1
 73
     0
176
     1
 90
        2
176
     1
 40
0.6
176
     1
 41
30.0
176
     1
 62
     5
 63
     7
421
 16777215
176
     1
 74
     0
176
     1
 91
        0
176
     1
 64
     7
176
     1
 65
   257
176
     1
 75
     1
176
     1
175
     1
176
     1
 42
1.0
176
     1
 92
        8
176
     1
 66
   257
176
     1
 43
1.0
176
     1
 76
     1
176
     1
 77
     6
176
     1
 78
     2
176
     1
 67
     7
176
     1
 79
     3
176
     1
170
     0
176
     1
171
     0
176
     1
290
     0
176
     1
 93
       13
176
     1
 44
0.0
176
     1
173
     0
176
     1
  0
VISUALSTYLE
  5
42
102
{ACAD_REACTORS
330
2A
102
}
102
{ACAD_XDICTIONARY
360
172
102
}
330
2A
100
AcDbVisualStyle
  2
Shaded
 70
    27
177
     2
291
     0
 71
     2
176
     1
 72
     2
176
     1
 73
     1
176
     1
 90
        2
176
     1
 40
0.6
176
     1
 41
30.0
176
     1
 62
     5
 63
     7
421
 16777215
176
     1
 74
     0
176
     1
 91
        4
176
     1
 64
     7
176
     1
 65
   257
176
     1
 75
     1
176
     1
175
     1
176
     1
 42
1.0
176
     1
 92
        8
176
     1
 66
   257
176
     1
 43
1.0
176
     1
 76
     1
176
     1
 77
     6
176
     1
 78
     2
176
     1
 67
     8
425
  7895160
176
     1
 79
     3
176
     1
170
     0
176
     1
171
     0
176
     1
290
     0
176
     1
 93
        5
176
     1
 44
0.0
176
     1
173
     0
176
     1
  0
VISUALSTYLE
  5
41
102
{ACAD_REACTORS
330
2A
102
}
102
{ACAD_XDICTIONARY
360
170
102
}
330
2A
100
AcDbVisualStyle
  2
Shaded with edges
 70
    26
177
     2
291
     0
 71
     2
176
     1
 72
     2
176
     1
 73
     1
176
     1
 90
        2
176
     1
 40
0.6
176
     1
 41
30.0
176
     1
 62
     5
 63
     7
421
 16777215
176
     1
 74
     1
176
     1
 91
       10
176
     1
 64
     7
176
     1
 65
   257
176
     1
 75
     2
176
     1
175
     1
176
     1
 42
1.0
176
     1
 92
        8
176
     1
 66
   257
176
     1
 43
1.0
176
     1
 76
     1
176
     1
 77
     6
176
     1
 78
     2
176
     1
 67
     7
176
     1
 79
     3
176
     1
170
     0
176
     1
171
     0
176
     1
290
     0
176
     1
 93
        5
176
     1
 44
0.0
176
     1
173
     0
176
     1
  0
VISUALSTYLE
  5
3E
102
{ACAD_REACTORS
330
2A
102
}
102
{ACAD_XDICTIONARY
360
16A
102
}
330
2A
100
AcDbVisualStyle
  2
Shades of Gray
 70
    23
177
     2
291
     0
 71
     2
176
     1
 72
     2
176
     1
 73
     3
176
     1
 90
        0
176
     1
 40
0.6
176
     1
 41
30.0
176
     1
 62
     5
 63
     7
421
 16777215
176
     1
 74
     2
176
     1
 91
        2
176
     1
 64
     7
176
     1
 65
     7
176
     1
 75
     1
176
     1
175
     1
176
     1
 42
40.0
176
     1
 92
        8
176
     1
 66
     7
176
     1
 43
1.0
176
     1
 76
     1
176
     1
 77
     6
176
     1
 78
     2
176
     1
 67
     7
176
     1
 79
     3
176
     1
170
     0
176
     1
171
     0
176
     1
290
     0
176
     1
 93
        1
176
     1
 44
0.0
176
     1
173
     0
176
     1
  0
VISUALSTYLE
  5
3F
102
{ACAD_REACTORS
330
2A
102
}
102
{ACAD_XDICTIONARY
360
16C
102
}
330
2A
100
AcDbVisualStyle
  2
Sketchy
 70
    24
177
     2
291
     0
 71
     1
176
     1
 72
     2
176
     1
 73
     2
176
     1
 90
        0
176
     1
 40
0.6
176
     1
 41
30.0
176
     1
 62
     5
 63
     7
421
 16777215
176
     1
 74
     2
176
     1
 91
        2
176
     1
 64
     7
176
     1
 65
     7
176
     1
 75
     1
176
     1
175
     1
176
     1
 42
40.0
176
     1
 92
       11
176
     1
 66
     7
176
     1
 43
1.0
176
     1
 76
     1
176
     1
 77
     6
176
     1
 78
     2
176
     1
 67
     7
176
     1
 79
     6
176
     1
170
     0
176
     1
171
     0
176
     1
290
     0
176
     1
 93
        1
176
     1
 44
0.0
176
     1
173
     0
176
     1
  0
VISUALSTYLE
  5
37
102
{ACAD_REACTORS
330
2A
102
}
102
{ACAD_XDICTIONARY
360
15C
102
}
330
2A
100
AcDbVisualStyle
  2
Thicken
 70
    13
177
     2
291
     1
 71
     2
176
     1
 72
     2
176
     1
 73
     0
176
     1
 90
        0
176
     1
 40
0.6
176
     1
 41
30.0
176
     1
 62
     5
 63
     7
421
 16777215
176
     1
 74
     1
176
     1
 91
        4
176
     1
 64
     7
176
     1
 65
   257
176
     1
 75
     1
176
     1
175
     1
176
     1
 42
1.0
176
     1
 92
       12
176
     1
 66
     7
176
     1
 43
1.0
176
     1
 76
     1
176
     1
 77
     6
176
     1
 78
     2
176
     1
 67
     7
176
     1
 79
     5
176
     1
170
     0
176
     1
171
     0
176
     1
290
     0
176
     1
 93
        1
176
     1
 44
0.0
176
     1
173
     0
176
     1
  0
VISUALSTYLE
  5
30
102
{ACAD_REACTORS
330
2A
102
}
102
{ACAD_XDICTIONARY
360
14E
102
}
330
2A
100
AcDbVisualStyle
  2
Wireframe
 70
     5
177
     2
291
     0
 71
     0
176
     1
 72
     2
176
     1
 73
     0
176
     1
 90
        0
176
     1
 40
0.6
176
     1
 41
30.0
176
     1
 62
     5
 63
     7
421
 16777215
176
     1
 74
     1
176
     1
 91
        4
176
     1
 64
     7
176
     1
 65
   257
176
     1
 75
     1
176
     1
175
     1
176
     1
 42
1.0
176
     1
 92
        0
176
     1
 66
   257
176
     1
 43
1.0
176
     1
 76
     1
176
     1
 77
     6
176
     1
 78
     2
176
     1
 67
     7
176
     1
 79
     3
176
     1
170
     0
176
     1
171
     0
176
     1
290
     0
176
     1
 93
        1
176
     1
 44
0.0
176
     1
173
     0
176
     1
  0
VISUALSTYLE
  5
40
102
{ACAD_REACTORS
330
2A
102
}
102
{ACAD_XDICTIONARY
360
16E
102
}
330
2A
100
AcDbVisualStyle
  2
X-Ray
 70
    25
177
     2
291
     0
 71
     2
176
     1
 72
     2
176
     1
 73
     1
176
     1
 90
        1
176
     1
 40
0.5
176
     1
 41
30.0
176
     1
 62
     5
 63
     7
421
 16777215
176
     1
 74
     1
176
     1
 91
        0
176
     1
 64
     7
176
     1
 65
   257
176
     1
 75
     1
176
     1
175
     1
176
     1
 42
1.0
176
     1
 92
        8
176
     1
 66
     7
176
     1
 43
1.0
176
     1
 76
     1
176
     1
 77
     6
176
     1
 78
     2
176
     1
 67
     7
176
     1
 79
     3
176
     1
170
     0
176
     1
171
     0
176
     1
290
     0
176
     1
 93
       13
176
     1
 44
0.0
176
     1
173
     0
176
     1
  0
DICTIONARYVAR
  5
143
102
{ACAD_REACTORS
330
142
102
}
330
142
100
DictionaryVariables
280
     0
  1
1:1
  0
DICTIONARYVAR
  5
178
102
{ACAD_REACTORS
330
142
102
}
330
142
100
DictionaryVariables
280
     0
  1
Standard
  0
DICTIONARYVAR
  5
177
102
{ACAD_REACTORS
330
142
102
}
330
142
100
DictionaryVariables
280
     0
  1
Standard
  0
DICTIONARY
  5
174
330
6A
100
AcDbDictionary
280
     1
281
     1
  3
ACAD_ROUNDTRIP_2008_TABLESTYLE_CELLSTYLEMAP
360
175
  0
DICTIONARY
  5
14C
330
2F
100
AcDbDictionary
280
     1
281
     1
  3
ACAD_XREC_ROUNDTRIP
360
14D
  0
DICTIONARY
  5
152
330
32
100
AcDbDictionary
280
     1
281
     1
  3
ACAD_XREC_ROUNDTRIP
360
153
  0
DICTIONARY
  5
15A
330
36
100
AcDbDictionary
280
     1
281
     1
  3
ACAD_XREC_ROUNDTRIP
360
15B
  0
DICTIONARY
  5
162
330
3A
100
AcDbDictionary
280
     1
281
     1
  3
ACAD_XREC_ROUNDTRIP
360
163
  0
DICTIONARY
  5
156
330
34
100
AcDbDictionary
280
     1
281
     1
  3
ACAD_XREC_ROUNDTRIP
360
157
  0
DICTIONARY
  5
158
330
35
100
AcDbDictionary
280
     1
281
     1
  3
ACAD_XREC_ROUNDTRIP
360
159
  0
DICTIONARY
  5
168
330
3D
100
AcDbDictionary
280
     1
281
     1
  3
ACAD_XREC_ROUNDTRIP
360
169
  0
DICTIONARY
  5
160
330
39
100
AcDbDictionary
280
     1
281
     1
  3
ACAD_XREC_ROUNDTRIP
360
161
  0
DICTIONARY
  5
144
330
2B
100
AcDbDictionary
280
     1
281
     1
  3
ACAD_XREC_ROUNDTRIP
360
145
  0
DICTIONARY
  5
146
330
2C
100
AcDbDictionary
280
     1
281
     1
  3
ACAD_XREC_ROUNDTRIP
360
147
  0
DICTIONARY
  5
148
330
2D
100
AcDbDictionary
280
     1
281
     1
  3
ACAD_XREC_ROUNDTRIP
360
149
  0
DICTIONARY
  5
14A
330
2E
100
AcDbDictionary
280
     1
281
     1
  3
ACAD_XREC_ROUNDTRIP
360
14B
  0
DICTIONARY
  5
150
330
31
100
AcDbDictionary
280
     1
281
     1
  3
ACAD_XREC_ROUNDTRIP
360
151
  0
DICTIONARY
  5
164
330
3B
100
AcDbDictionary
280
     1
281
     1
  3
ACAD_XREC_ROUNDTRIP
360
165
  0
DICTIONARY
  5
15E
330
38
100
AcDbDictionary
280
     1
281
     1
  3
ACAD_XREC_ROUNDTRIP
360
15F
  0
DICTIONARY
  5
166
330
3C
100
AcDbDictionary
280
     1
281
     1
  3
ACAD_XREC_ROUNDTRIP
360
167
  0
DICTIONARY
  5
154
330
33
100
AcDbDictionary
280
     1
281
     1
  3
ACAD_XREC_ROUNDTRIP
360
155
  0
DICTIONARY
  5
172
330
42
100
AcDbDictionary
280
     1
281
     1
  3
ACAD_XREC_ROUNDTRIP
360
173
  0
DICTIONARY
  5
170
330
41
100
AcDbDictionary
280
     1
281
     1
  3
ACAD_XREC_ROUNDTRIP
360
171
  0
DICTIONARY
  5
16A
330
3E
100
AcDbDictionary
280
     1
281
     1
  3
ACAD_XREC_ROUNDTRIP
360
16B
  0
DICTIONARY
  5
16C
330
3F
100
AcDbDictionary
280
     1
281
     1
  3
ACAD_XREC_ROUNDTRIP
360
16D
  0
DICTIONARY
  5
15C
330
37
100
AcDbDictionary
280
     1
281
     1
  3
ACAD_XREC_ROUNDTRIP
360
15D
  0
DICTIONARY
  5
14E
330
30
100
AcDbDictionary
280
     1
281
     1
  3
ACAD_XREC_ROUNDTRIP
360
14F
  0
DICTIONARY
  5
16E
330
40
100
AcDbDictionary
280
     1
281
     1
  3
ACAD_XREC_ROUNDTRIP
360
16F
  0
CELLSTYLEMAP
  5
175
102
{ACAD_REACTORS
330
174
102
}
330
174
100
AcDbCellStyleMap
 90
        3
300
CELLSTYLE
  1
TABLEFORMAT_BEGIN
 90
        5
170
     1
 91
        0
 92
    32768
 62
   257
 93
        1
300
CONTENTFORMAT
  1
CONTENTFORMAT_BEGIN
 90
        0
 91
        0
 92
        4
 93
        0
300

 40
0.0
140
1.0
 94
        5
 62
     0
340
11
144
0.25
309
CONTENTFORMAT_END
171
     1
301
MARGIN
  1
CELLMARGIN_BEGIN
 40
0.06
 40
0.06
 40
0.06
 40
0.06
 40
0.06
 40
0.06
309
CELLMARGIN_END
 94
        6
 95
        1
302
GRIDFORMAT
  1
GRIDFORMAT_BEGIN
 90
        0
 91
        1
 62
     0
 92
       -2
340
14
 93
        0
 40
0.045
309
GRIDFORMAT_END
 95
        2
302
GRIDFORMAT
  1
GRIDFORMAT_BEGIN
 90
        0
 91
        1
 62
     0
 92
       -2
340
14
 93
        0
 40
0.045
309
GRIDFORMAT_END
 95
        4
302
GRIDFORMAT
  1
GRIDFORMAT_BEGIN
 90
        0
 91
        1
 62
     0
 92
       -2
340
14
 93
        0
 40
0.045
309
GRIDFORMAT_END
 95
        8
302
GRIDFORMAT
  1
GRIDFORMAT_BEGIN
 90
        0
 91
        1
 62
     0
 92
       -2
340
14
 93
        0
 40
0.045
309
GRIDFORMAT_END
 95
       16
302
GRIDFORMAT
  1
GRIDFORMAT_BEGIN
 90
        0
 91
        1
 62
     0
 92
       -2
340
14
 93
        0
 40
0.045
309
GRIDFORMAT_END
 95
       32
302
GRIDFORMAT
  1
GRIDFORMAT_BEGIN
 90
        0
 91
        1
 62
     0
 92
       -2
340
14
 93
        0
 40
0.045
309
GRIDFORMAT_END
309
TABLEFORMAT_END
  1
CELLSTYLE_BEGIN
 90
        1
 91
        1
300
_TITLE
309
CELLSTYLE_END
300
CELLSTYLE
  1
TABLEFORMAT_BEGIN
 90
        5
170
     1
 91
        0
 92
        0
 62
   257
 93
        1
300
CONTENTFORMAT
  1
CONTENTFORMAT_BEGIN
 90
        0
 91
        0
 92
        4
 93
        0
300

 40
0.0
140
1.0
 94
        5
 62
     0
340
11
144
0.18
309
CONTENTFORMAT_END
171
     1
301
MARGIN
  1
CELLMARGIN_BEGIN
 40
0.06
 40
0.06
 40
0.06
 40
0.06
 40
0.06
 40
0.06
309
CELLMARGIN_END
 94
        6
 95
        1
302
GRIDFORMAT
  1
GRIDFORMAT_BEGIN
 90
        0
 91
        1
 62
     0
 92
       -2
340
14
 93
        0
 40
0.045
309
GRIDFORMAT_END
 95
        2
302
GRIDFORMAT
  1
GRIDFORMAT_BEGIN
 90
        0
 91
        1
 62
     0
 92
       -2
340
14
 93
        0
 40
0.045
309
GRIDFORMAT_END
 95
        4
302
GRIDFORMAT
  1
GRIDFORMAT_BEGIN
 90
        0
 91
        1
 62
     0
 92
       -2
340
14
 93
        0
 40
0.045
309
GRIDFORMAT_END
 95
        8
302
GRIDFORMAT
  1
GRIDFORMAT_BEGIN
 90
        0
 91
        1
 62
     0
 92
       -2
340
14
 93
        0
 40
0.045
309
GRIDFORMAT_END
 95
       16
302
GRIDFORMAT
  1
GRIDFORMAT_BEGIN
 90
        0
 91
        1
 62
     0
 92
       -2
340
14
 93
        0
 40
0.045
309
GRIDFORMAT_END
 95
       32
302
GRIDFORMAT
  1
GRIDFORMAT_BEGIN
 90
        0
 91
        1
 62
     0
 92
       -2
340
14
 93
        0
 40
0.045
309
GRIDFORMAT_END
309
TABLEFORMAT_END
  1
CELLSTYLE_BEGIN
 90
        2
 91
        1
300
_HEADER
309
CELLSTYLE_END
300
CELLSTYLE
  1
TABLEFORMAT_BEGIN
 90
        5
170
     1
 91
        0
 92
        0
 62
   257
 93
        1
300
CONTENTFORMAT
  1
CONTENTFORMAT_BEGIN
 90
        0
 91
        0
 92
        4
 93
        0
300

 40
0.0
140
1.0
 94
        2
 62
     0
340
11
144
0.18
309
CONTENTFORMAT_END
171
     1
301
MARGIN
  1
CELLMARGIN_BEGIN
 40
0.06
 40
0.06
 40
0.06
 40
0.06
 40
0.06
 40
0.06
309
CELLMARGIN_END
 94
        6
 95
        1
302
GRIDFORMAT
  1
GRIDFORMAT_BEGIN
 90
        0
 91
        1
 62
     0
 92
       -2
340
14
 93
        0
 40
0.045
309
GRIDFORMAT_END
 95
        2
302
GRIDFORMAT
  1
GRIDFORMAT_BEGIN
 90
        0
 91
        1
 62
     0
 92
       -2
340
14
 93
        0
 40
0.045
309
GRIDFORMAT_END
 95
        4
302
GRIDFORMAT
  1
GRIDFORMAT_BEGIN
 90
        0
 91
        1
 62
     0
 92
       -2
340
14
 93
        0
 40
0.045
309
GRIDFORMAT_END
 95
        8
302
GRIDFORMAT
  1
GRIDFORMAT_BEGIN
 90
        0
 91
        1
 62
     0
 92
       -2
340
14
 93
        0
 40
0.045
309
GRIDFORMAT_END
 95
       16
302
GRIDFORMAT
  1
GRIDFORMAT_BEGIN
 90
        0
 91
        1
 62
     0
 92
       -2
340
14
 93
        0
 40
0.045
309
GRIDFORMAT_END
 95
       32
302
GRIDFORMAT
  1
GRIDFORMAT_BEGIN
 90
        0
 91
        1
 62
     0
 92
       -2
340
14
 93
        0
 40
0.045
309
GRIDFORMAT_END
309
TABLEFORMAT_END
  1
CELLSTYLE_BEGIN
 90
        3
 91
        2
300
_DATA
309
CELLSTYLE_END
  0
XRECORD
  5
14D
102
{ACAD_REACTORS
330
14C
102
}
330
14C
100
AcDbXrecord
280
     1
102
RTVSPost2010Prop28
280
     1
102
RTVSPost2010PropOp28
 70
     1
102
RTVSPost2010Prop29
280
     1
102
RTVSPost2010PropOp29
 70
     1
102
RTVSPost2010Prop30
280
     0
102
RTVSPost2010PropOp30
 70
     1
102
RTVSPost2010Prop31
280
     0
102
RTVSPost2010PropOp31
 70
     1
102
RTVSPost2010Prop32
280
     0
102
RTVSPost2010PropOp32
 70
     1
102
RTVSPost2010Prop33
280
     0
102
RTVSPost2010PropOp33
 70
     1
102
RTVSPost2010Prop34
280
     0
102
RTVSPost2010PropOp34
 70
     1
102
RTVSPost2010Prop35
280
     0
102
RTVSPost2010PropOp35
 70
     1
102
RTVSPost2010Prop36
280
     0
102
RTVSPost2010PropOp36
 70
     1
102
RTVSPost2010Prop37
 90
       50
102
RTVSPost2010PropOp37
 70
     1
102
RTVSPost2010Prop38
140
0.0
102
RTVSPost2010PropOp38
 70
     1
102
RTVSPost2010Prop39
140
1.0
102
RTVSPost2010PropOp39
 70
     1
102
RTVSPost2010Prop40
 90
        0
102
RTVSPost2010PropOp40
 70
     1
102
RTVSPost2010Prop41ColorIndex
 90
       18
102
RTVSPost2010Prop41ColorRGB
 90
        0
102
RTVSPost2010PropOp41
 70
     1
102
RTVSPost2010Prop42
 90
       50
102
RTVSPost2010PropOp42
 70
     1
102
RTVSPost2010Prop43
 90
        3
102
RTVSPost2010PropOp43
 70
     1
102
RTVSPost2010Prop44ColorIndex
 90
        5
102
RTVSPost2010Prop44ColorRGB
 90
      255
102
RTVSPost2010PropOp44
 70
     1
102
RTVSPost2010Prop45
280
     0
102
RTVSPost2010PropOp45
 70
     1
102
RTVSPost2010Prop46
 90
       50
102
RTVSPost2010PropOp46
 70
     1
102
RTVSPost2010Prop47
 90
       50
102
RTVSPost2010PropOp47
 70
     1
102
RTVSPost2010Prop48
 90
       50
102
RTVSPost2010PropOp48
 70
     1
102
RTVSPost2010Prop49
280
     0
102
RTVSPost2010PropOp49
 70
     1
102
RTVSPost2010Prop50
 90
       50
102
RTVSPost2010PropOp50
 70
     1
102
RTVSPost2010Prop51ColorIndex
 90
      256
102
RTVSPost2010Prop51ColorRGB
 90
-16777216
102
RTVSPost2010PropOp51
 70
     0
102
RTVSPost2010Prop52
140
1.0
102
RTVSPost2010PropOp52
 70
     0
102
RTVSPost2010Prop53
 90
        2
102
RTVSPost2010PropOp53
 70
     1
102
RTVSPost2010Prop54
  1
strokes_ogs.tif
102
RTVSPost2010PropOp54
 70
     1
102
RTVSPost2010Prop55
280
     0
102
RTVSPost2010PropOp55
 70
     1
102
RTVSPost2010Prop56
140
1.0
102
RTVSPost2010PropOp56
 70
     1
102
RTVSPost2010Prop57
140
1.0
102
RTVSPost2010PropOp57
 70
     1
  0
XRECORD
  5
153
102
{ACAD_REACTORS
330
152
102
}
330
152
100
AcDbXrecord
280
     1
102
RTVSPost2010Prop28
280
     0
102
RTVSPost2010PropOp28
 70
     1
102
RTVSPost2010Prop29
280
     1
102
RTVSPost2010PropOp29
 70
     1
102
RTVSPost2010Prop30
280
     1
102
RTVSPost2010PropOp30
 70
     1
102
RTVSPost2010Prop31
280
     0
102
RTVSPost2010PropOp31
 70
     1
102
RTVSPost2010Prop32
280
     0
102
RTVSPost2010PropOp32
 70
     1
102
RTVSPost2010Prop33
280
     0
102
RTVSPost2010PropOp33
 70
     1
102
RTVSPost2010Prop34
280
     0
102
RTVSPost2010PropOp34
 70
     1
102
RTVSPost2010Prop35
280
     0
102
RTVSPost2010PropOp35
 70
     1
102
RTVSPost2010Prop36
280
     0
102
RTVSPost2010PropOp36
 70
     1
102
RTVSPost2010Prop37
 90
       50
102
RTVSPost2010PropOp37
 70
     1
102
RTVSPost2010Prop38
140
0.0
102
RTVSPost2010PropOp38
 70
     1
102
RTVSPost2010Prop39
140
1.0
102
RTVSPost2010PropOp39
 70
     1
102
RTVSPost2010Prop40
 90
        0
102
RTVSPost2010PropOp40
 70
     1
102
RTVSPost2010Prop41ColorIndex
 90
       18
102
RTVSPost2010Prop41ColorRGB
 90
        0
102
RTVSPost2010PropOp41
 70
     1
102
RTVSPost2010Prop42
 90
       50
102
RTVSPost2010PropOp42
 70
     1
102
RTVSPost2010Prop43
 90
        3
102
RTVSPost2010PropOp43
 70
     1
102
RTVSPost2010Prop44ColorIndex
 90
        5
102
RTVSPost2010Prop44ColorRGB
 90
      255
102
RTVSPost2010PropOp44
 70
     1
102
RTVSPost2010Prop45
280
     0
102
RTVSPost2010PropOp45
 70
     1
102
RTVSPost2010Prop46
 90
       50
102
RTVSPost2010PropOp46
 70
     1
102
RTVSPost2010Prop47
 90
       50
102
RTVSPost2010PropOp47
 70
     1
102
RTVSPost2010Prop48
 90
       50
102
RTVSPost2010PropOp48
 70
     1
102
RTVSPost2010Prop49
280
     0
102
RTVSPost2010PropOp49
 70
     1
102
RTVSPost2010Prop50
 90
       50
102
RTVSPost2010PropOp50
 70
     1
102
RTVSPost2010Prop51ColorIndex
 90
      256
102
RTVSPost2010Prop51ColorRGB
 90
-16777216
102
RTVSPost2010PropOp51
 70
     0
102
RTVSPost2010Prop52
140
1.0
102
RTVSPost2010PropOp52
 70
     0
102
RTVSPost2010Prop53
 90
        2
102
RTVSPost2010PropOp53
 70
     1
102
RTVSPost2010Prop54
  1
strokes_ogs.tif
102
RTVSPost2010PropOp54
 70
     1
102
RTVSPost2010Prop55
280
     0
102
RTVSPost2010PropOp55
 70
     1
102
RTVSPost2010Prop56
140
1.0
102
RTVSPost2010PropOp56
 70
     1
102
RTVSPost2010Prop57
140
1.0
102
RTVSPost2010PropOp57
 70
     1
  0
XRECORD
  5
15B
102
{ACAD_REACTORS
330
15A
102
}
330
15A
100
AcDbXrecord
280
     1
102
RTVSPost2010Prop28
280
     0
102
RTVSPost2010PropOp28
 70
     1
102
RTVSPost2010Prop29
280
     1
102
RTVSPost2010PropOp29
 70
     1
102
RTVSPost2010Prop30
280
     1
102
RTVSPost2010PropOp30
 70
     1
102
RTVSPost2010Prop31
280
     0
102
RTVSPost2010PropOp31
 70
     1
102
RTVSPost2010Prop32
280
     0
102
RTVSPost2010PropOp32
 70
     1
102
RTVSPost2010Prop33
280
     0
102
RTVSPost2010PropOp33
 70
     1
102
RTVSPost2010Prop34
280
     0
102
RTVSPost2010PropOp34
 70
     1
102
RTVSPost2010Prop35
280
     0
102
RTVSPost2010PropOp35
 70
     1
102
RTVSPost2010Prop36
280
     0
102
RTVSPost2010PropOp36
 70
     1
102
RTVSPost2010Prop37
 90
       50
102
RTVSPost2010PropOp37
 70
     1
102
RTVSPost2010Prop38
140
0.0
102
RTVSPost2010PropOp38
 70
     1
102
RTVSPost2010Prop39
140
1.0
102
RTVSPost2010PropOp39
 70
     1
102
RTVSPost2010Prop40
 90
        0
102
RTVSPost2010PropOp40
 70
     1
102
RTVSPost2010Prop41ColorIndex
 90
       18
102
RTVSPost2010Prop41ColorRGB
 90
        0
102
RTVSPost2010PropOp41
 70
     1
102
RTVSPost2010Prop42
 90
       50
102
RTVSPost2010PropOp42
 70
     1
102
RTVSPost2010Prop43
 90
        3
102
RTVSPost2010PropOp43
 70
     1
102
RTVSPost2010Prop44ColorIndex
 90
        5
102
RTVSPost2010Prop44ColorRGB
 90
      255
102
RTVSPost2010PropOp44
 70
     1
102
RTVSPost2010Prop45
280
     0
102
RTVSPost2010PropOp45
 70
     1
102
RTVSPost2010Prop46
 90
       50
102
RTVSPost2010PropOp46
 70
     1
102
RTVSPost2010Prop47
 90
       50
102
RTVSPost2010PropOp47
 70
     1
102
RTVSPost2010Prop48
 90
       50
102
RTVSPost2010PropOp48
 70
     1
102
RTVSPost2010Prop49
280
     0
102
RTVSPost2010PropOp49
 70
     1
102
RTVSPost2010Prop50
 90
       50
102
RTVSPost2010PropOp50
 70
     1
102
RTVSPost2010Prop51ColorIndex
 90
      256
102
RTVSPost2010Prop51ColorRGB
 90
-16777216
102
RTVSPost2010PropOp51
 70
     0
102
RTVSPost2010Prop52
140
1.0
102
RTVSPost2010PropOp52
 70
     0
102
RTVSPost2010Prop53
 90
        2
102
RTVSPost2010PropOp53
 70
     1
102
RTVSPost2010Prop54
  1
strokes_ogs.tif
102
RTVSPost2010PropOp54
 70
     1
102
RTVSPost2010Prop55
280
     0
102
RTVSPost2010PropOp55
 70
     1
102
RTVSPost2010Prop56
140
1.0
102
RTVSPost2010PropOp56
 70
     1
102
RTVSPost2010Prop57
140
1.0
102
RTVSPost2010PropOp57
 70
     1
  0
XRECORD
  5
163
102
{ACAD_REACTORS
330
162
102
}
330
162
100
AcDbXrecord
280
     1
102
RTVSPost2010Prop28
280
     0
102
RTVSPost2010PropOp28
 70
     1
102
RTVSPost2010Prop29
280
     1
102
RTVSPost2010PropOp29
 70
     1
102
RTVSPost2010Prop30
280
     1
102
RTVSPost2010PropOp30
 70
     1
102
RTVSPost2010Prop31
280
     0
102
RTVSPost2010PropOp31
 70
     1
102
RTVSPost2010Prop32
280
     0
102
RTVSPost2010PropOp32
 70
     1
102
RTVSPost2010Prop33
280
     0
102
RTVSPost2010PropOp33
 70
     1
102
RTVSPost2010Prop34
280
     0
102
RTVSPost2010PropOp34
 70
     1
102
RTVSPost2010Prop35
280
     0
102
RTVSPost2010PropOp35
 70
     1
102
RTVSPost2010Prop36
280
     0
102
RTVSPost2010PropOp36
 70
     1
102
RTVSPost2010Prop37
 90
       50
102
RTVSPost2010PropOp37
 70
     1
102
RTVSPost2010Prop38
140
0.0
102
RTVSPost2010PropOp38
 70
     1
102
RTVSPost2010Prop39
140
1.0
102
RTVSPost2010PropOp39
 70
     1
102
RTVSPost2010Prop40
 90
        0
102
RTVSPost2010PropOp40
 70
     1
102
RTVSPost2010Prop41ColorIndex
 90
       18
102
RTVSPost2010Prop41ColorRGB
 90
        0
102
RTVSPost2010PropOp41
 70
     1
102
RTVSPost2010Prop42
 90
       50
102
RTVSPost2010PropOp42
 70
     1
102
RTVSPost2010Prop43
 90
        3
102
RTVSPost2010PropOp43
 70
     1
102
RTVSPost2010Prop44ColorIndex
 90
        5
102
RTVSPost2010Prop44ColorRGB
 90
      255
102
RTVSPost2010PropOp44
 70
     1
102
RTVSPost2010Prop45
280
     0
102
RTVSPost2010PropOp45
 70
     1
102
RTVSPost2010Prop46
 90
       50
102
RTVSPost2010PropOp46
 70
     1
102
RTVSPost2010Prop47
 90
       50
102
RTVSPost2010PropOp47
 70
     1
102
RTVSPost2010Prop48
 90
       50
102
RTVSPost2010PropOp48
 70
     1
102
RTVSPost2010Prop49
280
     0
102
RTVSPost2010PropOp49
 70
     1
102
RTVSPost2010Prop50
 90
       50
102
RTVSPost2010PropOp50
 70
     1
102
RTVSPost2010Prop51ColorIndex
 90
      256
102
RTVSPost2010Prop51ColorRGB
 90
-16777216
102
RTVSPost2010PropOp51
 70
     0
102
RTVSPost2010Prop52
140
1.0
102
RTVSPost2010PropOp52
 70
     0
102
RTVSPost2010Prop53
 90
        2
102
RTVSPost2010PropOp53
 70
     1
102
RTVSPost2010Prop54
  1
strokes_ogs.tif
102
RTVSPost2010PropOp54
 70
     1
102
RTVSPost2010Prop55
280
     0
102
RTVSPost2010PropOp55
 70
     1
102
RTVSPost2010Prop56
140
1.0
102
RTVSPost2010PropOp56
 70
     1
102
RTVSPost2010Prop57
140
1.0
102
RTVSPost2010PropOp57
 70
     1
  0
XRECORD
  5
157
102
{ACAD_REACTORS
330
156
102
}
330
156
100
AcDbXrecord
280
     1
102
RTVSPost2010Prop28
280
     0
102
RTVSPost2010PropOp28
 70
     1
102
RTVSPost2010Prop29
280
     1
102
RTVSPost2010PropOp29
 70
     1
102
RTVSPost2010Prop30
280
     1
102
RTVSPost2010PropOp30
 70
     1
102
RTVSPost2010Prop31
280
     0
102
RTVSPost2010PropOp31
 70
     1
102
RTVSPost2010Prop32
280
     0
102
RTVSPost2010PropOp32
 70
     1
102
RTVSPost2010Prop33
280
     0
102
RTVSPost2010PropOp33
 70
     1
102
RTVSPost2010Prop34
280
     0
102
RTVSPost2010PropOp34
 70
     1
102
RTVSPost2010Prop35
280
     0
102
RTVSPost2010PropOp35
 70
     1
102
RTVSPost2010Prop36
280
     0
102
RTVSPost2010PropOp36
 70
     1
102
RTVSPost2010Prop37
 90
       50
102
RTVSPost2010PropOp37
 70
     1
102
RTVSPost2010Prop38
140
0.0
102
RTVSPost2010PropOp38
 70
     1
102
RTVSPost2010Prop39
140
1.0
102
RTVSPost2010PropOp39
 70
     1
102
RTVSPost2010Prop40
 90
        0
102
RTVSPost2010PropOp40
 70
     1
102
RTVSPost2010Prop41ColorIndex
 90
       18
102
RTVSPost2010Prop41ColorRGB
 90
        0
102
RTVSPost2010PropOp41
 70
     1
102
RTVSPost2010Prop42
 90
       50
102
RTVSPost2010PropOp42
 70
     1
102
RTVSPost2010Prop43
 90
        3
102
RTVSPost2010PropOp43
 70
     1
102
RTVSPost2010Prop44ColorIndex
 90
        5
102
RTVSPost2010Prop44ColorRGB
 90
      255
102
RTVSPost2010PropOp44
 70
     1
102
RTVSPost2010Prop45
280
     0
102
RTVSPost2010PropOp45
 70
     1
102
RTVSPost2010Prop46
 90
       50
102
RTVSPost2010PropOp46
 70
     1
102
RTVSPost2010Prop47
 90
       50
102
RTVSPost2010PropOp47
 70
     1
102
RTVSPost2010Prop48
 90
       50
102
RTVSPost2010PropOp48
 70
     1
102
RTVSPost2010Prop49
280
     0
102
RTVSPost2010PropOp49
 70
     1
102
RTVSPost2010Prop50
 90
       50
102
RTVSPost2010PropOp50
 70
     1
102
RTVSPost2010Prop51ColorIndex
 90
      256
102
RTVSPost2010Prop51ColorRGB
 90
-16777216
102
RTVSPost2010PropOp51
 70
     0
102
RTVSPost2010Prop52
140
1.0
102
RTVSPost2010PropOp52
 70
     0
102
RTVSPost2010Prop53
 90
        2
102
RTVSPost2010PropOp53
 70
     1
102
RTVSPost2010Prop54
  1
strokes_ogs.tif
102
RTVSPost2010PropOp54
 70
     1
102
RTVSPost2010Prop55
280
     0
102
RTVSPost2010PropOp55
 70
     1
102
RTVSPost2010Prop56
140
1.0
102
RTVSPost2010PropOp56
 70
     1
102
RTVSPost2010Prop57
140
1.0
102
RTVSPost2010PropOp57
 70
     1
  0
XRECORD
  5
159
102
{ACAD_REACTORS
330
158
102
}
330
158
100
AcDbXrecord
280
     1
102
RTVSPost2010Prop28
280
     0
102
RTVSPost2010PropOp28
 70
     1
102
RTVSPost2010Prop29
280
     1
102
RTVSPost2010PropOp29
 70
     1
102
RTVSPost2010Prop30
280
     1
102
RTVSPost2010PropOp30
 70
     1
102
RTVSPost2010Prop31
280
     0
102
RTVSPost2010PropOp31
 70
     1
102
RTVSPost2010Prop32
280
     0
102
RTVSPost2010PropOp32
 70
     1
102
RTVSPost2010Prop33
280
     0
102
RTVSPost2010PropOp33
 70
     1
102
RTVSPost2010Prop34
280
     0
102
RTVSPost2010PropOp34
 70
     1
102
RTVSPost2010Prop35
280
     0
102
RTVSPost2010PropOp35
 70
     1
102
RTVSPost2010Prop36
280
     0
102
RTVSPost2010PropOp36
 70
     1
102
RTVSPost2010Prop37
 90
       50
102
RTVSPost2010PropOp37
 70
     1
102
RTVSPost2010Prop38
140
0.0
102
RTVSPost2010PropOp38
 70
     1
102
RTVSPost2010Prop39
140
1.0
102
RTVSPost2010PropOp39
 70
     1
102
RTVSPost2010Prop40
 90
        0
102
RTVSPost2010PropOp40
 70
     1
102
RTVSPost2010Prop41ColorIndex
 90
       18
102
RTVSPost2010Prop41ColorRGB
 90
        0
102
RTVSPost2010PropOp41
 70
     1
102
RTVSPost2010Prop42
 90
       50
102
RTVSPost2010PropOp42
 70
     1
102
RTVSPost2010Prop43
 90
        3
102
RTVSPost2010PropOp43
 70
     1
102
RTVSPost2010Prop44ColorIndex
 90
        5
102
RTVSPost2010Prop44ColorRGB
 90
      255
102
RTVSPost2010PropOp44
 70
     1
102
RTVSPost2010Prop45
280
     0
102
RTVSPost2010PropOp45
 70
     1
102
RTVSPost2010Prop46
 90
       50
102
RTVSPost2010PropOp46
 70
     1
102
RTVSPost2010Prop47
 90
       50
102
RTVSPost2010PropOp47
 70
     1
102
RTVSPost2010Prop48
 90
       50
102
RTVSPost2010PropOp48
 70
     1
102
RTVSPost2010Prop49
280
     0
102
RTVSPost2010PropOp49
 70
     1
102
RTVSPost2010Prop50
 90
       50
102
RTVSPost2010PropOp50
 70
     1
102
RTVSPost2010Prop51ColorIndex
 90
      256
102
RTVSPost2010Prop51ColorRGB
 90
-16777216
102
RTVSPost2010PropOp51
 70
     0
102
RTVSPost2010Prop52
140
1.0
102
RTVSPost2010PropOp52
 70
     0
102
RTVSPost2010Prop53
 90
        2
102
RTVSPost2010PropOp53
 70
     1
102
RTVSPost2010Prop54
  1
strokes_ogs.tif
102
RTVSPost2010PropOp54
 70
     1
102
RTVSPost2010Prop55
280
     0
102
RTVSPost2010PropOp55
 70
     1
102
RTVSPost2010Prop56
140
1.0
102
RTVSPost2010PropOp56
 70
     1
102
RTVSPost2010Prop57
140
1.0
102
RTVSPost2010PropOp57
 70
     1
  0
XRECORD
  5
169
102
{ACAD_REACTORS
330
168
102
}
330
168
100
AcDbXrecord
280
     1
102
RTVSPost2010Prop28
280
     0
102
RTVSPost2010PropOp28
 70
     0
102
RTVSPost2010Prop29
280
     1
102
RTVSPost2010PropOp29
 70
     0
102
RTVSPost2010Prop30
280
     1
102
RTVSPost2010PropOp30
 70
     0
102
RTVSPost2010Prop31
280
     0
102
RTVSPost2010PropOp31
 70
     0
102
RTVSPost2010Prop32
280
     0
102
RTVSPost2010PropOp32
 70
     0
102
RTVSPost2010Prop33
280
     0
102
RTVSPost2010PropOp33
 70
     0
102
RTVSPost2010Prop34
280
     0
102
RTVSPost2010PropOp34
 70
     0
102
RTVSPost2010Prop35
280
     0
102
RTVSPost2010PropOp35
 70
     0
102
RTVSPost2010Prop36
280
     0
102
RTVSPost2010PropOp36
 70
     0
102
RTVSPost2010Prop37
 90
       50
102
RTVSPost2010PropOp37
 70
     0
102
RTVSPost2010Prop38
140
0.0
102
RTVSPost2010PropOp38
 70
     0
102
RTVSPost2010Prop39
140
1.0
102
RTVSPost2010PropOp39
 70
     0
102
RTVSPost2010Prop40
 90
        0
102
RTVSPost2010PropOp40
 70
     0
102
RTVSPost2010Prop41ColorIndex
 90
       18
102
RTVSPost2010Prop41ColorRGB
 90
        0
102
RTVSPost2010PropOp41
 70
     0
102
RTVSPost2010Prop42
 90
       50
102
RTVSPost2010PropOp42
 70
     0
102
RTVSPost2010Prop43
 90
        3
102
RTVSPost2010PropOp43
 70
     0
102
RTVSPost2010Prop44ColorIndex
 90
        5
102
RTVSPost2010Prop44ColorRGB
 90
      255
102
RTVSPost2010PropOp44
 70
     0
102
RTVSPost2010Prop45
280
     0
102
RTVSPost2010PropOp45
 70
     0
102
RTVSPost2010Prop46
 90
       50
102
RTVSPost2010PropOp46
 70
     0
102
RTVSPost2010Prop47
 90
       50
102
RTVSPost2010PropOp47
 70
     0
102
RTVSPost2010Prop48
 90
       50
102
RTVSPost2010PropOp48
 70
     0
102
RTVSPost2010Prop49
280
     0
102
RTVSPost2010PropOp49
 70
     0
102
RTVSPost2010Prop50
 90
       50
102
RTVSPost2010PropOp50
 70
     0
102
RTVSPost2010Prop51ColorIndex
 90
      256
102
RTVSPost2010Prop51ColorRGB
 90
-16777216
102
RTVSPost2010PropOp51
 70
     0
102
RTVSPost2010Prop52
140
1.0
102
RTVSPost2010PropOp52
 70
     0
102
RTVSPost2010Prop53
 90
        2
102
RTVSPost2010PropOp53
 70
     0
102
RTVSPost2010Prop54
  1
strokes_ogs.tif
102
RTVSPost2010PropOp54
 70
     0
102
RTVSPost2010Prop55
280
     0
102
RTVSPost2010PropOp55
 70
     0
102
RTVSPost2010Prop56
140
1.0
102
RTVSPost2010PropOp56
 70
     0
102
RTVSPost2010Prop57
140
1.0
102
RTVSPost2010PropOp57
 70
     0
  0
XRECORD
  5
161
102
{ACAD_REACTORS
330
160
102
}
330
160
100
AcDbXrecord
280
     1
102
RTVSPost2010Prop28
280
     0
102
RTVSPost2010PropOp28
 70
     1
102
RTVSPost2010Prop29
280
     1
102
RTVSPost2010PropOp29
 70
     1
102
RTVSPost2010Prop30
280
     1
102
RTVSPost2010PropOp30
 70
     1
102
RTVSPost2010Prop31
280
     0
102
RTVSPost2010PropOp31
 70
     1
102
RTVSPost2010Prop32
280
     0
102
RTVSPost2010PropOp32
 70
     1
102
RTVSPost2010Prop33
280
     0
102
RTVSPost2010PropOp33
 70
     1
102
RTVSPost2010Prop34
280
     0
102
RTVSPost2010PropOp34
 70
     1
102
RTVSPost2010Prop35
280
     0
102
RTVSPost2010PropOp35
 70
     1
102
RTVSPost2010Prop36
280
     0
102
RTVSPost2010PropOp36
 70
     1
102
RTVSPost2010Prop37
 90
       50
102
RTVSPost2010PropOp37
 70
     1
102
RTVSPost2010Prop38
140
0.0
102
RTVSPost2010PropOp38
 70
     1
102
RTVSPost2010Prop39
140
1.0
102
RTVSPost2010PropOp39
 70
     1
102
RTVSPost2010Prop40
 90
        0
102
RTVSPost2010PropOp40
 70
     1
102
RTVSPost2010Prop41ColorIndex
 90
       18
102
RTVSPost2010Prop41ColorRGB
 90
        0
102
RTVSPost2010PropOp41
 70
     1
102
RTVSPost2010Prop42
 90
       50
102
RTVSPost2010PropOp42
 70
     1
102
RTVSPost2010Prop43
 90
        3
102
RTVSPost2010PropOp43
 70
     1
102
RTVSPost2010Prop44ColorIndex
 90
        5
102
RTVSPost2010Prop44ColorRGB
 90
      255
102
RTVSPost2010PropOp44
 70
     1
102
RTVSPost2010Prop45
280
     0
102
RTVSPost2010PropOp45
 70
     1
102
RTVSPost2010Prop46
 90
       50
102
RTVSPost2010PropOp46
 70
     1
102
RTVSPost2010Prop47
 90
       50
102
RTVSPost2010PropOp47
 70
     1
102
RTVSPost2010Prop48
 90
       50
102
RTVSPost2010PropOp48
 70
     1
102
RTVSPost2010Prop49
280
     0
102
RTVSPost2010PropOp49
 70
     1
102
RTVSPost2010Prop50
 90
       50
102
RTVSPost2010PropOp50
 70
     1
102
RTVSPost2010Prop51ColorIndex
 90
      256
102
RTVSPost2010Prop51ColorRGB
 90
-16777216
102
RTVSPost2010PropOp51
 70
     0
102
RTVSPost2010Prop52
140
1.0
102
RTVSPost2010PropOp52
 70
     0
102
RTVSPost2010Prop53
 90
        2
102
RTVSPost2010PropOp53
 70
     1
102
RTVSPost2010Prop54
  1
strokes_ogs.tif
102
RTVSPost2010PropOp54
 70
     1
102
RTVSPost2010Prop55
280
     0
102
RTVSPost2010PropOp55
 70
     1
102
RTVSPost2010Prop56
140
1.0
102
RTVSPost2010PropOp56
 70
     1
102
RTVSPost2010Prop57
140
1.0
102
RTVSPost2010PropOp57
 70
     1
  0
XRECORD
  5
145
102
{ACAD_REACTORS
330
144
102
}
330
144
100
AcDbXrecord
280
     1
102
RTVSPost2010Prop28
280
     0
102
RTVSPost2010PropOp28
 70
     1
102
RTVSPost2010Prop29
280
     1
102
RTVSPost2010PropOp29
 70
     1
102
RTVSPost2010Prop30
280
     1
102
RTVSPost2010PropOp30
 70
     1
102
RTVSPost2010Prop31
280
     0
102
RTVSPost2010PropOp31
 70
     1
102
RTVSPost2010Prop32
280
     0
102
RTVSPost2010PropOp32
 70
     1
102
RTVSPost2010Prop33
280
     0
102
RTVSPost2010PropOp33
 70
     1
102
RTVSPost2010Prop34
280
     0
102
RTVSPost2010PropOp34
 70
     1
102
RTVSPost2010Prop35
280
     0
102
RTVSPost2010PropOp35
 70
     1
102
RTVSPost2010Prop36
280
     0
102
RTVSPost2010PropOp36
 70
     1
102
RTVSPost2010Prop37
 90
       50
102
RTVSPost2010PropOp37
 70
     1
102
RTVSPost2010Prop38
140
0.0
102
RTVSPost2010PropOp38
 70
     1
102
RTVSPost2010Prop39
140
1.0
102
RTVSPost2010PropOp39
 70
     1
102
RTVSPost2010Prop40
 90
        0
102
RTVSPost2010PropOp40
 70
     1
102
RTVSPost2010Prop41ColorIndex
 90
       18
102
RTVSPost2010Prop41ColorRGB
 90
        0
102
RTVSPost2010PropOp41
 70
     1
102
RTVSPost2010Prop42
 90
       50
102
RTVSPost2010PropOp42
 70
     1
102
RTVSPost2010Prop43
 90
        3
102
RTVSPost2010PropOp43
 70
     1
102
RTVSPost2010Prop44ColorIndex
 90
        5
102
RTVSPost2010Prop44ColorRGB
 90
      255
102
RTVSPost2010PropOp44
 70
     1
102
RTVSPost2010Prop45
280
     0
102
RTVSPost2010PropOp45
 70
     1
102
RTVSPost2010Prop46
 90
       50
102
RTVSPost2010PropOp46
 70
     1
102
RTVSPost2010Prop47
 90
       50
102
RTVSPost2010PropOp47
 70
     1
102
RTVSPost2010Prop48
 90
       50
102
RTVSPost2010PropOp48
 70
     1
102
RTVSPost2010Prop49
280
     0
102
RTVSPost2010PropOp49
 70
     1
102
RTVSPost2010Prop50
 90
       50
102
RTVSPost2010PropOp50
 70
     1
102
RTVSPost2010Prop51ColorIndex
 90
      256
102
RTVSPost2010Prop51ColorRGB
 90
-16777216
102
RTVSPost2010PropOp51
 70
     0
102
RTVSPost2010Prop52
140
1.0
102
RTVSPost2010PropOp52
 70
     0
102
RTVSPost2010Prop53
 90
        2
102
RTVSPost2010PropOp53
 70
     1
102
RTVSPost2010Prop54
  1
strokes_ogs.tif
102
RTVSPost2010PropOp54
 70
     1
102
RTVSPost2010Prop55
280
     0
102
RTVSPost2010PropOp55
 70
     1
102
RTVSPost2010Prop56
140
1.0
102
RTVSPost2010PropOp56
 70
     1
102
RTVSPost2010Prop57
140
1.0
102
RTVSPost2010PropOp57
 70
     1
  0
XRECORD
  5
147
102
{ACAD_REACTORS
330
146
102
}
330
146
100
AcDbXrecord
280
     1
102
RTVSPost2010Prop28
280
     0
102
RTVSPost2010PropOp28
 70
     1
102
RTVSPost2010Prop29
280
     1
102
RTVSPost2010PropOp29
 70
     1
102
RTVSPost2010Prop30
280
     1
102
RTVSPost2010PropOp30
 70
     1
102
RTVSPost2010Prop31
280
     0
102
RTVSPost2010PropOp31
 70
     1
102
RTVSPost2010Prop32
280
     0
102
RTVSPost2010PropOp32
 70
     1
102
RTVSPost2010Prop33
280
     0
102
RTVSPost2010PropOp33
 70
     1
102
RTVSPost2010Prop34
280
     0
102
RTVSPost2010PropOp34
 70
     1
102
RTVSPost2010Prop35
280
     0
102
RTVSPost2010PropOp35
 70
     1
102
RTVSPost2010Prop36
280
     0
102
RTVSPost2010PropOp36
 70
     1
102
RTVSPost2010Prop37
 90
       50
102
RTVSPost2010PropOp37
 70
     1
102
RTVSPost2010Prop38
140
0.0
102
RTVSPost2010PropOp38
 70
     1
102
RTVSPost2010Prop39
140
1.0
102
RTVSPost2010PropOp39
 70
     1
102
RTVSPost2010Prop40
 90
        0
102
RTVSPost2010PropOp40
 70
     1
102
RTVSPost2010Prop41ColorIndex
 90
       18
102
RTVSPost2010Prop41ColorRGB
 90
        0
102
RTVSPost2010PropOp41
 70
     1
102
RTVSPost2010Prop42
 90
       50
102
RTVSPost2010PropOp42
 70
     1
102
RTVSPost2010Prop43
 90
        3
102
RTVSPost2010PropOp43
 70
     1
102
RTVSPost2010Prop44ColorIndex
 90
        5
102
RTVSPost2010Prop44ColorRGB
 90
      255
102
RTVSPost2010PropOp44
 70
     1
102
RTVSPost2010Prop45
280
     0
102
RTVSPost2010PropOp45
 70
     1
102
RTVSPost2010Prop46
 90
       50
102
RTVSPost2010PropOp46
 70
     1
102
RTVSPost2010Prop47
 90
       50
102
RTVSPost2010PropOp47
 70
     1
102
RTVSPost2010Prop48
 90
       50
102
RTVSPost2010PropOp48
 70
     1
102
RTVSPost2010Prop49
280
     0
102
RTVSPost2010PropOp49
 70
     1
102
RTVSPost2010Prop50
 90
       50
102
RTVSPost2010PropOp50
 70
     1
102
RTVSPost2010Prop51ColorIndex
 90
      256
102
RTVSPost2010Prop51ColorRGB
 90
-16777216
102
RTVSPost2010PropOp51
 70
     0
102
RTVSPost2010Prop52
140
1.0
102
RTVSPost2010PropOp52
 70
     0
102
RTVSPost2010Prop53
 90
        2
102
RTVSPost2010PropOp53
 70
     1
102
RTVSPost2010Prop54
  1
strokes_ogs.tif
102
RTVSPost2010PropOp54
 70
     1
102
RTVSPost2010Prop55
280
     0
102
RTVSPost2010PropOp55
 70
     1
102
RTVSPost2010Prop56
140
1.0
102
RTVSPost2010PropOp56
 70
     1
102
RTVSPost2010Prop57
140
1.0
102
RTVSPost2010PropOp57
 70
     1
  0
XRECORD
  5
149
102
{ACAD_REACTORS
330
148
102
}
330
148
100
AcDbXrecord
280
     1
102
RTVSPost2010Prop28
280
     0
102
RTVSPost2010PropOp28
 70
     1
102
RTVSPost2010Prop29
280
     1
102
RTVSPost2010PropOp29
 70
     1
102
RTVSPost2010Prop30
280
     1
102
RTVSPost2010PropOp30
 70
     1
102
RTVSPost2010Prop31
280
     0
102
RTVSPost2010PropOp31
 70
     1
102
RTVSPost2010Prop32
280
     0
102
RTVSPost2010PropOp32
 70
     1
102
RTVSPost2010Prop33
280
     0
102
RTVSPost2010PropOp33
 70
     1
102
RTVSPost2010Prop34
280
     0
102
RTVSPost2010PropOp34
 70
     1
102
RTVSPost2010Prop35
280
     0
102
RTVSPost2010PropOp35
 70
     1
102
RTVSPost2010Prop36
280
     0
102
RTVSPost2010PropOp36
 70
     1
102
RTVSPost2010Prop37
 90
       50
102
RTVSPost2010PropOp37
 70
     1
102
RTVSPost2010Prop38
140
0.0
102
RTVSPost2010PropOp38
 70
     1
102
RTVSPost2010Prop39
140
1.0
102
RTVSPost2010PropOp39
 70
     1
102
RTVSPost2010Prop40
 90
        0
102
RTVSPost2010PropOp40
 70
     1
102
RTVSPost2010Prop41ColorIndex
 90
       18
102
RTVSPost2010Prop41ColorRGB
 90
        0
102
RTVSPost2010PropOp41
 70
     1
102
RTVSPost2010Prop42
 90
       50
102
RTVSPost2010PropOp42
 70
     1
102
RTVSPost2010Prop43
 90
        3
102
RTVSPost2010PropOp43
 70
     1
102
RTVSPost2010Prop44ColorIndex
 90
        5
102
RTVSPost2010Prop44ColorRGB
 90
      255
102
RTVSPost2010PropOp44
 70
     1
102
RTVSPost2010Prop45
280
     0
102
RTVSPost2010PropOp45
 70
     1
102
RTVSPost2010Prop46
 90
       50
102
RTVSPost2010PropOp46
 70
     1
102
RTVSPost2010Prop47
 90
       50
102
RTVSPost2010PropOp47
 70
     1
102
RTVSPost2010Prop48
 90
       50
102
RTVSPost2010PropOp48
 70
     1
102
RTVSPost2010Prop49
280
     0
102
RTVSPost2010PropOp49
 70
     1
102
RTVSPost2010Prop50
 90
       50
102
RTVSPost2010PropOp50
 70
     1
102
RTVSPost2010Prop51ColorIndex
 90
      256
102
RTVSPost2010Prop51ColorRGB
 90
-16777216
102
RTVSPost2010PropOp51
 70
     0
102
RTVSPost2010Prop52
140
1.0
102
RTVSPost2010PropOp52
 70
     0
102
RTVSPost2010Prop53
 90
        2
102
RTVSPost2010PropOp53
 70
     1
102
RTVSPost2010Prop54
  1
strokes_ogs.tif
102
RTVSPost2010PropOp54
 70
     1
102
RTVSPost2010Prop55
280
     0
102
RTVSPost2010PropOp55
 70
     1
102
RTVSPost2010Prop56
140
1.0
102
RTVSPost2010PropOp56
 70
     1
102
RTVSPost2010Prop57
140
1.0
102
RTVSPost2010PropOp57
 70
     1
  0
XRECORD
  5
14B
102
{ACAD_REACTORS
330
14A
102
}
330
14A
100
AcDbXrecord
280
     1
102
RTVSPost2010Prop28
280
     0
102
RTVSPost2010PropOp28
 70
     1
102
RTVSPost2010Prop29
280
     1
102
RTVSPost2010PropOp29
 70
     1
102
RTVSPost2010Prop30
280
     1
102
RTVSPost2010PropOp30
 70
     1
102
RTVSPost2010Prop31
280
     0
102
RTVSPost2010PropOp31
 70
     1
102
RTVSPost2010Prop32
280
     0
102
RTVSPost2010PropOp32
 70
     1
102
RTVSPost2010Prop33
280
     0
102
RTVSPost2010PropOp33
 70
     1
102
RTVSPost2010Prop34
280
     0
102
RTVSPost2010PropOp34
 70
     1
102
RTVSPost2010Prop35
280
     0
102
RTVSPost2010PropOp35
 70
     1
102
RTVSPost2010Prop36
280
     0
102
RTVSPost2010PropOp36
 70
     1
102
RTVSPost2010Prop37
 90
       50
102
RTVSPost2010PropOp37
 70
     1
102
RTVSPost2010Prop38
140
0.0
102
RTVSPost2010PropOp38
 70
     1
102
RTVSPost2010Prop39
140
1.0
102
RTVSPost2010PropOp39
 70
     1
102
RTVSPost2010Prop40
 90
        0
102
RTVSPost2010PropOp40
 70
     1
102
RTVSPost2010Prop41ColorIndex
 90
       18
102
RTVSPost2010Prop41ColorRGB
 90
        0
102
RTVSPost2010PropOp41
 70
     1
102
RTVSPost2010Prop42
 90
       50
102
RTVSPost2010PropOp42
 70
     1
102
RTVSPost2010Prop43
 90
        3
102
RTVSPost2010PropOp43
 70
     1
102
RTVSPost2010Prop44ColorIndex
 90
        5
102
RTVSPost2010Prop44ColorRGB
 90
      255
102
RTVSPost2010PropOp44
 70
     1
102
RTVSPost2010Prop45
280
     0
102
RTVSPost2010PropOp45
 70
     1
102
RTVSPost2010Prop46
 90
       50
102
RTVSPost2010PropOp46
 70
     1
102
RTVSPost2010Prop47
 90
       50
102
RTVSPost2010PropOp47
 70
     1
102
RTVSPost2010Prop48
 90
       50
102
RTVSPost2010PropOp48
 70
     1
102
RTVSPost2010Prop49
280
     0
102
RTVSPost2010PropOp49
 70
     1
102
RTVSPost2010Prop50
 90
       50
102
RTVSPost2010PropOp50
 70
     1
102
RTVSPost2010Prop51ColorIndex
 90
      256
102
RTVSPost2010Prop51ColorRGB
 90
-16777216
102
RTVSPost2010PropOp51
 70
     0
102
RTVSPost2010Prop52
140
1.0
102
RTVSPost2010PropOp52
 70
     0
102
RTVSPost2010Prop53
 90
        2
102
RTVSPost2010PropOp53
 70
     1
102
RTVSPost2010Prop54
  1
strokes_ogs.tif
102
RTVSPost2010PropOp54
 70
     1
102
RTVSPost2010Prop55
280
     0
102
RTVSPost2010PropOp55
 70
     1
102
RTVSPost2010Prop56
140
1.0
102
RTVSPost2010PropOp56
 70
     1
102
RTVSPost2010Prop57
140
1.0
102
RTVSPost2010PropOp57
 70
     1
  0
XRECORD
  5
151
102
{ACAD_REACTORS
330
150
102
}
330
150
100
AcDbXrecord
280
     1
102
RTVSPost2010Prop28
280
     0
102
RTVSPost2010PropOp28
 70
     1
102
RTVSPost2010Prop29
280
     1
102
RTVSPost2010PropOp29
 70
     1
102
RTVSPost2010Prop30
280
     1
102
RTVSPost2010PropOp30
 70
     1
102
RTVSPost2010Prop31
280
     0
102
RTVSPost2010PropOp31
 70
     1
102
RTVSPost2010Prop32
280
     0
102
RTVSPost2010PropOp32
 70
     1
102
RTVSPost2010Prop33
280
     0
102
RTVSPost2010PropOp33
 70
     1
102
RTVSPost2010Prop34
280
     0
102
RTVSPost2010PropOp34
 70
     1
102
RTVSPost2010Prop35
280
     0
102
RTVSPost2010PropOp35
 70
     1
102
RTVSPost2010Prop36
280
     0
102
RTVSPost2010PropOp36
 70
     1
102
RTVSPost2010Prop37
 90
       50
102
RTVSPost2010PropOp37
 70
     1
102
RTVSPost2010Prop38
140
0.0
102
RTVSPost2010PropOp38
 70
     1
102
RTVSPost2010Prop39
140
1.0
102
RTVSPost2010PropOp39
 70
     1
102
RTVSPost2010Prop40
 90
        0
102
RTVSPost2010PropOp40
 70
     1
102
RTVSPost2010Prop41ColorIndex
 90
       18
102
RTVSPost2010Prop41ColorRGB
 90
        0
102
RTVSPost2010PropOp41
 70
     1
102
RTVSPost2010Prop42
 90
       50
102
RTVSPost2010PropOp42
 70
     1
102
RTVSPost2010Prop43
 90
        3
102
RTVSPost2010PropOp43
 70
     1
102
RTVSPost2010Prop44ColorIndex
 90
        5
102
RTVSPost2010Prop44ColorRGB
 90
      255
102
RTVSPost2010PropOp44
 70
     1
102
RTVSPost2010Prop45
280
     0
102
RTVSPost2010PropOp45
 70
     1
102
RTVSPost2010Prop46
 90
       50
102
RTVSPost2010PropOp46
 70
     1
102
RTVSPost2010Prop47
 90
       50
102
RTVSPost2010PropOp47
 70
     1
102
RTVSPost2010Prop48
 90
       50
102
RTVSPost2010PropOp48
 70
     1
102
RTVSPost2010Prop49
280
     0
102
RTVSPost2010PropOp49
 70
     1
102
RTVSPost2010Prop50
 90
       50
102
RTVSPost2010PropOp50
 70
     1
102
RTVSPost2010Prop51ColorIndex
 90
      256
102
RTVSPost2010Prop51ColorRGB
 90
-16777216
102
RTVSPost2010PropOp51
 70
     0
102
RTVSPost2010Prop52
140
1.0
102
RTVSPost2010PropOp52
 70
     0
102
RTVSPost2010Prop53
 90
        2
102
RTVSPost2010PropOp53
 70
     1
102
RTVSPost2010Prop54
  1
strokes_ogs.tif
102
RTVSPost2010PropOp54
 70
     1
102
RTVSPost2010Prop55
280
     0
102
RTVSPost2010PropOp55
 70
     1
102
RTVSPost2010Prop56
140
1.0
102
RTVSPost2010PropOp56
 70
     1
102
RTVSPost2010Prop57
140
1.0
102
RTVSPost2010PropOp57
 70
     1
  0
XRECORD
  5
165
102
{ACAD_REACTORS
330
164
102
}
330
164
100
AcDbXrecord
280
     1
102
RTVSPost2010Prop28
280
     0
102
RTVSPost2010PropOp28
 70
     0
102
RTVSPost2010Prop29
280
     1
102
RTVSPost2010PropOp29
 70
     0
102
RTVSPost2010Prop30
280
     1
102
RTVSPost2010PropOp30
 70
     0
102
RTVSPost2010Prop31
280
     0
102
RTVSPost2010PropOp31
 70
     0
102
RTVSPost2010Prop32
280
     0
102
RTVSPost2010PropOp32
 70
     0
102
RTVSPost2010Prop33
280
     0
102
RTVSPost2010PropOp33
 70
     0
102
RTVSPost2010Prop34
280
     0
102
RTVSPost2010PropOp34
 70
     0
102
RTVSPost2010Prop35
280
     0
102
RTVSPost2010PropOp35
 70
     0
102
RTVSPost2010Prop36
280
     0
102
RTVSPost2010PropOp36
 70
     0
102
RTVSPost2010Prop37
 90
       50
102
RTVSPost2010PropOp37
 70
     0
102
RTVSPost2010Prop38
140
0.0
102
RTVSPost2010PropOp38
 70
     0
102
RTVSPost2010Prop39
140
1.0
102
RTVSPost2010PropOp39
 70
     0
102
RTVSPost2010Prop40
 90
        0
102
RTVSPost2010PropOp40
 70
     0
102
RTVSPost2010Prop41ColorIndex
 90
       18
102
RTVSPost2010Prop41ColorRGB
 90
        0
102
RTVSPost2010PropOp41
 70
     0
102
RTVSPost2010Prop42
 90
       50
102
RTVSPost2010PropOp42
 70
     0
102
RTVSPost2010Prop43
 90
        3
102
RTVSPost2010PropOp43
 70
     0
102
RTVSPost2010Prop44ColorIndex
 90
        5
102
RTVSPost2010Prop44ColorRGB
 90
      255
102
RTVSPost2010PropOp44
 70
     0
102
RTVSPost2010Prop45
280
     0
102
RTVSPost2010PropOp45
 70
     0
102
RTVSPost2010Prop46
 90
       50
102
RTVSPost2010PropOp46
 70
     0
102
RTVSPost2010Prop47
 90
       50
102
RTVSPost2010PropOp47
 70
     0
102
RTVSPost2010Prop48
 90
       50
102
RTVSPost2010PropOp48
 70
     0
102
RTVSPost2010Prop49
280
     0
102
RTVSPost2010PropOp49
 70
     0
102
RTVSPost2010Prop50
 90
       50
102
RTVSPost2010PropOp50
 70
     0
102
RTVSPost2010Prop51ColorIndex
 90
      256
102
RTVSPost2010Prop51ColorRGB
 90
-16777216
102
RTVSPost2010PropOp51
 70
     0
102
RTVSPost2010Prop52
140
1.0
102
RTVSPost2010PropOp52
 70
     0
102
RTVSPost2010Prop53
 90
        2
102
RTVSPost2010PropOp53
 70
     0
102
RTVSPost2010Prop54
  1
strokes_ogs.tif
102
RTVSPost2010PropOp54
 70
     0
102
RTVSPost2010Prop55
280
     0
102
RTVSPost2010PropOp55
 70
     0
102
RTVSPost2010Prop56
140
1.0
102
RTVSPost2010PropOp56
 70
     0
102
RTVSPost2010Prop57
140
1.0
102
RTVSPost2010PropOp57
 70
     0
  0
XRECORD
  5
15F
102
{ACAD_REACTORS
330
15E
102
}
330
15E
100
AcDbXrecord
280
     1
102
RTVSPost2010Prop28
280
     0
102
RTVSPost2010PropOp28
 70
     1
102
RTVSPost2010Prop29
280
     1
102
RTVSPost2010PropOp29
 70
     1
102
RTVSPost2010Prop30
280
     1
102
RTVSPost2010PropOp30
 70
     1
102
RTVSPost2010Prop31
280
     0
102
RTVSPost2010PropOp31
 70
     1
102
RTVSPost2010Prop32
280
     0
102
RTVSPost2010PropOp32
 70
     1
102
RTVSPost2010Prop33
280
     0
102
RTVSPost2010PropOp33
 70
     1
102
RTVSPost2010Prop34
280
     0
102
RTVSPost2010PropOp34
 70
     1
102
RTVSPost2010Prop35
280
     0
102
RTVSPost2010PropOp35
 70
     1
102
RTVSPost2010Prop36
280
     0
102
RTVSPost2010PropOp36
 70
     1
102
RTVSPost2010Prop37
 90
       50
102
RTVSPost2010PropOp37
 70
     1
102
RTVSPost2010Prop38
140
0.0
102
RTVSPost2010PropOp38
 70
     1
102
RTVSPost2010Prop39
140
1.0
102
RTVSPost2010PropOp39
 70
     1
102
RTVSPost2010Prop40
 90
        0
102
RTVSPost2010PropOp40
 70
     1
102
RTVSPost2010Prop41ColorIndex
 90
       18
102
RTVSPost2010Prop41ColorRGB
 90
        0
102
RTVSPost2010PropOp41
 70
     1
102
RTVSPost2010Prop42
 90
       50
102
RTVSPost2010PropOp42
 70
     1
102
RTVSPost2010Prop43
 90
        3
102
RTVSPost2010PropOp43
 70
     1
102
RTVSPost2010Prop44ColorIndex
 90
        5
102
RTVSPost2010Prop44ColorRGB
 90
      255
102
RTVSPost2010PropOp44
 70
     1
102
RTVSPost2010Prop45
280
     0
102
RTVSPost2010PropOp45
 70
     1
102
RTVSPost2010Prop46
 90
       50
102
RTVSPost2010PropOp46
 70
     1
102
RTVSPost2010Prop47
 90
       50
102
RTVSPost2010PropOp47
 70
     1
102
RTVSPost2010Prop48
 90
       50
102
RTVSPost2010PropOp48
 70
     1
102
RTVSPost2010Prop49
280
     0
102
RTVSPost2010PropOp49
 70
     1
102
RTVSPost2010Prop50
 90
       50
102
RTVSPost2010PropOp50
 70
     1
102
RTVSPost2010Prop51ColorIndex
 90
      256
102
RTVSPost2010Prop51ColorRGB
 90
-16777216
102
RTVSPost2010PropOp51
 70
     0
102
RTVSPost2010Prop52
140
1.0
102
RTVSPost2010PropOp52
 70
     0
102
RTVSPost2010Prop53
 90
        2
102
RTVSPost2010PropOp53
 70
     1
102
RTVSPost2010Prop54
  1
strokes_ogs.tif
102
RTVSPost2010PropOp54
 70
     1
102
RTVSPost2010Prop55
280
     0
102
RTVSPost2010PropOp55
 70
     1
102
RTVSPost2010Prop56
140
1.0
102
RTVSPost2010PropOp56
 70
     1
102
RTVSPost2010Prop57
140
1.0
102
RTVSPost2010PropOp57
 70
     1
  0
XRECORD
  5
167
102
{ACAD_REACTORS
330
166
102
}
330
166
100
AcDbXrecord
280
     1
102
RTVSPost2010Prop28
280
     0
102
RTVSPost2010PropOp28
 70
     0
102
RTVSPost2010Prop29
280
     1
102
RTVSPost2010PropOp29
 70
     0
102
RTVSPost2010Prop30
280
     1
102
RTVSPost2010PropOp30
 70
     0
102
RTVSPost2010Prop31
280
     0
102
RTVSPost2010PropOp31
 70
     0
102
RTVSPost2010Prop32
280
     0
102
RTVSPost2010PropOp32
 70
     0
102
RTVSPost2010Prop33
280
     0
102
RTVSPost2010PropOp33
 70
     0
102
RTVSPost2010Prop34
280
     0
102
RTVSPost2010PropOp34
 70
     0
102
RTVSPost2010Prop35
280
     0
102
RTVSPost2010PropOp35
 70
     0
102
RTVSPost2010Prop36
280
     0
102
RTVSPost2010PropOp36
 70
     0
102
RTVSPost2010Prop37
 90
       50
102
RTVSPost2010PropOp37
 70
     0
102
RTVSPost2010Prop38
140
0.0
102
RTVSPost2010PropOp38
 70
     0
102
RTVSPost2010Prop39
140
1.0
102
RTVSPost2010PropOp39
 70
     0
102
RTVSPost2010Prop40
 90
        0
102
RTVSPost2010PropOp40
 70
     0
102
RTVSPost2010Prop41ColorIndex
 90
       18
102
RTVSPost2010Prop41ColorRGB
 90
        0
102
RTVSPost2010PropOp41
 70
     0
102
RTVSPost2010Prop42
 90
       50
102
RTVSPost2010PropOp42
 70
     0
102
RTVSPost2010Prop43
 90
        3
102
RTVSPost2010PropOp43
 70
     0
102
RTVSPost2010Prop44ColorIndex
 90
        5
102
RTVSPost2010Prop44ColorRGB
 90
      255
102
RTVSPost2010PropOp44
 70
     0
102
RTVSPost2010Prop45
280
     0
102
RTVSPost2010PropOp45
 70
     0
102
RTVSPost2010Prop46
 90
       50
102
RTVSPost2010PropOp46
 70
     0
102
RTVSPost2010Prop47
 90
       50
102
RTVSPost2010PropOp47
 70
     0
102
RTVSPost2010Prop48
 90
       50
102
RTVSPost2010PropOp48
 70
     0
102
RTVSPost2010Prop49
280
     0
102
RTVSPost2010PropOp49
 70
     0
102
RTVSPost2010Prop50
 90
       50
102
RTVSPost2010PropOp50
 70
     0
102
RTVSPost2010Prop51ColorIndex
 90
      256
102
RTVSPost2010Prop51ColorRGB
 90
-16777216
102
RTVSPost2010PropOp51
 70
     0
102
RTVSPost2010Prop52
140
1.0
102
RTVSPost2010PropOp52
 70
     0
102
RTVSPost2010Prop53
 90
        2
102
RTVSPost2010PropOp53
 70
     0
102
RTVSPost2010Prop54
  1
strokes_ogs.tif
102
RTVSPost2010PropOp54
 70
     0
102
RTVSPost2010Prop55
280
     0
102
RTVSPost2010PropOp55
 70
     0
102
RTVSPost2010Prop56
140
1.0
102
RTVSPost2010PropOp56
 70
     0
102
RTVSPost2010Prop57
140
1.0
102
RTVSPost2010PropOp57
 70
     0
  0
XRECORD
  5
155
102
{ACAD_REACTORS
330
154
102
}
330
154
100
AcDbXrecord
280
     1
102
RTVSPost2010Prop28
280
     0
102
RTVSPost2010PropOp28
 70
     1
102
RTVSPost2010Prop29
280
     1
102
RTVSPost2010PropOp29
 70
     1
102
RTVSPost2010Prop30
280
     1
102
RTVSPost2010PropOp30
 70
     1
102
RTVSPost2010Prop31
280
     0
102
RTVSPost2010PropOp31
 70
     1
102
RTVSPost2010Prop32
280
     0
102
RTVSPost2010PropOp32
 70
     1
102
RTVSPost2010Prop33
280
     0
102
RTVSPost2010PropOp33
 70
     1
102
RTVSPost2010Prop34
280
     0
102
RTVSPost2010PropOp34
 70
     1
102
RTVSPost2010Prop35
280
     0
102
RTVSPost2010PropOp35
 70
     1
102
RTVSPost2010Prop36
280
     0
102
RTVSPost2010PropOp36
 70
     1
102
RTVSPost2010Prop37
 90
       50
102
RTVSPost2010PropOp37
 70
     1
102
RTVSPost2010Prop38
140
0.0
102
RTVSPost2010PropOp38
 70
     1
102
RTVSPost2010Prop39
140
1.0
102
RTVSPost2010PropOp39
 70
     1
102
RTVSPost2010Prop40
 90
        0
102
RTVSPost2010PropOp40
 70
     1
102
RTVSPost2010Prop41ColorIndex
 90
       18
102
RTVSPost2010Prop41ColorRGB
 90
        0
102
RTVSPost2010PropOp41
 70
     1
102
RTVSPost2010Prop42
 90
       50
102
RTVSPost2010PropOp42
 70
     1
102
RTVSPost2010Prop43
 90
        3
102
RTVSPost2010PropOp43
 70
     1
102
RTVSPost2010Prop44ColorIndex
 90
        5
102
RTVSPost2010Prop44ColorRGB
 90
      255
102
RTVSPost2010PropOp44
 70
     1
102
RTVSPost2010Prop45
280
     0
102
RTVSPost2010PropOp45
 70
     1
102
RTVSPost2010Prop46
 90
       50
102
RTVSPost2010PropOp46
 70
     1
102
RTVSPost2010Prop47
 90
       50
102
RTVSPost2010PropOp47
 70
     1
102
RTVSPost2010Prop48
 90
       50
102
RTVSPost2010PropOp48
 70
     1
102
RTVSPost2010Prop49
280
     0
102
RTVSPost2010PropOp49
 70
     1
102
RTVSPost2010Prop50
 90
       50
102
RTVSPost2010PropOp50
 70
     1
102
RTVSPost2010Prop51ColorIndex
 90
      256
102
RTVSPost2010Prop51ColorRGB
 90
-16777216
102
RTVSPost2010PropOp51
 70
     0
102
RTVSPost2010Prop52
140
1.0
102
RTVSPost2010PropOp52
 70
     0
102
RTVSPost2010Prop53
 90
        2
102
RTVSPost2010PropOp53
 70
     1
102
RTVSPost2010Prop54
  1
strokes_ogs.tif
102
RTVSPost2010PropOp54
 70
     1
102
RTVSPost2010Prop55
280
     0
102
RTVSPost2010PropOp55
 70
     1
102
RTVSPost2010Prop56
140
1.0
102
RTVSPost2010PropOp56
 70
     1
102
RTVSPost2010Prop57
140
1.0
102
RTVSPost2010PropOp57
 70
     1
  0
XRECORD
  5
173
102
{ACAD_REACTORS
330
172
102
}
330
172
100
AcDbXrecord
280
     1
102
RTVSPost2010Prop28
280
     0
102
RTVSPost2010PropOp28
 70
     1
102
RTVSPost2010Prop29
280
     1
102
RTVSPost2010PropOp29
 70
     1
102
RTVSPost2010Prop30
280
     1
102
RTVSPost2010PropOp30
 70
     1
102
RTVSPost2010Prop31
280
     0
102
RTVSPost2010PropOp31
 70
     1
102
RTVSPost2010Prop32
280
     0
102
RTVSPost2010PropOp32
 70
     1
102
RTVSPost2010Prop33
280
     0
102
RTVSPost2010PropOp33
 70
     1
102
RTVSPost2010Prop34
280
     0
102
RTVSPost2010PropOp34
 70
     1
102
RTVSPost2010Prop35
280
     0
102
RTVSPost2010PropOp35
 70
     1
102
RTVSPost2010Prop36
280
     0
102
RTVSPost2010PropOp36
 70
     1
102
RTVSPost2010Prop37
 90
       50
102
RTVSPost2010PropOp37
 70
     1
102
RTVSPost2010Prop38
140
0.0
102
RTVSPost2010PropOp38
 70
     1
102
RTVSPost2010Prop39
140
1.0
102
RTVSPost2010PropOp39
 70
     1
102
RTVSPost2010Prop40
 90
        0
102
RTVSPost2010PropOp40
 70
     1
102
RTVSPost2010Prop41ColorIndex
 90
       18
102
RTVSPost2010Prop41ColorRGB
 90
        0
102
RTVSPost2010PropOp41
 70
     1
102
RTVSPost2010Prop42
 90
       50
102
RTVSPost2010PropOp42
 70
     1
102
RTVSPost2010Prop43
 90
        3
102
RTVSPost2010PropOp43
 70
     1
102
RTVSPost2010Prop44ColorIndex
 90
        5
102
RTVSPost2010Prop44ColorRGB
 90
      255
102
RTVSPost2010PropOp44
 70
     1
102
RTVSPost2010Prop45
280
     0
102
RTVSPost2010PropOp45
 70
     1
102
RTVSPost2010Prop46
 90
       50
102
RTVSPost2010PropOp46
 70
     1
102
RTVSPost2010Prop47
 90
       50
102
RTVSPost2010PropOp47
 70
     1
102
RTVSPost2010Prop48
 90
       50
102
RTVSPost2010PropOp48
 70
     1
102
RTVSPost2010Prop49
280
     0
102
RTVSPost2010PropOp49
 70
     1
102
RTVSPost2010Prop50
 90
       50
102
RTVSPost2010PropOp50
 70
     1
102
RTVSPost2010Prop51ColorIndex
 90
      256
102
RTVSPost2010Prop51ColorRGB
 90
-16777216
102
RTVSPost2010PropOp51
 70
     0
102
RTVSPost2010Prop52
140
1.0
102
RTVSPost2010PropOp52
 70
     0
102
RTVSPost2010Prop53
 90
        2
102
RTVSPost2010PropOp53
 70
     1
102
RTVSPost2010Prop54
  1
strokes_ogs.tif
102
RTVSPost2010PropOp54
 70
     1
102
RTVSPost2010Prop55
280
     0
102
RTVSPost2010PropOp55
 70
     1
102
RTVSPost2010Prop56
140
1.0
102
RTVSPost2010PropOp56
 70
     1
102
RTVSPost2010Prop57
140
1.0
102
RTVSPost2010PropOp57
 70
     1
  0
XRECORD
  5
171
102
{ACAD_REACTORS
330
170
102
}
330
170
100
AcDbXrecord
280
     1
102
RTVSPost2010Prop28
280
     0
102
RTVSPost2010PropOp28
 70
     1
102
RTVSPost2010Prop29
280
     1
102
RTVSPost2010PropOp29
 70
     1
102
RTVSPost2010Prop30
280
     1
102
RTVSPost2010PropOp30
 70
     1
102
RTVSPost2010Prop31
280
     0
102
RTVSPost2010PropOp31
 70
     1
102
RTVSPost2010Prop32
280
     0
102
RTVSPost2010PropOp32
 70
     1
102
RTVSPost2010Prop33
280
     0
102
RTVSPost2010PropOp33
 70
     1
102
RTVSPost2010Prop34
280
     0
102
RTVSPost2010PropOp34
 70
     1
102
RTVSPost2010Prop35
280
     0
102
RTVSPost2010PropOp35
 70
     1
102
RTVSPost2010Prop36
280
     0
102
RTVSPost2010PropOp36
 70
     1
102
RTVSPost2010Prop37
 90
       50
102
RTVSPost2010PropOp37
 70
     1
102
RTVSPost2010Prop38
140
0.0
102
RTVSPost2010PropOp38
 70
     1
102
RTVSPost2010Prop39
140
1.0
102
RTVSPost2010PropOp39
 70
     1
102
RTVSPost2010Prop40
 90
        0
102
RTVSPost2010PropOp40
 70
     1
102
RTVSPost2010Prop41ColorIndex
 90
       18
102
RTVSPost2010Prop41ColorRGB
 90
        0
102
RTVSPost2010PropOp41
 70
     1
102
RTVSPost2010Prop42
 90
       50
102
RTVSPost2010PropOp42
 70
     1
102
RTVSPost2010Prop43
 90
        3
102
RTVSPost2010PropOp43
 70
     1
102
RTVSPost2010Prop44ColorIndex
 90
        5
102
RTVSPost2010Prop44ColorRGB
 90
      255
102
RTVSPost2010PropOp44
 70
     1
102
RTVSPost2010Prop45
280
     0
102
RTVSPost2010PropOp45
 70
     1
102
RTVSPost2010Prop46
 90
       50
102
RTVSPost2010PropOp46
 70
     1
102
RTVSPost2010Prop47
 90
       50
102
RTVSPost2010PropOp47
 70
     1
102
RTVSPost2010Prop48
 90
       50
102
RTVSPost2010PropOp48
 70
     1
102
RTVSPost2010Prop49
280
     0
102
RTVSPost2010PropOp49
 70
     1
102
RTVSPost2010Prop50
 90
       50
102
RTVSPost2010PropOp50
 70
     1
102
RTVSPost2010Prop51ColorIndex
 90
      256
102
RTVSPost2010Prop51ColorRGB
 90
-16777216
102
RTVSPost2010PropOp51
 70
     0
102
RTVSPost2010Prop52
140
1.0
102
RTVSPost2010PropOp52
 70
     0
102
RTVSPost2010Prop53
 90
        2
102
RTVSPost2010PropOp53
 70
     1
102
RTVSPost2010Prop54
  1
strokes_ogs.tif
102
RTVSPost2010PropOp54
 70
     1
102
RTVSPost2010Prop55
280
     0
102
RTVSPost2010PropOp55
 70
     1
102
RTVSPost2010Prop56
140
1.0
102
RTVSPost2010PropOp56
 70
     1
102
RTVSPost2010Prop57
140
1.0
102
RTVSPost2010PropOp57
 70
     1
  0
XRECORD
  5
16B
102
{ACAD_REACTORS
330
16A
102
}
330
16A
100
AcDbXrecord
280
     1
102
RTVSPost2010Prop28
280
     0
102
RTVSPost2010PropOp28
 70
     1
102
RTVSPost2010Prop29
280
     1
102
RTVSPost2010PropOp29
 70
     1
102
RTVSPost2010Prop30
280
     1
102
RTVSPost2010PropOp30
 70
     1
102
RTVSPost2010Prop31
280
     0
102
RTVSPost2010PropOp31
 70
     1
102
RTVSPost2010Prop32
280
     0
102
RTVSPost2010PropOp32
 70
     1
102
RTVSPost2010Prop33
280
     0
102
RTVSPost2010PropOp33
 70
     1
102
RTVSPost2010Prop34
280
     0
102
RTVSPost2010PropOp34
 70
     1
102
RTVSPost2010Prop35
280
     0
102
RTVSPost2010PropOp35
 70
     1
102
RTVSPost2010Prop36
280
     0
102
RTVSPost2010PropOp36
 70
     1
102
RTVSPost2010Prop37
 90
       50
102
RTVSPost2010PropOp37
 70
     1
102
RTVSPost2010Prop38
140
0.0
102
RTVSPost2010PropOp38
 70
     1
102
RTVSPost2010Prop39
140
1.0
102
RTVSPost2010PropOp39
 70
     1
102
RTVSPost2010Prop40
 90
        0
102
RTVSPost2010PropOp40
 70
     1
102
RTVSPost2010Prop41ColorIndex
 90
       18
102
RTVSPost2010Prop41ColorRGB
 90
        0
102
RTVSPost2010PropOp41
 70
     1
102
RTVSPost2010Prop42
 90
       50
102
RTVSPost2010PropOp42
 70
     1
102
RTVSPost2010Prop43
 90
        3
102
RTVSPost2010PropOp43
 70
     1
102
RTVSPost2010Prop44ColorIndex
 90
        5
102
RTVSPost2010Prop44ColorRGB
 90
      255
102
RTVSPost2010PropOp44
 70
     1
102
RTVSPost2010Prop45
280
     0
102
RTVSPost2010PropOp45
 70
     1
102
RTVSPost2010Prop46
 90
       50
102
RTVSPost2010PropOp46
 70
     1
102
RTVSPost2010Prop47
 90
       50
102
RTVSPost2010PropOp47
 70
     1
102
RTVSPost2010Prop48
 90
       50
102
RTVSPost2010PropOp48
 70
     1
102
RTVSPost2010Prop49
280
     0
102
RTVSPost2010PropOp49
 70
     1
102
RTVSPost2010Prop50
 90
       50
102
RTVSPost2010PropOp50
 70
     1
102
RTVSPost2010Prop51ColorIndex
 90
      256
102
RTVSPost2010Prop51ColorRGB
 90
-16777216
102
RTVSPost2010PropOp51
 70
     0
102
RTVSPost2010Prop52
140
1.0
102
RTVSPost2010PropOp52
 70
     0
102
RTVSPost2010Prop53
 90
        2
102
RTVSPost2010PropOp53
 70
     1
102
RTVSPost2010Prop54
  1
strokes_ogs.tif
102
RTVSPost2010PropOp54
 70
     1
102
RTVSPost2010Prop55
280
     0
102
RTVSPost2010PropOp55
 70
     1
102
RTVSPost2010Prop56
140
1.0
102
RTVSPost2010PropOp56
 70
     1
102
RTVSPost2010Prop57
140
1.0
102
RTVSPost2010PropOp57
 70
     1
  0
XRECORD
  5
16D
102
{ACAD_REACTORS
330
16C
102
}
330
16C
100
AcDbXrecord
280
     1
102
RTVSPost2010Prop28
280
     0
102
RTVSPost2010PropOp28
 70
     1
102
RTVSPost2010Prop29
280
     1
102
RTVSPost2010PropOp29
 70
     1
102
RTVSPost2010Prop30
280
     1
102
RTVSPost2010PropOp30
 70
     1
102
RTVSPost2010Prop31
280
     0
102
RTVSPost2010PropOp31
 70
     1
102
RTVSPost2010Prop32
280
     0
102
RTVSPost2010PropOp32
 70
     1
102
RTVSPost2010Prop33
280
     0
102
RTVSPost2010PropOp33
 70
     1
102
RTVSPost2010Prop34
280
     0
102
RTVSPost2010PropOp34
 70
     1
102
RTVSPost2010Prop35
280
     0
102
RTVSPost2010PropOp35
 70
     1
102
RTVSPost2010Prop36
280
     0
102
RTVSPost2010PropOp36
 70
     1
102
RTVSPost2010Prop37
 90
       50
102
RTVSPost2010PropOp37
 70
     1
102
RTVSPost2010Prop38
140
0.0
102
RTVSPost2010PropOp38
 70
     1
102
RTVSPost2010Prop39
140
1.0
102
RTVSPost2010PropOp39
 70
     1
102
RTVSPost2010Prop40
 90
        0
102
RTVSPost2010PropOp40
 70
     1
102
RTVSPost2010Prop41ColorIndex
 90
       18
102
RTVSPost2010Prop41ColorRGB
 90
        0
102
RTVSPost2010PropOp41
 70
     1
102
RTVSPost2010Prop42
 90
       50
102
RTVSPost2010PropOp42
 70
     1
102
RTVSPost2010Prop43
 90
        3
102
RTVSPost2010PropOp43
 70
     1
102
RTVSPost2010Prop44ColorIndex
 90
        5
102
RTVSPost2010Prop44ColorRGB
 90
      255
102
RTVSPost2010PropOp44
 70
     1
102
RTVSPost2010Prop45
280
     0
102
RTVSPost2010PropOp45
 70
     1
102
RTVSPost2010Prop46
 90
       50
102
RTVSPost2010PropOp46
 70
     1
102
RTVSPost2010Prop47
 90
       50
102
RTVSPost2010PropOp47
 70
     1
102
RTVSPost2010Prop48
 90
       50
102
RTVSPost2010PropOp48
 70
     1
102
RTVSPost2010Prop49
280
     0
102
RTVSPost2010PropOp49
 70
     1
102
RTVSPost2010Prop50
 90
       50
102
RTVSPost2010PropOp50
 70
     1
102
RTVSPost2010Prop51ColorIndex
 90
      256
102
RTVSPost2010Prop51ColorRGB
 90
-16777216
102
RTVSPost2010PropOp51
 70
     0
102
RTVSPost2010Prop52
140
1.0
102
RTVSPost2010PropOp52
 70
     0
102
RTVSPost2010Prop53
 90
        2
102
RTVSPost2010PropOp53
 70
     1
102
RTVSPost2010Prop54
  1
strokes_ogs.tif
102
RTVSPost2010PropOp54
 70
     1
102
RTVSPost2010Prop55
280
     0
102
RTVSPost2010PropOp55
 70
     1
102
RTVSPost2010Prop56
140
1.0
102
RTVSPost2010PropOp56
 70
     1
102
RTVSPost2010Prop57
140
1.0
102
RTVSPost2010PropOp57
 70
     1
  0
XRECORD
  5
15D
102
{ACAD_REACTORS
330
15C
102
}
330
15C
100
AcDbXrecord
280
     1
102
RTVSPost2010Prop28
280
     0
102
RTVSPost2010PropOp28
 70
     1
102
RTVSPost2010Prop29
280
     1
102
RTVSPost2010PropOp29
 70
     1
102
RTVSPost2010Prop30
280
     1
102
RTVSPost2010PropOp30
 70
     1
102
RTVSPost2010Prop31
280
     0
102
RTVSPost2010PropOp31
 70
     1
102
RTVSPost2010Prop32
280
     0
102
RTVSPost2010PropOp32
 70
     1
102
RTVSPost2010Prop33
280
     0
102
RTVSPost2010PropOp33
 70
     1
102
RTVSPost2010Prop34
280
     0
102
RTVSPost2010PropOp34
 70
     1
102
RTVSPost2010Prop35
280
     0
102
RTVSPost2010PropOp35
 70
     1
102
RTVSPost2010Prop36
280
     0
102
RTVSPost2010PropOp36
 70
     1
102
RTVSPost2010Prop37
 90
       50
102
RTVSPost2010PropOp37
 70
     1
102
RTVSPost2010Prop38
140
0.0
102
RTVSPost2010PropOp38
 70
     1
102
RTVSPost2010Prop39
140
1.0
102
RTVSPost2010PropOp39
 70
     1
102
RTVSPost2010Prop40
 90
        0
102
RTVSPost2010PropOp40
 70
     1
102
RTVSPost2010Prop41ColorIndex
 90
       18
102
RTVSPost2010Prop41ColorRGB
 90
        0
102
RTVSPost2010PropOp41
 70
     1
102
RTVSPost2010Prop42
 90
       50
102
RTVSPost2010PropOp42
 70
     1
102
RTVSPost2010Prop43
 90
        3
102
RTVSPost2010PropOp43
 70
     1
102
RTVSPost2010Prop44ColorIndex
 90
        5
102
RTVSPost2010Prop44ColorRGB
 90
      255
102
RTVSPost2010PropOp44
 70
     1
102
RTVSPost2010Prop45
280
     0
102
RTVSPost2010PropOp45
 70
     1
102
RTVSPost2010Prop46
 90
       50
102
RTVSPost2010PropOp46
 70
     1
102
RTVSPost2010Prop47
 90
       50
102
RTVSPost2010PropOp47
 70
     1
102
RTVSPost2010Prop48
 90
       50
102
RTVSPost2010PropOp48
 70
     1
102
RTVSPost2010Prop49
280
     0
102
RTVSPost2010PropOp49
 70
     1
102
RTVSPost2010Prop50
 90
       50
102
RTVSPost2010PropOp50
 70
     1
102
RTVSPost2010Prop51ColorIndex
 90
      256
102
RTVSPost2010Prop51ColorRGB
 90
-16777216
102
RTVSPost2010PropOp51
 70
     0
102
RTVSPost2010Prop52
140
1.0
102
RTVSPost2010PropOp52
 70
     0
102
RTVSPost2010Prop53
 90
        2
102
RTVSPost2010PropOp53
 70
     1
102
RTVSPost2010Prop54
  1
strokes_ogs.tif
102
RTVSPost2010PropOp54
 70
     1
102
RTVSPost2010Prop55
280
     0
102
RTVSPost2010PropOp55
 70
     1
102
RTVSPost2010Prop56
140
1.0
102
RTVSPost2010PropOp56
 70
     1
102
RTVSPost2010Prop57
140
1.0
102
RTVSPost2010PropOp57
 70
     1
  0
XRECORD
  5
14F
102
{ACAD_REACTORS
330
14E
102
}
330
14E
100
AcDbXrecord
280
     1
102
RTVSPost2010Prop28
280
     0
102
RTVSPost2010PropOp28
 70
     1
102
RTVSPost2010Prop29
280
     1
102
RTVSPost2010PropOp29
 70
     1
102
RTVSPost2010Prop30
280
     1
102
RTVSPost2010PropOp30
 70
     1
102
RTVSPost2010Prop31
280
     0
102
RTVSPost2010PropOp31
 70
     1
102
RTVSPost2010Prop32
280
     0
102
RTVSPost2010PropOp32
 70
     1
102
RTVSPost2010Prop33
280
     0
102
RTVSPost2010PropOp33
 70
     1
102
RTVSPost2010Prop34
280
     0
102
RTVSPost2010PropOp34
 70
     1
102
RTVSPost2010Prop35
280
     0
102
RTVSPost2010PropOp35
 70
     1
102
RTVSPost2010Prop36
280
     0
102
RTVSPost2010PropOp36
 70
     1
102
RTVSPost2010Prop37
 90
       50
102
RTVSPost2010PropOp37
 70
     1
102
RTVSPost2010Prop38
140
0.0
102
RTVSPost2010PropOp38
 70
     1
102
RTVSPost2010Prop39
140
1.0
102
RTVSPost2010PropOp39
 70
     1
102
RTVSPost2010Prop40
 90
        0
102
RTVSPost2010PropOp40
 70
     1
102
RTVSPost2010Prop41ColorIndex
 90
       18
102
RTVSPost2010Prop41ColorRGB
 90
        0
102
RTVSPost2010PropOp41
 70
     1
102
RTVSPost2010Prop42
 90
       50
102
RTVSPost2010PropOp42
 70
     1
102
RTVSPost2010Prop43
 90
        3
102
RTVSPost2010PropOp43
 70
     1
102
RTVSPost2010Prop44ColorIndex
 90
        5
102
RTVSPost2010Prop44ColorRGB
 90
      255
102
RTVSPost2010PropOp44
 70
     1
102
RTVSPost2010Prop45
280
     0
102
RTVSPost2010PropOp45
 70
     1
102
RTVSPost2010Prop46
 90
       50
102
RTVSPost2010PropOp46
 70
     1
102
RTVSPost2010Prop47
 90
       50
102
RTVSPost2010PropOp47
 70
     1
102
RTVSPost2010Prop48
 90
       50
102
RTVSPost2010PropOp48
 70
     1
102
RTVSPost2010Prop49
280
     0
102
RTVSPost2010PropOp49
 70
     1
102
RTVSPost2010Prop50
 90
       50
102
RTVSPost2010PropOp50
 70
     1
102
RTVSPost2010Prop51ColorIndex
 90
      256
102
RTVSPost2010Prop51ColorRGB
 90
-16777216
102
RTVSPost2010PropOp51
 70
     0
102
RTVSPost2010Prop52
140
1.0
102
RTVSPost2010PropOp52
 70
     0
102
RTVSPost2010Prop53
 90
        2
102
RTVSPost2010PropOp53
 70
     1
102
RTVSPost2010Prop54
  1
strokes_ogs.tif
102
RTVSPost2010PropOp54
 70
     1
102
RTVSPost2010Prop55
280
     0
102
RTVSPost2010PropOp55
 70
     1
102
RTVSPost2010Prop56
140
1.0
102
RTVSPost2010PropOp56
 70
     1
102
RTVSPost2010Prop57
140
1.0
102
RTVSPost2010PropOp57
 70
     1
  0
XRECORD
  5
16F
102
{ACAD_REACTORS
330
16E
102
}
330
16E
100
AcDbXrecord
280
     1
102
RTVSPost2010Prop28
280
     0
102
RTVSPost2010PropOp28
 70
     1
102
RTVSPost2010Prop29
280
     1
102
RTVSPost2010PropOp29
 70
     1
102
RTVSPost2010Prop30
280
     1
102
RTVSPost2010PropOp30
 70
     1
102
RTVSPost2010Prop31
280
     0
102
RTVSPost2010PropOp31
 70
     1
102
RTVSPost2010Prop32
280
     0
102
RTVSPost2010PropOp32
 70
     1
102
RTVSPost2010Prop33
280
     0
102
RTVSPost2010PropOp33
 70
     1
102
RTVSPost2010Prop34
280
     0
102
RTVSPost2010PropOp34
 70
     1
102
RTVSPost2010Prop35
280
     0
102
RTVSPost2010PropOp35
 70
     1
102
RTVSPost2010Prop36
280
     0
102
RTVSPost2010PropOp36
 70
     1
102
RTVSPost2010Prop37
 90
       50
102
RTVSPost2010PropOp37
 70
     1
102
RTVSPost2010Prop38
140
0.0
102
RTVSPost2010PropOp38
 70
     1
102
RTVSPost2010Prop39
140
1.0
102
RTVSPost2010PropOp39
 70
     1
102
RTVSPost2010Prop40
 90
        0
102
RTVSPost2010PropOp40
 70
     1
102
RTVSPost2010Prop41ColorIndex
 90
       18
102
RTVSPost2010Prop41ColorRGB
 90
        0
102
RTVSPost2010PropOp41
 70
     1
102
RTVSPost2010Prop42
 90
       50
102
RTVSPost2010PropOp42
 70
     1
102
RTVSPost2010Prop43
 90
        3
102
RTVSPost2010PropOp43
 70
     1
102
RTVSPost2010Prop44ColorIndex
 90
        5
102
RTVSPost2010Prop44ColorRGB
 90
      255
102
RTVSPost2010PropOp44
 70
     1
102
RTVSPost2010Prop45
280
     0
102
RTVSPost2010PropOp45
 70
     1
102
RTVSPost2010Prop46
 90
       50
102
RTVSPost2010PropOp46
 70
     1
102
RTVSPost2010Prop47
 90
       50
102
RTVSPost2010PropOp47
 70
     1
102
RTVSPost2010Prop48
 90
       50
102
RTVSPost2010PropOp48
 70
     1
102
RTVSPost2010Prop49
280
     0
102
RTVSPost2010PropOp49
 70
     1
102
RTVSPost2010Prop50
 90
       50
102
RTVSPost2010PropOp50
 70
     1
102
RTVSPost2010Prop51ColorIndex
 90
      256
102
RTVSPost2010Prop51ColorRGB
 90
-16777216
102
RTVSPost2010PropOp51
 70
     0
102
RTVSPost2010Prop52
140
1.0
102
RTVSPost2010PropOp52
 70
     0
102
RTVSPost2010Prop53
 90
        2
102
RTVSPost2010PropOp53
 70
     1
102
RTVSPost2010Prop54
  1
strokes_ogs.tif
102
RTVSPost2010PropOp54
 70
     1
102
RTVSPost2010Prop55
280
     0
102
RTVSPost2010PropOp55
 70
     1
102
RTVSPost2010Prop56
140
1.0
102
RTVSPost2010PropOp56
 70
     1
102
RTVSPost2010Prop57
140
1.0
102
RTVSPost2010PropOp57
 70
     1
  0
ENDSEC
  0
EOF
