  0
SECTION
  2
HEADER
  9
$ACADVER
  1
AC1024
  9
$ACADMAINTVER
 70
     6
  9
$DWGCODEPAGE
  3
ANSI_1252
  9
$LASTSAVEDBY
  1
BirnerR
  9
$INSBASE
 10
0.0
 20
0.0
 30
0.0
  9
$EXTMIN
 10
10.519645
 20
-0.608434
 30
10.519645
  9
$EXTMAX
 10
11.569645
 20
0.876566
 30
11.569645
  9
$LIMMIN
 10
10.519645
 20
-0.608434
  9
$LIMMAX
 10
11.569645
 20
0.876566
  9
$ORTHOMODE
 70
     0
  9
$REGENMODE
 70
     1
  9
$FILLMODE
 70
     1
  9
$QTEXTMODE
 70
     0
  9
$MIRRTEXT
 70
     1
  9
$LTSCALE
 40
1.0
  9
$ATTMODE
 70
     1
  9
$TEXTSIZE
 40
0.2
  9
$TRACEWID
 40
0.05
  9
$TEXTSTYLE
  7
Standard
  9
$CLAYER
  8
0
  9
$CELTYPE
  6
ByLayer
  9
$CECOLOR
 62
   256
  9
$CELTSCALE
 40
1.0
  9
$DISPSILH
 70
     0
  9
$DIMSCALE
 40
1.0
  9
$DIMASZ
 40
0.18
  9
$DIMEXO
 40
0.0625
  9
$DIMDLI
 40
0.38
  9
$DIMRND
 40
0.0
  9
$DIMDLE
 40
0.0
  9
$DIMEXE
 40
0.18
  9
$DIMTP
 40
0.0
  9
$DIMTM
 40
0.0
  9
$DIMTXT
 40
0.18
  9
$DIMCEN
 40
0.09
  9
$DIMTSZ
 40
0.0
  9
$DIMTOL
 70
     0
  9
$DIMLIM
 70
     0
  9
$DIMTIH
 70
     1
  9
$DIMTOH
 70
     1
  9
$DIMSE1
 70
     0
  9
$DIMSE2
 70
     0
  9
$DIMTAD
 70
     0
  9
$DIMZIN
 70
     0
  9
$DIMBLK
  1

  9
$DIMASO
 70
     1
  9
$DIMSHO
 70
     1
  9
$DIMPOST
  1

  9
$DIMAPOST
  1

  9
$DIMALT
 70
     0
  9
$DIMALTD
 70
     2
  9
$DIMALTF
 40
25.4
  9
$DIMLFAC
 40
1.0
  9
$DIMTOFL
 70
     0
  9
$DIMTVP
 40
0.0
  9
$DIMTIX
 70
     0
  9
$DIMSOXD
 70
     0
  9
$DIMSAH
 70
     0
  9
$DIMBLK1
  1

  9
$DIMBLK2
  1

  9
$DIMSTYLE
  2
Standard
  9
$DIMCLRD
 70
     0
  9
$DIMCLRE
 70
     0
  9
$DIMCLRT
 70
     0
  9
$DIMTFAC
 40
1.0
  9
$DIMGAP
 40
0.09
  9
$DIMJUST
 70
     0
  9
$DIMSD1
 70
     0
  9
$DIMSD2
 70
     0
  9
$DIMTOLJ
 70
     1
  9
$DIMTZIN
 70
     0
  9
$DIMALTZ
 70
     0
  9
$DIMALTTZ
 70
     0
  9
$DIMUPT
 70
     0
  9
$DIMDEC
 70
     4
  9
$DIMTDEC
 70
     4
  9
$DIMALTU
 70
     2
  9
$DIMALTTD
 70
     2
  9
$DIMTXSTY
  7
Standard
  9
$DIMAUNIT
 70
     0
  9
$DIMADEC
 70
     0
  9
$DIMALTRND
 40
0.0
  9
$DIMAZIN
 70
     0
  9
$DIMDSEP
 70
    46
  9
$DIMATFIT
 70
     3
  9
$DIMFRAC
 70
     0
  9
$DIMLDRBLK
  1

  9
$DIMLUNIT
 70
     2
  9
$DIMLWD
 70
    -2
  9
$DIMLWE
 70
    -2
  9
$DIMTMOVE
 70
     0
  9
$DIMFXL
 40
1.0
  9
$DIMFXLON
 70
     0
  9
$DIMJOGANG
 40
0.785398
  9
$DIMTFILL
 70
     0
  9
$DIMTFILLCLR
 70
     0
  9
$DIMARCSYM
 70
     0
  9
$DIMLTYPE
  6

  9
$DIMLTEX1
  6

  9
$DIMLTEX2
  6

  9
$DIMTXTDIRECTION
 70
     0
  9
$LUNITS
 70
     2
  9
$LUPREC
 70
     4
  9
$SKETCHINC
 40
0.1
  9
$FILLETRAD
 40
0.5
  9
$AUNITS
 70
     0
  9
$AUPREC
 70
     0
  9
$MENU
  1
.
  9
$ELEVATION
 40
0.0
  9
$PELEVATION
 40
0.0
  9
$THICKNESS
 40
0.0
  9
$LIMCHECK
 70
     0
  9
$CHAMFERA
 40
0.0
  9
$CHAMFERB
 40
0.0
  9
$CHAMFERC
 40
0.0
  9
$CHAMFERD
 40
0.0
  9
$SKPOLY
 70
     0
  9
$TDCREATE
 40
2459144.489057731
  9
$TDUCREATE
 40
2459144.405724398
  9
$TDUPDATE
 40
2459144.489070035
  9
$TDUUPDATE
 40
2459144.405736702
  9
$TDINDWG
 40
0.0000000116
  9
$TDUSRTIMER
 40
0.0000000116
  9
$USRTIMER
 70
     1
  9
$ANGBASE
 50
0.0
  9
$ANGDIR
 70
     0
  9
$PDMODE
 70
    65
  9
$PDSIZE
 40
0.0
  9
$PLINEWID
 40
0.0
  9
$SPLFRAME
 70
     0
  9
$SPLINETYPE
 70
     6
  9
$SPLINESEGS
 70
     8
  9
$HANDSEED
  5
1D5
  9
$SURFTAB1
 70
     6
  9
$SURFTAB2
 70
     6
  9
$SURFTYPE
 70
     6
  9
$SURFU
 70
     6
  9
$SURFV
 70
     6
  9
$UCSBASE
  2

  9
$UCSNAME
  2

  9
$UCSORG
 10
0.0
 20
0.0
 30
0.0
  9
$UCSXDIR
 10
1.0
 20
0.0
 30
0.0
  9
$UCSYDIR
 10
0.0
 20
1.0
 30
0.0
  9
$UCSORTHOREF
  2

  9
$UCSORTHOVIEW
 70
     0
  9
$UCSORGTOP
 10
0.0
 20
0.0
 30
0.0
  9
$UCSORGBOTTOM
 10
0.0
 20
0.0
 30
0.0
  9
$UCSORGLEFT
 10
0.0
 20
0.0
 30
0.0
  9
$UCSORGRIGHT
 10
0.0
 20
0.0
 30
0.0
  9
$UCSORGFRONT
 10
0.0
 20
0.0
 30
0.0
  9
$UCSORGBACK
 10
0.0
 20
0.0
 30
0.0
  9
$PUCSBASE
  2

  9
$PUCSNAME
  2

  9
$PUCSORG
 10
0.0
 20
0.0
 30
0.0
  9
$PUCSXDIR
 10
1.0
 20
0.0
 30
0.0
  9
$PUCSYDIR
 10
0.0
 20
1.0
 30
0.0
  9
$PUCSORTHOREF
  2

  9
$PUCSORTHOVIEW
 70
     0
  9
$PUCSORGTOP
 10
0.0
 20
0.0
 30
0.0
  9
$PUCSORGBOTTOM
 10
0.0
 20
0.0
 30
0.0
  9
$PUCSORGLEFT
 10
0.0
 20
0.0
 30
0.0
  9
$PUCSORGRIGHT
 10
0.0
 20
0.0
 30
0.0
  9
$PUCSORGFRONT
 10
0.0
 20
0.0
 30
0.0
  9
$PUCSORGBACK
 10
0.0
 20
0.0
 30
0.0
  9
$USERI1
 70
     0
  9
$USERI2
 70
     0
  9
$USERI3
 70
     0
  9
$USERI4
 70
     0
  9
$USERI5
 70
     0
  9
$USERR1
 40
0.0
  9
$USERR2
 40
0.0
  9
$USERR3
 40
0.0
  9
$USERR4
 40
0.0
  9
$USERR5
 40
0.0
  9
$WORLDVIEW
 70
     1
  9
$SHADEDGE
 70
     3
  9
$SHADEDIF
 70
    70
  9
$TILEMODE
 70
     0
  9
$MAXACTVP
 70
    64
  9
$PINSBASE
 10
0.0
 20
0.0
 30
0.0
  9
$PLIMCHECK
 70
     0
  9
$PEXTMIN
 10
-0.0001
 20
-0.0001
 30
0.0
  9
$PEXTMAX
 10
0.2101
 20
0.2971
 30
0.0
  9
$PLIMMIN
 10
-0.0001
 20
-0.0001
  9
$PLIMMAX
 10
0.2101
 20
0.2971
  9
$UNITMODE
 70
     0
  9
$VISRETAIN
 70
     1
  9
$PLINEGEN
 70
     0
  9
$PSLTSCALE
 70
     0
  9
$TREEDEPTH
 70
  3020
  9
$CMLSTYLE
  2
Standard
  9
$CMLJUST
 70
     0
  9
$CMLSCALE
 40
1.0
  9
$PROXYGRAPHICS
 70
     1
  9
$MEASUREMENT
 70
     1
  9
$CELWEIGHT
370
    -1
  9
$ENDCAPS
280
     0
  9
$JOINSTYLE
280
     0
  9
$LWDISPLAY
290
     0
  9
$INSUNITS
 70
     6
  9
$HYPERLINKBASE
  1

  9
$STYLESHEET
  1

  9
$XEDIT
290
     1
  9
$CEPSNTYPE
380
     0
  9
$PSTYLEMODE
290
     1
  9
$FINGERPRINTGUID
  2
{e6942f5e-8923-4947-ab2d-8aea5b59a351}
  9
$VERSIONGUID
  2
{FAEB1C32-E019-11D5-929B-00C0DF256EC4}
  9
$EXTNAMES
290
     1
  9
$PSVPSCALE
 40
0.0
  9
$OLESTARTUP
290
     0
  9
$SORTENTS
280
   127
  9
$INDEXCTL
280
     0
  9
$HIDETEXT
280
     1
  9
$XCLIPFRAME
280
     2
  9
$HALOGAP
280
     0
  9
$OBSCOLOR
 70
   257
  9
$OBSLTYPE
280
     0
  9
$INTERSECTIONDISPLAY
280
     0
  9
$INTERSECTIONCOLOR
 70
   257
  9
$DIMASSOC
280
     2
  9
$PROJECTNAME
  1

  9
$CAMERADISPLAY
290
     0
  9
$LENSLENGTH
 40
50.0
  9
$CAMERAHEIGHT
 40
0.0
  9
$STEPSPERSEC
 40
2.0
  9
$STEPSIZE
 40
6.0
  9
$3DDWFPREC
 40
2.0
  9
$PSOLWIDTH
 40
0.25
  9
$PSOLHEIGHT
 40
4.0
  9
$LOFTANG1
 40
1.570796
  9
$LOFTANG2
 40
1.570796
  9
$LOFTMAG1
 40
0.0
  9
$LOFTMAG2
 40
0.0
  9
$LOFTPARAM
 70
     7
  9
$LOFTNORMALS
280
     1
  9
$LATITUDE
 40
37.795
  9
$LONGITUDE
 40
-122.394
  9
$NORTHDIRECTION
 40
0.0
  9
$TIMEZONE
 70
 -8000
  9
$LIGHTGLYPHDISPLAY
280
     1
  9
$TILEMODELIGHTSYNCH
280
     1
  9
$CMATERIAL
347
44
  9
$SOLIDHIST
280
     0
  9
$SHOWHIST
280
     1
  9
$DWFFRAME
280
     2
  9
$DGNFRAME
280
     2
  9
$REALWORLDSCALE
290
     1
  9
$INTERFERECOLOR
 62
   256
  9
$CSHADOW
280
     0
  9
$SHADOWPLANELOCATION
 40
0.0
  0
ENDSEC
  0
SECTION
  2
CLASSES
  0
CLASS
  1
ACDBDICTIONARYWDFLT
  2
AcDbDictionaryWithDefault
  3
ObjectDBX Classes
 90
        0
 91
        3
280
     0
281
     0
  0
CLASS
  1
VISUALSTYLE
  2
AcDbVisualStyle
  3
ObjectDBX Classes
 90
     4095
 91
        3
280
     0
281
     0
  0
CLASS
  1
MATERIAL
  2
AcDbMaterial
  3
ObjectDBX Classes
 90
     1153
 91
        3
280
     0
281
     0
  0
CLASS
  1
SCALE
  2
AcDbScale
  3
ObjectDBX Classes
 90
     1153
 91
        3
280
     0
281
     0
  0
CLASS
  1
TABLESTYLE
  2
AcDbTableStyle
  3
ObjectDBX Classes
 90
     4095
 91
        3
280
     0
281
     0
  0
CLASS
  1
MLEADERSTYLE
  2
AcDbMLeaderStyle
  3
ACDB_MLEADERSTYLE_CLASS
 90
     4095
 91
        3
280
     0
281
     0
  0
CLASS
  1
SUN
  2
AcDbSun
  3
SCENEOE
 90
     1153
 91
        3
280
     0
281
     0
  0
CLASS
  1
SORTENTSTABLE
  2
AcDbSortentsTable
  3
ObjectDBX Classes
 90
        0
 91
        3
280
     0
281
     0
  0
CLASS
  1
DICTIONARYVAR
  2
AcDbDictionaryVar
  3
ObjectDBX Classes
 90
        0
 91
        3
280
     0
281
     0
  0
CLASS
  1
CELLSTYLEMAP
  2
AcDbCellStyleMap
  3
ObjectDBX Classes
 90
     1152
 91
        3
280
     0
281
     0
  0
ENDSEC
  0
SECTION
  2
TABLES
  0
TABLE
  2
VPORT
  5
8
330
0
100
AcDbSymbolTable
 70
     1
  0
VPORT
  5
29
330
8
100
AcDbSymbolTableRecord
100
AcDbViewportTableRecord
  2
*Active
 70
     0
 10
0.0
 20
0.0
 11
1.0
 21
1.0
 12
11.044645
 22
0.134066
 13
0.0
 23
0.0
 14
0.5
 24
0.5
 15
0.5
 25
0.5
 16
0.0
 26
0.0
 36
1.0
 17
0.0
 27
0.0
 37
0.0
 40
1.782
 41
0.848485
 42
50.0
 43
0.0
 44
0.0
 50
0.0
 51
0.0
 71
     0
 72
   100
 73
     1
 74
     3
 75
     0
 76
     0
 77
     0
 78
     0
281
     0
 65
     1
110
0.0
120
0.0
130
0.0
111
1.0
121
0.0
131
0.0
112
0.0
122
1.0
132
0.0
 79
     0
146
0.0
348
2F
 60
     3
 61
     5
292
     1
282
     1
141
0.0
142
0.0
 63
   250
361
6D
  0
ENDTAB
  0
TABLE
  2
LTYPE
  5
5
330
0
100
AcDbSymbolTable
 70
     4
  0
LTYPE
  5
14
330
5
100
AcDbSymbolTableRecord
100
AcDbLinetypeTableRecord
  2
ByBlock
 70
     0
  3

 72
    65
 73
     0
 40
0.0
  0
LTYPE
  5
15
330
5
100
AcDbSymbolTableRecord
100
AcDbLinetypeTableRecord
  2
ByLayer
 70
     0
  3

 72
    65
 73
     0
 40
0.0
  0
LTYPE
  5
16
330
5
100
AcDbSymbolTableRecord
100
AcDbLinetypeTableRecord
  2
Continuous
 70
     0
  3
Solid line
 72
    65
 73
     0
 40
0.0
  0
LTYPE
  5
74
330
5
100
AcDbSymbolTableRecord
100
AcDbLinetypeTableRecord
  2
AUSGEZOGEN
 70
     0
  3
durchgezogene Linie
 72
    65
 73
     0
 40
0.0
  0
LTYPE
  5
7A
330
5
100
AcDbSymbolTableRecord
100
AcDbLinetypeTableRecord
  2
STRICHPUNKT2_S5
 70
     0
  3
Lang eng gestrichelt bzw. punktiert
 72
    65
 73
     4
 40
0.05
 49
0.035
 74
     0
 49
-0.005
 74
     0
 49
0.005
 74
     0
 49
-0.005
 74
     0
  0
LTYPE
  5
7B
330
5
100
AcDbSymbolTableRecord
100
AcDbLinetypeTableRecord
  2
VERDECKT2_S2
 70
     0
  3
Kurzgestrichelt
 72
    65
 73
     2
 40
0.015
 49
0.01
 74
     0
 49
-0.005
 74
     0
  0
ENDTAB
  0
TABLE
  2
LAYER
  5
2
330
0
100
AcDbSymbolTable
 70
     4
  0
LAYER
  5
10
330
2
100
AcDbSymbolTableRecord
100
AcDbLayerTableRecord
  2
0
 70
     0
 62
     7
  6
Continuous
370
    -3
390
F
347
46
  0
LAYER
  5
76
330
2
100
AcDbSymbolTableRecord
100
AcDbLayerTableRecord
  2
PLAN_810
 70
     0
 62
     7
  6
AUSGEZOGEN
370
    -3
390
F
347
46
1001
AcCmTransparency
1071
 33554687
1001
AcAecLayerStandard
1000

1000
Dokument-Layer
  0
LAYER
  5
78
330
2
100
AcDbSymbolTableRecord
100
AcDbLayerTableRecord
  2
TB_810
 70
     0
 62
     7
  6
AUSGEZOGEN
370
    -3
390
F
347
46
1001
AcCmTransparency
1071
 33554687
1001
AcAecLayerStandard
1000

1000
Dokument-Layer
  0
LAYER
  5
7C
330
2
100
AcDbSymbolTableRecord
100
AcDbLayerTableRecord
  2
XR$1$TB_810_1
 70
     0
 62
     7
  6
AUSGEZOGEN
370
    -3
390
F
347
46
1001
AcCmTransparency
1071
 33554687
1001
AcAecLayerStandard
1000

1000
Dokument-Layer
  0
ENDTAB
  0
TABLE
  2
STYLE
  5
3
330
0
100
AcDbSymbolTable
 70
     2
  0
STYLE
  5
11
330
3
100
AcDbSymbolTableRecord
100
AcDbTextStyleTableRecord
  2
Standard
 70
     0
 40
0.0
 41
1.0
 50
0.0
 71
     0
 42
0.2
  3
txt
  4

  0
STYLE
  5
79
330
3
100
AcDbSymbolTableRecord
100
AcDbTextStyleTableRecord
  2
ARIAL
 70
     0
 40
0.0
 41
1.0
 50
0.0
 71
     0
 42
0.2
  3
ARIAL.TTF
  4

1001
ACAD
1000
Arial
1071
       34
  0
ENDTAB
  0
TABLE
  2
VIEW
  5
6
330
0
100
AcDbSymbolTable
 70
     0
  0
ENDTAB
  0
TABLE
  2
UCS
  5
7
330
0
100
AcDbSymbolTable
 70
     0
  0
ENDTAB
  0
TABLE
  2
APPID
  5
9
330
0
100
AcDbSymbolTable
 70
     4
  0
APPID
  5
12
330
9
100
AcDbSymbolTableRecord
100
AcDbRegAppTableRecord
  2
ACAD
 70
     0
  0
APPID
  5
75
330
9
100
AcDbSymbolTableRecord
100
AcDbRegAppTableRecord
  2
AcCmTransparency
 70
     0
  0
APPID
  5
77
330
9
100
AcDbSymbolTableRecord
100
AcDbRegAppTableRecord
  2
AcAecLayerStandard
 70
     0
  0
APPID
  5
7D
330
9
100
AcDbSymbolTableRecord
100
AcDbRegAppTableRecord
  2
NEM_ODX
 70
     0
  0
ENDTAB
  0
TABLE
  2
DIMSTYLE
  5
A
330
0
100
AcDbSymbolTable
 70
     1
100
AcDbDimStyleTable
  0
DIMSTYLE
105
27
330
A
100
AcDbSymbolTableRecord
100
AcDbDimStyleTableRecord
  2
Standard
 70
     0
178
     0
340
11
  0
ENDTAB
  0
TABLE
  2
BLOCK_RECORD
  5
1
330
0
100
AcDbSymbolTable
 70
     0
  0
BLOCK_RECORD
  5
1F
102
{ACAD_XDICTIONARY
360
198
102
}
330
1
100
AcDbSymbolTableRecord
100
AcDbBlockTableRecord
  2
*Model_Space
340
22
 70
     0
280
     1
281
     0
  0
BLOCK_RECORD
  5
6E
330
1
100
AcDbSymbolTableRecord
100
AcDbBlockTableRecord
  2
*Paper_Space
340
6F
 70
     0
280
     1
281
     0
  0
ENDTAB
  0
ENDSEC
  0
SECTION
  2
BLOCKS
  0
BLOCK
  5
20
330
1F
100
AcDbEntity
  8
0
100
AcDbBlockBegin
  2
*Model_Space
 70
     0
 10
0.0
 20
0.0
 30
0.0
  3
*Model_Space
  1

  0
ENDBLK
  5
21
330
1F
100
AcDbEntity
  8
0
100
AcDbBlockEnd
  0
BLOCK
  5
70
330
6E
100
AcDbEntity
 67
     1
  8
0
100
AcDbBlockBegin
  2
*Paper_Space
 70
     0
 10
0.0
 20
0.0
 30
0.0
  3
*Paper_Space
  1

  0
ENDBLK
  5
71
330
6E
100
AcDbEntity
 67
     1
  8
0
100
AcDbBlockEnd
  0
ENDSEC
  0
SECTION
  2
ENTITIES
  0
HATCH
  5
7E
330
1F
100
AcDbEntity
  8
XR$1$TB_810_1
  6
AUSGEZOGEN
 62
     7
440
 33554687
370
    -3
100
AcDbHatch
 10
0.0
 20
0.0
 30
0.0
210
0.0
220
0.0
230
1.0
  2
SCHRAFFUR_3
 70
     0
 71
     0
 91
        1
 92
        0
 93
        8
 72
     1
 10
11.34725343380002
 20
-0.0477408651876315
 11
11.34725343380002
 21
0.147756867517548
 72
     1
 10
11.34725343380002
 20
0.147756867517548
 11
11.44378735417377
 21
0.147756867517548
 72
     1
 10
11.44378735417377
 20
0.147756867517548
 11
11.44378735417377
 21
0.327756867517549
 72
     1
 10
11.44378735417377
 20
0.327756867517549
 11
11.34725343380002
 21
0.327756867517549
 72
     1
 10
11.34725343380002
 20
0.327756867517549
 11
11.34725343380002
 21
0.517273847537398
 72
     1
 10
11.34725343380002
 20
0.5172738475373979
 11
11.04725343380002
 21
0.5172738475373979
 72
     1
 10
11.04725343380002
 20
0.5172738475373979
 11
11.04725343380002
 21
-0.0477408651876315
 72
     1
 10
11.04725343380002
 20
-0.0477408651876315
 11
11.34725343380002
 21
-0.0477408651876315
 97
        0
 75
     0
 76
     2
 52
315.0
 41
0.005
 77
     0
 78
     2
 53
44.99999999999999
 43
0.0
 44
0.0
 45
-0.0353553390593274
 46
0.0353553390593274
 79
     0
 53
44.99999999999999
 43
-0.0176776695296637
 44
0.0176776695296637
 45
-0.0353553390593274
 46
0.0353553390593274
 79
     0
 98
        0
1001
ACAD
1010
0.0
1020
0.0
1030
0.0
1001
NEM_ODX
1002
{
1000
BZM_DEPEND
1070
     1
1000
BZM_SCALE
1040
5.0
1000
SCHRAFFUR_3
1002
}
  0
LWPOLYLINE
  5
7F
330
1F
100
AcDbEntity
  8
XR$1$TB_810_1
  6
AUSGEZOGEN
 62
     7
440
 33554687
370
    -3
100
AcDbPolyline
 90
        2
 70
     1
 43
0.0
 10
10.893998
 20
-0.059988
 10
10.893998
 20
-0.059988
  0
LWPOLYLINE
  5
80
330
1F
100
AcDbEntity
  8
XR$1$TB_810_1
  6
AUSGEZOGEN
 62
     7
440
 33554687
370
    -3
100
AcDbPolyline
 90
        2
 70
     1
 43
0.0
 10
10.923998
 20
-0.038238
 10
10.923998
 20
-0.038238
  0
HATCH
  5
81
330
1F
100
AcDbEntity
  8
XR$1$TB_810_1
  6
AUSGEZOGEN
 62
    18
420
        0
440
 33554687
370
    35
100
AcDbHatch
 10
0.0
 20
0.0
 30
0.0
210
0.0
220
0.0
230
1.0
  2
SOLID
 70
     1
 71
     0
 91
       18
 92
        3
 72
     0
 73
     1
 93
       27
 10
10.63890135489673
 20
-0.470432592098434
 10
10.64289509835768
 20
-0.470432592098434
 10
10.64347222474823
 20
-0.470405195717621
 10
10.64400320986584
 20
-0.4703226460964869
 10
10.64449814711395
 20
-0.4701943156810989
 10
10.64494694308911
 20
-0.47001119250408
 10
10.6453589702374
 20
-0.4697913005001809
 10
10.64572521659143
 20
-0.469516615734659
 10
10.6463574962223
 20
-0.4688663121690439
 10
10.64660478460702
 20
-0.4684906933689409
 10
10.64682467661091
 20
-0.468078666220659
 10
10.64716352658413
 20
-0.4671807137916329
 10
10.64735566172852
 20
-0.4661825482854129
 10
10.64741982693621
 20
-0.4651108451254419
 10
10.64735566172852
 20
-0.4639656043117029
 10
10.64716352658413
 20
-0.46293066997861
 10
10.64700779978793
 20
-0.4624634895900049
 10
10.64682467661091
 20
-0.462024066060903
 10
10.64660478460702
 20
-0.4616206904012979
 10
10.6463574962223
 20
-0.46125444404727
 10
10.64572521659143
 20
-0.4606315368624599
 10
10.6453589702374
 20
-0.4603842484777519
 10
10.64494694308911
 20
-0.46017372891993
 10
10.64449814711395
 20
-0.4600086296776499
 10
10.64400320986584
 20
-0.4598896717083279
 10
10.64289509835768
 20
-0.4597887376737509
 10
10.63890135489673
 20
-0.4597887376737509
 97
        0
 92
        3
 72
     0
 73
     1
 93
       12
 10
10.65060754003532
 20
-0.470432592098434
 10
10.65832935415904
 20
-0.470432592098434
 10
10.65832935415904
 20
-0.4691042281076799
 10
10.6522105887916
 20
-0.4691042281076799
 10
10.6522105887916
 20
-0.465641830243046
 10
10.65725765099906
 20
-0.465641830243046
 10
10.65725765099906
 20
-0.4643138267309889
 10
10.6522105887916
 20
-0.4643138267309889
 10
10.6522105887916
 20
-0.4611171016645089
 10
10.65806368136089
 20
-0.4611171016645089
 10
10.65806368136089
 20
-0.4597887376737509
 10
10.65060754003532
 20
-0.4597887376737509
 97
        0
 92
        3
 72
     0
 73
     1
 93
       38
 10
10.66790114494505
 20
-0.4597887376737509
 10
10.66790114494505
 20
-0.4667045214356509
 10
10.66786437611817
 20
-0.467354825001268
 10
10.66775479059492
 20
-0.4679045550110129
 10
10.66755292252577
 20
-0.46837173539962
 10
10.66726922579286
 20
-0.4687379817536559
 10
10.66690261896014
 20
-0.4690126665191779
 10
10.6664448110176
 20
-0.4692141741096309
 10
10.66589508100786
 20
-0.4693334925576509
 10
10.66524477744224
 20
-0.469369900905833
 10
10.66459447387662
 20
-0.4693334925576509
 10
10.66404474386688
 20
-0.4692141741096309
 10
10.66358693592434
 20
-0.4690126665191779
 10
10.66321131712424
 20
-0.4687379817536559
 10
10.66293663235871
 20
-0.46837173539962
 10
10.66273512476826
 20
-0.4679045550110129
 10
10.66262517876631
 20
-0.467354825001268
 10
10.66257939797206
 20
-0.4667045214356509
 10
10.66257939797206
 20
-0.4597887376737509
 10
10.66125103398131
 20
-0.4597887376737509
 10
10.66125103398131
 20
-0.4669701942337979
 10
10.66132457163508
 20
-0.467822005389876
 10
10.6615350911929
 20
-0.4685638705440049
 10
10.66188331361218
 20
-0.4692051621422539
 10
10.66235049400079
 20
-0.469736507738562
 10
10.66292725991264
 20
-0.4701485348868409
 10
10.66361433230515
 20
-0.470450976511871
 10
10.66438395431879
 20
-0.4706340996888899
 10
10.66524477744224
 20
-0.4706982648965859
 10
10.66610596104439
 20
-0.4706340996888899
 10
10.66687522257932
 20
-0.470450976511871
 10
10.66756229497183
 20
-0.4701485348868409
 10
10.66813942136239
 20
-0.469736507738562
 10
10.668606601751
 20
-0.4692051621422539
 10
10.66894545172422
 20
-0.4685638705440049
 10
10.66916534372811
 20
-0.467822005389876
 10
10.66923852090317
 20
-0.4669701942337979
 10
10.66923852090317
 20
-0.4597887376737509
 97
        0
 92
        3
 72
     0
 73
     1
 93
        8
 10
10.67189488840599
 20
-0.4597887376737509
 10
10.67189488840599
 20
-0.4611171016645089
 10
10.67509161347247
 20
-0.4611171016645089
 10
10.67509161347247
 20
-0.470432592098434
 10
10.67641961698452
 20
-0.470432592098434
 10
10.67641961698452
 20
-0.4611171016645089
 10
10.67960733008363
 20
-0.4611171016645089
 10
10.67960733008363
 20
-0.4597887376737509
 97
        0
 92
        3
 72
     0
 73
     1
 93
       96
 10
10.68261192000573
 20
-0.4633520695729579
 10
10.68282243956355
 20
-0.4638740427231969
 10
10.6831522775694
 20
-0.464286430350179
 10
10.68357367716376
 20
-0.464625280323394
 10
10.68407726590055
 20
-0.4648909531215389
 10
10.68464538032373
 20
-0.4650924607120009
 10
10.68586343783385
 20
-0.4654129262717789
 10
10.68708185582264
 20
-0.465687971515988
 10
10.68764960976713
 20
-0.465843337833506
 10
10.68815355898262
 20
-0.4660448454239609
 10
10.68857459809827
 20
-0.4662924942873609
 10
10.68890443610412
 20
-0.4666129598471399
 10
10.68911531614065
 20
-0.467006963060685
 10
10.68918849331572
 20
-0.467501539830104
 10
10.68913334007538
 20
-0.4679687202187089
 10
10.68895958934444
 20
-0.468353350986179
 10
10.68869391654628
 20
-0.4686831889920249
 10
10.68835506657308
 20
-0.468939489344106
 10
10.68795205139216
 20
-0.4691319849671919
 10
10.6875028949383
 20
-0.4692599549038859
 10
10.68702670258232
 20
-0.4693425045250169
 10
10.68653212581291
 20
-0.469369900905833
 10
10.68586343783385
 20
-0.4693334925576509
 10
10.68527729947591
 20
-0.4692141741096309
 10
10.68477335026043
 20
-0.4690126665191779
 10
10.68433392673133
 20
-0.4687379817536559
 10
10.68397669234467
 20
-0.46837173539962
 10
10.68368326268701
 20
-0.4679045550110129
 10
10.68347274312918
 20
-0.467354825001268
 10
10.68333540074642
 20
-0.4667045214356509
 10
10.68200703675567
 20
-0.4669701942337979
 10
10.68209895882287
 20
-0.4678951825649469
 10
10.6822179167922
 20
-0.4683075701919219
 10
10.6823736435884
 20
-0.4686738165459569
 10
10.68257515117885
 20
-0.4690126665191779
 10
10.68280405515012
 20
-0.4693241201115799
 10
10.6833721695733
 20
-0.4698370812944409
 10
10.68404049707367
 20
-0.4702217120619079
 10
10.68481011908731
 20
-0.4704873848600599
 10
10.68564354582995
 20
-0.4706431116562629
 10
10.68653212581291
 20
-0.4706982648965859
 10
10.68731075979391
 20
-0.4706431116562629
 10
10.68805262494805
 20
-0.4704967573061269
 10
10.68873032489448
 20
-0.470231084507981
 10
10.68932583569848
 20
-0.469864477675253
 10
10.68982041246789
 20
-0.469388285319273
 10
10.69019603126799
 20
-0.468792774515279
 10
10.69033337365076
 20
-0.468444912574687
 10
10.69043430768532
 20
-0.468078666220659
 10
10.69051649682777
 20
-0.4672358670319499
 10
10.69044331965271
 20
-0.4665120258125679
 10
10.69023280009488
 20
-0.465916875487266
 10
10.68990296208903
 20
-0.4654403226525859
 10
10.68948156249467
 20
-0.4650650643311849
 10
10.68897761327919
 20
-0.464771995152221
 10
10.68841887130208
 20
-0.4645427307022649
 10
10.68719180182459
 20
-0.4642128926964119
 10
10.68597338383579
 20
-0.4639475803769579
 10
10.68541464185868
 20
-0.463791853580758
 10
10.68491069264319
 20
-0.4636083699250449
 10
10.68448028108146
 20
-0.463370453986401
 10
10.68415044307562
 20
-0.463068012361373
 10
10.68393992351779
 20
-0.4626743696265289
 10
10.68386674634272
 20
-0.462179432378414
 10
10.68393091155042
 20
-0.4618221979917559
 10
10.68409565031399
 20
-0.461529128812792
 10
10.6843429386987
 20
-0.46129121287415
 10
10.68466340425848
 20
-0.4611171016645089
 10
10.68503902305858
 20
-0.4609981436951819
 10
10.68544203823948
 20
-0.460915594074049
 10
10.68626645301475
 20
-0.4608514288663549
 10
10.68683456743794
 20
-0.4608788252471669
 10
10.6873471681421
 20
-0.460961374868302
 10
10.68780533656334
 20
-0.461108089697129
 10
10.6881899673308
 20
-0.4613186092549659
 10
10.68850142092321
 20
-0.4616116784339279
 10
10.68873032489448
 20
-0.461977924787958
 10
10.6888770397233
 20
-0.4624360932091929
 10
10.68892282051756
 20
-0.4629858232189309
 10
10.69051649682777
 20
-0.4629858232189309
 10
10.69026920844306
 20
-0.4621430240302249
 10
10.68993035846984
 20
-0.4614285552569089
 10
10.68949994690811
 20
-0.460833044452916
 10
10.68898698572525
 20
-0.4603568520969349
 10
10.68840084736733
 20
-0.4599902452642089
 10
10.68775054380171
 20
-0.4597249329447549
 10
10.68703607502839
 20
-0.4595782181159299
 10
10.68626645301475
 20
-0.4595234253543
 10
10.68557036865488
 20
-0.4595692061485489
 10
10.68489266870844
 20
-0.4597249329447549
 10
10.68426976152363
 20
-0.4599722213294679
 10
10.68370164710045
 20
-0.4603200832700549
 10
10.68322545474447
 20
-0.4607688792452219
 10
10.68285920839044
 20
-0.4613186092549659
 10
10.6826209319731
 20
-0.4619689128205919
 10
10.68253838235196
 20
-0.4627201504207839
 97
        0
 92
        3
 72
     0
 73
     1
 93
       78
 10
10.69484007829455
 20
-0.4642406495559209
 10
10.69502320147156
 20
-0.463434619194098
 10
10.69533465506397
 20
-0.4627107779747109
 10
10.69577443907176
 20
-0.4620878707899029
 10
10.69633318104888
 20
-0.4615658976396729
 10
10.69701989296268
 20
-0.461181266872205
 10
10.69783529577058
 20
-0.4609429904548609
 10
10.69876965654779
 20
-0.4608514288663549
 10
10.69927324528458
 20
-0.4608881976932389
 10
10.69978620646745
 20
-0.461007155662561
 10
10.70029015568293
 20
-0.4611902788395709
 10
10.7007663480389
 20
-0.46145595163773
 10
10.70118774763326
 20
-0.4617857896435709
 10
10.70153597005255
 20
-0.462197816791857
 10
10.70180128237201
 20
-0.4626833815939019
 10
10.70195700916821
 20
-0.463251135538394
 10
10.70329438512633
 20
-0.4629858232189309
 10
10.70302871232818
 20
-0.4621430240302249
 10
10.70266246597415
 20
-0.4614285552569089
 10
10.70218627361817
 20
-0.460833044452916
 10
10.70162753164105
 20
-0.4603568520969349
 10
10.70099525201018
 20
-0.4599902452642089
 10
10.7002991676503
 20
-0.4597249329447549
 10
10.6995482905288
 20
-0.4595782181159299
 10
10.69876965654779
 20
-0.4595234253543
 10
10.69813737691692
 20
-0.4595508217351069
 10
10.69754222659162
 20
-0.4596330108775489
 10
10.69699249658187
 20
-0.4597613412929349
 10
10.69647953539901
 20
-0.4599444644699539
 10
10.69600334304304
 20
-0.46017372891993
 10
10.69556355903523
 20
-0.4604484136854479
 10
10.69516991630039
 20
-0.4607688792452219
 10
10.69481268191374
 20
-0.4611171016645089
 10
10.69449185587527
 20
-0.4615111048780489
 10
10.69421717110974
 20
-0.4619415164397689
 10
10.69398826713847
 20
-0.462399324382313
 10
10.69379577151539
 20
-0.46289390115173
 10
10.69353009871725
 20
-0.4639565923443369
 10
10.6934479095748
 20
-0.4651108451254419
 10
10.69353009871725
 20
-0.466264737427853
 10
10.69379577151539
 20
-0.4673274286204609
 10
10.69398826713847
 20
-0.467822005389876
 10
10.69421717110974
 20
-0.468280173811108
 10
10.69449185587527
 20
-0.4687105853728409
 10
10.69481268191374
 20
-0.4691042281076799
 10
10.69516991630039
 20
-0.4694524505269599
 10
10.69556355903523
 20
-0.4697729160867489
 10
10.69600334304304
 20
-0.4700479613309599
 10
10.69647953539901
 20
-0.470276865302232
 10
10.69699249658187
 20
-0.470459988479248
 10
10.69754222659162
 20
-0.470588318894633
 10
10.69813737691692
 20
-0.4706708685157699
 10
10.69876965654779
 20
-0.4706982648965859
 10
10.69956631446354
 20
-0.4706247272428259
 10
10.70033593647718
 20
-0.470405195717621
 10
10.70107780163131
 20
-0.470056973298338
 10
10.70176487402381
 20
-0.469571408496294
 10
10.70236939679518
 20
-0.4689578737575459
 10
10.70288235797805
 20
-0.468225020570784
 10
10.70328537315896
 20
-0.4673915938281509
 10
10.70356005792448
 20
-0.466438848637499
 10
10.70195700916821
 20
-0.466438848637499
 10
10.70181065481807
 20
-0.4670985246491909
 10
10.70157237840074
 20
-0.467684663007116
 10
10.70125191284096
 20
-0.4681882517439109
 10
10.70086728207349
 20
-0.468600639370885
 10
10.70040911365225
 20
-0.4689304773767399
 10
10.69990552491546
 20
-0.469168393315383
 10
10.69935579490572
 20
-0.4693151081442009
 10
10.69876965654779
 20
-0.469369900905833
 10
10.69783529577058
 20
-0.46928771176339
 10
10.69701989296268
 20
-0.469040423378679
 10
10.69633318104888
 20
-0.468655432132516
 10
10.69577443907176
 20
-0.468133458982283
 10
10.69533465506397
 20
-0.4675105517974699
 10
10.69502320147156
 20
-0.466787071056782
 10
10.69484007829455
 20
-0.4659810406949629
 10
10.69477591308686
 20
-0.4651108451254419
 97
        0
 92
        3
 72
     0
 73
     1
 93
       12
 10
10.7067477710236
 20
-0.470432592098434
 10
10.70807577453566
 20
-0.470432592098434
 10
10.70807577453566
 20
-0.465641830243046
 10
10.71366319430679
 20
-0.465641830243046
 10
10.71366319430679
 20
-0.470432592098434
 10
10.71526624306307
 20
-0.470432592098434
 10
10.71526624306307
 20
-0.4597887376737509
 10
10.71366319430679
 20
-0.4597887376737509
 10
10.71366319430679
 20
-0.4643138267309889
 10
10.70807577453566
 20
-0.4643138267309889
 10
10.70807577453566
 20
-0.4597887376737509
 10
10.7067477710236
 20
-0.4597887376737509
 97
        0
 92
        3
 72
     0
 73
     1
 93
       12
 10
10.71871962896033
 20
-0.470432592098434
 10
10.7261754098072
 20
-0.470432592098434
 10
10.7261754098072
 20
-0.4691042281076799
 10
10.72005700491844
 20
-0.4691042281076799
 10
10.72005700491844
 20
-0.465641830243046
 10
10.72536937944537
 20
-0.465641830243046
 10
10.72536937944537
 20
-0.4643138267309889
 10
10.72005700491844
 20
-0.4643138267309889
 10
10.72005700491844
 20
-0.4611171016645089
 10
10.7261754098072
 20
-0.4611171016645089
 10
10.7261754098072
 20
-0.4597887376737509
 10
10.71871962896033
 20
-0.4597887376737509
 97
        0
 92
        3
 72
     0
 73
     1
 93
       90
 10
10.64142939198416
 20
-0.4779986794259509
 10
10.64112731083781
 20
-0.4777052497682939
 10
10.64105377318406
 20
-0.4775405110047189
 10
10.64103574924931
 20
-0.477348015381636
 10
10.64108153004356
 20
-0.477073330616109
 10
10.64120949998026
 20
-0.4768444266448399
 10
10.64139298363597
 20
-0.4766613034678279
 10
10.64163089957461
 20
-0.4765145886389929
 10
10.64215323320354
 20
-0.476340477429359
 10
10.64262942555952
 20
-0.4762856846677199
 10
10.6434170715079
 20
-0.476377246256226
 10
10.64380170227538
 20
-0.4764962042255609
 10
10.64415893666204
 20
-0.476651931021755
 10
10.64480022826028
 20
-0.477073330616109
 10
10.64528579306232
 20
-0.4776136881797829
 10
10.64741982693621
 20
-0.4762856846677199
 10
10.64690686575335
 20
-0.475809492311748
 10
10.64637588063575
 20
-0.475388092717392
 10
10.645826150626
 20
-0.475030858330741
 10
10.64525839668152
 20
-0.4747194047383309
 10
10.64467189784489
 20
-0.474481128320994
 10
10.64408575948697
 20
-0.4742980051439789
 10
10.64349024868298
 20
-0.4741970711094
 10
10.64289509835768
 20
-0.4741606627612159
 10
10.64202490278816
 20
-0.474206443555475
 10
10.64121887242633
 20
-0.4743621703516779
 10
10.64049503120695
 20
-0.474618470703759
 10
10.63987212402213
 20
-0.4749850775364829
 10
10.63935015087191
 20
-0.4754702818598339
 10
10.63896552010443
 20
-0.4760657926638339
 10
10.63882817772167
 20
-0.476404642637046
 10
10.63871823171972
 20
-0.4767802614371449
 10
10.6386356820986
 20
-0.4776136881797829
 10
10.63869083533891
 20
-0.4781908145703449
 10
10.63884656213511
 20
-0.478713148199265
 10
10.63909385051983
 20
-0.47917996810918
 10
10.63943270049303
 20
-0.4795923557361559
 10
10.63985410008739
 20
-0.4799402176767489
 10
10.64035768882418
 20
-0.4802152629209649
 10
10.64094382718211
 20
-0.4804257824788
 10
10.64158511878036
 20
-0.4805631248615589
 10
10.64371951313293
 20
-0.4810029088693479
 10
10.64418669352154
 20
-0.481112854871298
 10
10.64450715908132
 20
-0.481286966080939
 10
10.6446996547044
 20
-0.481524882019586
 10
10.64475444746603
 20
-0.4818731044388689
 10
10.64470866667177
 20
-0.482157161650459
 10
10.64458033625639
 20
-0.4824134620025409
 10
10.64437882866592
 20
-0.4826423659738059
 10
10.64412252831384
 20
-0.4828348615968989
 10
10.64383847110225
 20
-0.4829905883931019
 10
10.64351800554248
 20
-0.4831095463624149
 10
10.64289509835768
 20
-0.48320110795093
 10
10.64198813396127
 20
-0.4831095463624149
 10
10.64159449122643
 20
-0.4829905883931019
 10
10.6412278843937
 20
-0.4828348615968989
 10
10.64057758082809
 20
-0.4824134620025409
 10
10.63996404608934
 20
-0.4818731044388689
 10
10.63783866370414
 20
-0.4829357956314699
 10
10.63842516254075
 20
-0.4834851651625159
 10
10.6390022889313
 20
-0.483943333583747
 10
10.63956103090842
 20
-0.484309579937784
 10
10.64013779682028
 20
-0.4846026491167519
 10
10.64071492321084
 20
-0.4848135291532719
 10
10.64131944598221
 20
-0.4849598835034049
 10
10.64195172561308
 20
-0.485042433124537
 10
10.64262942555952
 20
-0.4850698295053529
 10
10.64337129071366
 20
-0.4850330606784729
 10
10.64415893666204
 20
-0.484932487122591
 10
10.64496496702385
 20
-0.484730979532132
 10
10.64572521659143
 20
-0.4844011415262899
 10
10.64607343901072
 20
-0.4841812495223909
 10
10.64639390457049
 20
-0.48392494917031
 10
10.64667796178208
 20
-0.4836225075452779
 10
10.64693462261286
 20
-0.4832652731586259
 10
10.64713613020331
 20
-0.482871630423777
 10
10.64729185699951
 20
-0.4824134620025409
 10
10.64738341858803
 20
-0.481909873265749
 10
10.64741982693621
 20
-0.481341758842569
 10
10.64738341858803
 20
-0.4809113472808439
 10
10.64728248455345
 20
-0.480526716513366
 10
10.64712675775724
 20
-0.480196878507522
 10
10.64692525016679
 20
-0.4799038093285669
 10
10.6466689498147
 20
-0.4796471484977839
 10
10.64638489260312
 20
-0.479427616972583
 10
10.64570719265669
 20
-0.479079394553297
 10
10.64494694308911
 20
-0.4788411181359589
 10
10.64414091272728
 20
-0.4786670069263129
 10
10.64262942555952
 20
-0.478410706574232
 10
10.64193334119965
 20
-0.4782275833972199
 97
        0
 92
        3
 72
     0
 73
     1
 93
        8
 10
10.6538042651018
 20
-0.476551357465876
 10
10.65646063260461
 20
-0.476551357465876
 10
10.65646063260461
 20
-0.4744263355593649
 10
10.64848251812882
 20
-0.4744263355593649
 10
10.64848251812882
 20
-0.476551357465876
 10
10.65113888563162
 20
-0.476551357465876
 10
10.65113888563162
 20
-0.4847951447398299
 10
10.6538042651018
 20
-0.4847951447398299
 97
        0
 92
        3
 72
     0
 73
     1
 93
       12
 10
10.65832935415904
 20
-0.4847951447398299
 10
10.66630746863484
 20
-0.4847951447398299
 10
10.66630746863484
 20
-0.4829357956314699
 10
10.6607200488637
 20
-0.4829357956314699
 10
10.6607200488637
 20
-0.4805451009268069
 10
10.66551045024039
 20
-0.4805451009268069
 10
10.66551045024039
 20
-0.478410706574232
 10
10.6607200488637
 20
-0.478410706574232
 10
10.6607200488637
 20
-0.476551357465876
 10
10.66577612303854
 20
-0.476551357465876
 10
10.66577612303854
 20
-0.4744263355593649
 10
10.65832935415904
 20
-0.4744263355593649
 97
        0
 92
        3
 72
     0
 73
     1
 93
        4
 10
10.6681668177432
 20
-0.4847951447398299
 10
10.67083219721338
 20
-0.4847951447398299
 10
10.67083219721338
 20
-0.4744263355593649
 10
10.6681668177432
 20
-0.4744263355593649
 97
        0
 92
        3
 72
     0
 73
     1
 93
       10
 10
10.67562295906877
 20
-0.4847951447398299
 10
10.67562295906877
 20
-0.478410706574232
 10
10.67934165728548
 20
-0.4847951447398299
 10
10.68200703675567
 20
-0.4847951447398299
 10
10.68200703675567
 20
-0.4744263355593649
 10
10.67960733008363
 20
-0.4744263355593649
 10
10.67960733008363
 20
-0.4810760860444219
 10
10.67588863186692
 20
-0.4744263355593649
 10
10.67322289191804
 20
-0.4744263355593649
 10
10.67322289191804
 20
-0.4847951447398299
 97
        0
 92
        3
 72
     0
 73
     1
 93
       10
 10
10.6929165639785
 20
-0.476551357465876
 10
10.6929165639785
 20
-0.4744263355593649
 10
10.68439773146033
 20
-0.4744263355593649
 10
10.68439773146033
 20
-0.476551357465876
 10
10.68971983891201
 20
-0.476551357465876
 10
10.68413241914087
 20
-0.4829357956314699
 10
10.68413241914087
 20
-0.4847951447398299
 10
10.6929165639785
 20
-0.4847951447398299
 10
10.6929165639785
 20
-0.4829357956314699
 10
10.68732914420735
 20
-0.4829357956314699
 97
        0
 92
        3
 72
     0
 73
     1
 93
       12
 10
10.695041585885
 20
-0.4847951447398299
 10
10.70302871232818
 20
-0.4847951447398299
 10
10.70302871232818
 20
-0.4829357956314699
 10
10.69770696535519
 20
-0.4829357956314699
 10
10.69770696535519
 20
-0.4805451009268069
 10
10.70222268196635
 20
-0.4805451009268069
 10
10.70222268196635
 20
-0.478410706574232
 10
10.69770696535519
 20
-0.478410706574232
 10
10.69770696535519
 20
-0.476551357465876
 10
10.70275402756266
 20
-0.476551357465876
 10
10.70275402756266
 20
-0.4744263355593649
 10
10.695041585885
 20
-0.4744263355593649
 97
        0
 92
        3
 72
     0
 73
     1
 93
       42
 10
10.70754478941805
 20
-0.4744263355593649
 10
10.70488842191524
 20
-0.4744263355593649
 10
10.70488842191524
 20
-0.481341758842569
 10
10.70491581829604
 20
-0.4818183116772399
 10
10.70499836791718
 20
-0.4822671076524069
 10
10.70512633785388
 20
-0.4826701228333219
 10
10.70529143709614
 20
-0.4830453811547269
 10
10.70575861748475
 20
-0.4836866727529739
 10
10.70635376781006
 20
-0.4841996339358319
 10
10.70704084020256
 20
-0.484584264703302
 10
10.70780108977013
 20
-0.484859309947525
 10
10.70860712013195
 20
-0.4850150367437219
 10
10.70941315049377
 20
-0.4850698295053529
 10
10.71012761926708
 20
-0.4850150367437219
 10
10.71086047245385
 20
-0.484859309947525
 10
10.71157494122717
 20
-0.484584264703302
 10
10.71223425676015
 20
-0.4841996339358319
 10
10.71281138315072
 20
-0.4836866727529739
 10
10.71326017912588
 20
-0.4830453811547269
 10
10.71343429033553
 20
-0.4826701228333219
 10
10.71356262075091
 20
-0.4822671076524069
 10
10.71363579792599
 20
-0.4818183116772399
 10
10.71366319430679
 20
-0.481341758842569
 10
10.71366319430679
 20
-0.4744263355593649
 10
10.71127249960213
 20
-0.4744263355593649
 10
10.71127249960213
 20
-0.4810760860444219
 10
10.71124510322132
 20
-0.4814700892579559
 10
10.71117192604625
 20
-0.4818547200254319
 10
10.71103458366349
 20
-0.482211954412083
 10
10.71084208804041
 20
-0.4825417924179269
 10
10.71058578768832
 20
-0.4828074652160789
 10
10.71026496164985
 20
-0.4830179847739129
 10
10.70987131891501
 20
-0.48315532715667
 10
10.70941315049377
 20
-0.48320110795093
 10
10.70894597010517
 20
-0.48315532715667
 10
10.7085613393377
 20
-0.4830179847739129
 10
10.70824087377792
 20
-0.4828074652160789
 10
10.70798421294714
 20
-0.4825417924179269
 10
10.70778270535669
 20
-0.482211954412083
 10
10.70765437494129
 20
-0.4818547200254319
 10
10.70757218579885
 20
-0.4814700892579559
 10
10.70754478941805
 20
-0.4810760860444219
 97
        0
 92
        3
 72
     0
 73
     1
 93
       75
 10
10.71587076583444
 20
-0.4808929628674009
 10
10.71609065783833
 20
-0.4819188852331209
 10
10.71626476904797
 20
-0.482395077589102
 10
10.71646627663843
 20
-0.4828348615968989
 10
10.71671356502315
 20
-0.4832378767778059
 10
10.71699762223473
 20
-0.483604123131837
 10
10.7176663102138
 20
-0.4842270303166439
 10
10.71805995294864
 20
-0.484474318701353
 10
10.71849036451037
 20
-0.4846851987378789
 10
10.71895754489897
 20
-0.4848499375014539
 10
10.71946149411446
 20
-0.4849692559494739
 10
10.72058799003606
 20
-0.4850698295053529
 10
10.72153172325934
 20
-0.4850150367437219
 10
10.72234676558853
 20
-0.484831553088012
 10
10.7227039999752
 20
-0.4846851987378789
 10
10.7230154535676
 20
-0.4845020755608579
 10
10.72329013833312
 20
-0.484272811110902
 10
10.72351003033703
 20
-0.4839981263453769
 10
10.72351003033703
 20
-0.4847951447398299
 10
10.72564442468959
 20
-0.4847951447398299
 10
10.72564442468959
 20
-0.4792077249686839
 10
10.72111933563236
 20
-0.4792077249686839
 10
10.72111933563236
 20
-0.4810760860444219
 10
10.72324435753887
 20
-0.4810760860444219
 10
10.72318956477724
 20
-0.481534254465654
 10
10.72302446553497
 20
-0.4819278972004939
 10
10.72278654959632
 20
-0.4822487232389649
 10
10.7224841079713
 20
-0.4825050235910529
 10
10.72214525799808
 20
-0.482697519214129
 10
10.72178802361143
 20
-0.4828348615968989
 10
10.72111933563236
 20
-0.4829357956314699
 10
10.72046903206673
 20
-0.482880642391148
 10
10.71991930205699
 20
-0.482697519214129
 10
10.71945248214709
 20
-0.4824134620025409
 10
10.71908587531436
 20
-0.4820378432024459
 10
10.71881119054884
 20
-0.481570662813836
 10
10.71860968295838
 20
-0.4810303052501659
 10
10.71849036451037
 20
-0.4804167705114189
 10
10.71845395616218
 20
-0.479748082532363
 10
10.7185087489238
 20
-0.478905283343654
 10
10.71864609130657
 20
-0.4781908145703449
 10
10.71887535575654
 20
-0.47759566424504
 10
10.71918680934893
 20
-0.47711911141036
 10
10.71957144011641
 20
-0.4767528650563339
 10
10.72002924805894
 20
-0.476487192258182
 10
10.7205422092418
 20
-0.476331465461981
 10
10.72111933563236
 20
-0.4762856846677199
 10
10.72186120078649
 20
-0.476377246256226
 10
10.72220041123841
 20
-0.4764962042255609
 10
10.72251150435211
 20
-0.476651931021755
 10
10.72306123436185
 20
-0.477073330616109
 10
10.72351003033703
 20
-0.4776136881797829
 10
10.72564442468959
 20
-0.4768170302640279
 10
10.72521365264918
 20
-0.4761667266984059
 10
10.72473746029319
 20
-0.475616996688661
 10
10.72421548714296
 20
-0.4751588282674289
 10
10.72364737271977
 20
-0.4747925819134
 10
10.72302446553497
 20
-0.4745085247018139
 10
10.72234676558853
 20
-0.474307017111354
 10
10.72162328484786
 20
-0.4741970711094
 10
10.72085366283421
 20
-0.4741606627612159
 10
10.72022174368203
 20
-0.4741880591420319
 10
10.71964461729147
 20
-0.474270608763172
 10
10.7191042597278
 20
-0.4743985786998599
 10
10.71860031051231
 20
-0.4745820623555639
 10
10.71814250256977
 20
-0.4748109663268419
 10
10.71773011494279
 20
-0.4750856510923599
 10
10.7173548566214
 20
-0.475397104684773
 10
10.71702501861555
 20
-0.4757543390714229
 10
10.71673194943658
 20
-0.4761483422849629
 10
10.71648466105187
 20
-0.4765697418793129
 10
10.71627378101535
 20
-0.4770365617892309
 10
10.7160996698057
 20
-0.477522126591277
 10
10.71587076583444
 20
-0.478584817783878
 10
10.71579758865937
 20
-0.479748082532363
 97
        0
 92
       18
 72
     0
 73
     1
 93
       19
 10
10.64262942555952
 20
-0.4611171016645089
 10
10.64346285230216
 20
-0.4611902788395709
 10
10.64417732107547
 20
-0.4614101708434719
 10
10.64477283187948
 20
-0.4617490208166889
 10
10.64525839668152
 20
-0.4622162012052969
 10
10.64562464303555
 20
-0.462793327595846
 10
10.64588094338763
 20
-0.4634803999883549
 10
10.64603667018383
 20
-0.4642496615232919
 10
10.64608245097809
 20
-0.4651108451254419
 10
10.64603667018383
 20
-0.465971668248887
 10
10.64588094338763
 20
-0.4667412902625359
 10
10.64562464303555
 20
-0.4674280021763439
 10
10.64525839668152
 20
-0.4680051285668919
 10
10.64477283187948
 20
-0.468472308955499
 10
10.64417732107547
 20
-0.4688111589287179
 10
10.64346285230216
 20
-0.4690310509326119
 10
10.64262942555952
 20
-0.4691042281076799
 10
10.6402293584088
 20
-0.4691042281076799
 10
10.6402293584088
 20
-0.4611171016645089
 97
        0
 75
     0
 76
     1
 98
        0
  0
HATCH
  5
82
330
1F
100
AcDbEntity
  8
XR$1$TB_810_1
  6
AUSGEZOGEN
 62
    18
420
        0
440
 33554687
370
    35
100
AcDbHatch
 10
0.0
 20
0.0
 30
0.0
210
0.0
220
0.0
230
1.0
  2
SOLID
 70
     1
 71
     0
 91
       20
 92
        3
 72
     0
 73
     1
 93
        8
 10
10.77193781964764
 20
-0.4600544104719079
 10
10.76209098361741
 20
-0.4847951447398299
 10
10.76448167832207
 20
-0.4847951447398299
 10
10.7674127305904
 20
-0.477348015381636
 10
10.77832225781323
 20
-0.477348015381636
 10
10.78097862531604
 20
-0.4847951447398299
 10
10.78364400478623
 20
-0.4847951447398299
 10
10.77406284155414
 20
-0.4600544104719079
 97
        0
 92
        3
 72
     0
 73
     1
 93
      116
 10
10.78656604508719
 20
-0.472557614004938
 10
10.78660245343537
 20
-0.4716048688142869
 10
10.78669401502388
 20
-0.4706431116562629
 10
10.78684974182008
 20
-0.4696723425308589
 10
10.78707900627004
 20
-0.4687195973402069
 10
10.78737207544901
 20
-0.4677946090090619
 10
10.78772930983567
 20
-0.466887644612663
 10
10.78815972139739
 20
-0.4660268214892089
 10
10.78866367061289
 20
-0.4652114186813189
 10
10.78924043652474
 20
-0.464460541559825
 10
10.78988172812299
 20
-0.4637734691673189
 10
10.7905961968963
 20
-0.4631595739498839
 10
10.79139321529076
 20
-0.462646612767024
 10
10.79226341086028
 20
-0.462225573651365
 10
10.79321579557224
 20
-0.46191412005896
 10
10.79424171793795
 20
-0.4617216244358769
 10
10.79535018992481
 20
-0.4616484472608079
 10
10.79666918146949
 20
-0.46173063640325
 10
10.79785083063142
 20
-0.4619599008532169
 10
10.79839118819509
 20
-0.462133651584157
 10
10.79889477693189
 20
-0.4623535435880579
 10
10.79936195732049
 20
-0.4626102044188339
 10
10.79980174132828
 20
-0.4629122855651689
 10
10.80058938727667
 20
-0.4636541507192989
 10
10.80125807525572
 20
-0.4645701270830699
 10
10.80181681723285
 20
-0.4656785990699239
 10
10.80226561320801
 20
-0.4669701942337979
 10
10.80465630791267
 20
-0.465641830243046
 10
10.80391444275854
 20
-0.464231277109853
 10
10.80305361963509
 20
-0.4630038471536789
 10
10.80209186247706
 20
-0.4619505284071419
 10
10.80156051688076
 20
-0.4614927204646039
 10
10.80100177490364
 20
-0.4610897052836879
 10
10.80041563654573
 20
-0.460723098450966
 10
10.7997927293609
 20
-0.4604116448585699
 10
10.79913305334922
 20
-0.460136960093037
 10
10.79844598095671
 20
-0.459917068089144
 10
10.79697126261583
 20
-0.459623998910181
 10
10.79535018992481
 20
-0.4595234253543
 10
10.79394864875899
 20
-0.4595966025293669
 10
10.79265705359512
 20
-0.4598071220871929
 10
10.79144800805238
 20
-0.4601553445064799
 10
10.7903489085116
 20
-0.4606225248950869
 10
10.78934137055932
 20
-0.461208663253017
 10
10.78842539419554
 20
-0.4618957356455169
 10
10.78760097942028
 20
-0.4626743696265289
 10
10.78686812623352
 20
-0.4635445651960469
 10
10.78622683463527
 20
-0.4644969499080069
 10
10.78567746510423
 20
-0.4655138603063569
 10
10.78521028471562
 20
-0.466585563466329
 10
10.78483466591552
 20
-0.4677214318339939
 10
10.78454159673657
 20
-0.4688846965824779
 10
10.7843400891461
 20
-0.4700937421252199
 10
10.78421175873072
 20
-0.471321172081396
 10
10.78417535038253
 20
-0.472557614004938
 10
10.78421175873072
 20
-0.473894989963064
 10
10.7843400891461
 20
-0.475186585126932
 10
10.78454159673657
 20
-0.476432039017862
 10
10.78482565394814
 20
-0.4776320725932229
 10
10.78519190030217
 20
-0.4787679409608929
 10
10.78565006872341
 20
-0.4798396441208689
 10
10.78618105384101
 20
-0.4808471820731439
 10
10.78680396102583
 20
-0.4817721704042959
 10
10.78750004538571
 20
-0.4826149695930029
 10
10.78828805181278
 20
-0.483366207193197
 10
10.78916725934967
 20
-0.484016510758822
 10
10.79012000454032
 20
-0.4845752527359289
 10
10.79116395084079
 20
-0.485005664297659
 10
10.79229981920846
 20
-0.4853355023034999
 10
10.7935088647512
 20
-0.485527997926585
 10
10.79481884432852
 20
-0.4856011751016519
 10
10.7959179438693
 20
-0.4855370098939559
 10
10.79702641585615
 20
-0.4853445142708769
 10
10.7981071309835
 20
-0.4850240487110969
 10
10.79914242579529
 20
-0.484566240768567
 10
10.80009481050724
 20
-0.483970729964567
 10
10.8009559941094
 20
-0.4832378767778059
 10
10.80168884729615
 20
-0.482367681208296
 10
10.80199092844249
 20
-0.4818731044388689
 10
10.80226561320801
 20
-0.481341758842569
 10
10.80226561320801
 20
-0.4847951447398299
 10
10.80439063511453
 20
-0.4847951447398299
 10
10.80439063511453
 20
-0.4720262684086409
 10
10.79321579557224
 20
-0.4720262684086409
 10
10.79321579557224
 20
-0.4741606627612159
 10
10.80226561320801
 20
-0.4741606627612159
 10
10.80226561320801
 20
-0.475488666273271
 10
10.80216503965213
 20
-0.476826042231401
 10
10.80185358605972
 20
-0.4781908145703449
 10
10.80160629767501
 20
-0.4788685145167739
 10
10.80131322849605
 20
-0.479528190528464
 10
10.8009559941094
 20
-0.480169482126712
 10
10.80053459451504
 20
-0.480774004898077
 10
10.80005840215906
 20
-0.481341758842569
 10
10.79950867214932
 20
-0.4818547200254319
 10
10.79890414937795
 20
-0.4823128884466639
 10
10.79822644943152
 20
-0.4827065311815059
 10
10.79748422379869
 20
-0.483027357219976
 10
10.79665980902342
 20
-0.4832652731586259
 10
10.79578060148653
 20
-0.4834209999548219
 10
10.79481884432852
 20
-0.483466780749077
 10
10.79375615313591
 20
-0.4834026155413849
 10
10.79278538401051
 20
-0.4832104803969939
 10
10.7918784196141
 20
-0.4828990268045889
 10
10.79105436531754
 20
-0.482477627210241
 10
10.79031213968472
 20
-0.4819556540600019
 10
10.78963443973827
 20
-0.4813511312886329
 10
10.78902991696691
 20
-0.4806640588961339
 10
10.78849857137061
 20
-0.4799128212959379
 10
10.78803139098201
 20
-0.4790977789667369
 10
10.78763774824716
 20
-0.478236595364589
 10
10.78729853779524
 20
-0.4773299914468819
 10
10.78703322547579
 20
-0.4763956306696709
 10
10.78683171788534
 20
-0.4754428854790269
 10
10.78668500305651
 20
-0.474481128320994
 10
10.78659344146799
 20
-0.4735193711629689
 97
        0
 92
        3
 72
     0
 73
     1
 93
       37
 10
10.80785303297915
 20
-0.4847951447398299
 10
10.81024372768382
 20
-0.4847951447398299
 10
10.81024372768382
 20
-0.473894989963064
 10
10.81583150793365
 20
-0.473894989963064
 10
10.82381863437682
 20
-0.4847951447398299
 10
10.82674067467779
 20
-0.4847951447398299
 10
10.81876256020199
 20
-0.473894989963064
 10
10.82036560895826
 20
-0.4736934823726089
 10
10.82110747411239
 20
-0.4735193711629689
 10
10.8217941860262
 20
-0.4732994791590719
 10
10.82243547762445
 20
-0.4730247943935459
 10
10.82302161598238
 20
-0.4727043288337699
 10
10.82356233402475
 20
-0.4723377220010459
 10
10.82404753834809
 20
-0.4719256948527619
 10
10.82448732235588
 20
-0.471467526431528
 10
10.82486294115599
 20
-0.4709639376947339
 10
10.82519277916183
 20
-0.4704142076849909
 10
10.82545809148129
 20
-0.469809684913623
 10
10.82566897151781
 20
-0.469168393315383
 10
10.82582469831401
 20
-0.4684816814015659
 10
10.82591625990252
 20
-0.467748828214809
 10
10.82594365628333
 20
-0.4669701942337979
 10
10.82584308272745
 20
-0.4656785990699239
 10
10.82553162913505
 20
-0.464432784700311
 10
10.82529335271771
 20
-0.4638376343750059
 10
10.82500929550612
 20
-0.4632605079844579
 10
10.82465206111946
 20
-0.4627201504207839
 10
10.82424904593855
 20
-0.4622162012052969
 10
10.82378186554995
 20
-0.4617490208166889
 10
10.82325989239971
 20
-0.461336993668403
 10
10.82266438159572
 20
-0.460961374868302
 10
10.82201407803009
 20
-0.4606499212759019
 10
10.82129960925678
 20
-0.460393620923816
 10
10.82052097527577
 20
-0.4602101372681079
 10
10.81967853656576
 20
-0.46009117929879
 10
10.81876256020199
 20
-0.4600544104719079
 10
10.80785303297915
 20
-0.4600544104719079
 97
        0
 92
        3
 72
     0
 73
     1
 93
       64
 10
10.82770243183582
 20
-0.475030858330741
 10
10.82791295139364
 20
-0.476230531427403
 10
10.82819700860524
 20
-0.4774031686219569
 10
10.82857262740533
 20
-0.4785296645435539
 10
10.82903043534787
 20
-0.4796107401495989
 10
10.82957115339024
 20
-0.4806272900692549
 10
10.83020307254241
 20
-0.481570662813836
 10
10.83091754131573
 20
-0.4824408583833539
 10
10.83172357167756
 20
-0.4832288648104349
 10
10.83262116362789
 20
-0.483915576724243
 10
10.83360130519936
 20
-0.4844927031147959
 10
10.83468202032672
 20
-0.4849598835034049
 10
10.83584528507519
 20
-0.4853081059226859
 10
10.83710047189087
 20
-0.485527997926585
 10
10.83843712689161
 20
-0.4856011751016519
 10
10.83974710646892
 20
-0.485527997926585
 10
10.84096552445772
 20
-0.4853081059226859
 10
10.84209202037933
 20
-0.4849598835034049
 10
10.84313632715848
 20
-0.4844927031147959
 10
10.84408871187045
 20
-0.483915576724243
 10
10.84496827988603
 20
-0.4832288648104349
 10
10.84575592583442
 20
-0.4824408583833539
 10
10.84645201019429
 20
-0.481570662813836
 10
10.84707491737909
 20
-0.4806272900692549
 10
10.8476062629754
 20
-0.4796107401495989
 10
10.84806407091794
 20
-0.4785296645435539
 10
10.84843067775067
 20
-0.4774031686219569
 10
10.84871437448356
 20
-0.476230531427403
 10
10.84892525452008
 20
-0.475030858330741
 10
10.8490442124894
 20
-0.473803428374565
 10
10.84908098131628
 20
-0.472557614004938
 10
10.8490442124894
 20
-0.471321172081396
 10
10.84892525452008
 20
-0.4700937421252199
 10
10.84871437448356
 20
-0.4688846965824779
 10
10.84843067775067
 20
-0.4677214318339939
 10
10.84806407091794
 20
-0.466585563466329
 10
10.8476062629754
 20
-0.4655138603063569
 10
10.84707491737909
 20
-0.4644969499080069
 10
10.84645201019429
 20
-0.4635445651960469
 10
10.84575592583442
 20
-0.4626743696265289
 10
10.84496827988603
 20
-0.4618957356455169
 10
10.84408871187045
 20
-0.461208663253017
 10
10.84313632715848
 20
-0.4606225248950869
 10
10.84209202037933
 20
-0.4601553445064799
 10
10.84096552445772
 20
-0.4598071220871929
 10
10.83974710646892
 20
-0.4595966025293669
 10
10.83843712689161
 20
-0.4595234253543
 10
10.83710047189087
 20
-0.4595966025293669
 10
10.83584528507519
 20
-0.4598071220871929
 10
10.83468202032672
 20
-0.4601553445064799
 10
10.83360130519936
 20
-0.4606225248950869
 10
10.83262116362789
 20
-0.461208663253017
 10
10.83172357167756
 20
-0.4618957356455169
 10
10.83091754131573
 20
-0.4626743696265289
 10
10.83020307254241
 20
-0.4635445651960469
 10
10.82957115339024
 20
-0.4644969499080069
 10
10.82903043534787
 20
-0.4655138603063569
 10
10.82857262740533
 20
-0.466585563466329
 10
10.82819700860524
 20
-0.4677214318339939
 10
10.82791295139364
 20
-0.4688846965824779
 10
10.82770243183582
 20
-0.4700937421252199
 10
10.82758347386649
 20
-0.471321172081396
 10
10.82754670503961
 20
-0.472557614004938
 10
10.82758347386649
 20
-0.473803428374565
 97
        0
 92
        3
 72
     0
 73
     1
 93
       57
 10
10.86292120032875
 20
-0.4847951447398299
 10
10.86392873828103
 20
-0.484758375912948
 10
10.86486309905824
 20
-0.484657802357069
 10
10.86573329462777
 20
-0.4844836911474229
 10
10.86652130105485
 20
-0.4842454147300849
 10
10.86724478179553
 20
-0.4839523455511219
 10
10.86790409732853
 20
-0.483604123131837
 10
10.86849059616515
 20
-0.4832104803969939
 10
10.86900355734801
 20
-0.4827706963892029
 10
10.86946136529055
 20
-0.482285131587156
 10
10.86984599605803
 20
-0.4817721704042959
 10
10.87017583406387
 20
-0.4812228008732449
 10
10.87044150686202
 20
-0.4806456744826949
 10
10.87064301445247
 20
-0.480050163678697
 10
10.8707897292813
 20
-0.479427616972583
 10
10.87087191842374
 20
-0.4787953373417089
 10
10.87089931480456
 20
-0.4781450337760869
 10
10.87082613762949
 20
-0.4768902074390929
 10
10.87059723365822
 20
-0.4757269426906129
 10
10.87041411048121
 20
-0.4751772126808659
 10
10.87020323044467
 20
-0.4746642514980059
 10
10.86993755764653
 20
-0.4741790471746609
 10
10.86963547650019
 20
-0.4737208787534249
 10
10.86928725408091
 20
-0.473308851605141
 10
10.86890262331344
 20
-0.472923860358976
 10
10.86846283930564
 20
-0.4725759984183819
 10
10.86798664694967
 20
-0.472273556793348
 10
10.86745530135336
 20
-0.4720078839952039
 10
10.8668781749628
 20
-0.4717973644373669
 10
10.8662556282567
 20
-0.471623253227733
 10
10.86557756783156
 20
-0.471494922812337
 10
10.86669505178579
 20
-0.4712386224602559
 10
10.86718061658784
 20
-0.4710554992832379
 10
10.867629412563
 20
-0.4708446192467119
 10
10.86841705851139
 20
-0.4703410305099279
 10
10.8690399656962
 20
-0.469699738911675
 10
10.86951651853087
 20
-0.468939489344106
 10
10.86969964170789
 20
-0.4685090777823789
 10
10.86984599605803
 20
-0.468050909361151
 10
10.87003849168111
 20
-0.4670433714088669
 10
10.8701026568888
 20
-0.4659075030411969
 10
10.87005687609455
 20
-0.465275583889017
 10
10.86987375291754
 20
-0.464432784700311
 10
10.86971802612133
 20
-0.4639656043117029
 10
10.86949813411743
 20
-0.46347102754228
 10
10.86922308887322
 20
-0.462976450772867
 10
10.86887522693262
 20
-0.4624818740034419
 10
10.8684448153709
 20
-0.4620056816474639
 10
10.86793185418804
 20
-0.461556885672296
 10
10.86732733141667
 20
-0.46114449804532
 10
10.86662187461072
 20
-0.460787263658661
 10
10.86580683228153
 20
-0.460485182512322
 10
10.86488148347169
 20
-0.4602559180623569
 10
10.86383717669253
 20
-0.4601095637122309
 10
10.86265552753061
 20
-0.4600544104719079
 10
10.85201203358462
 20
-0.4600544104719079
 10
10.85201203358462
 20
-0.4847951447398299
 97
        0
 92
        3
 72
     0
 73
     1
 93
       56
 10
10.87888680172643
 20
-0.4847951447398299
 10
10.89006164126871
 20
-0.4847951447398299
 10
10.89232400555798
 20
-0.484712595118695
 10
10.89335930036978
 20
-0.48459363714937
 10
10.89433006949516
 20
-0.4844285379071039
 10
10.8952276614455
 20
-0.4842090063819009
 10
10.89606144866683
 20
-0.483943333583747
 10
10.8968216982344
 20
-0.4836225075452779
 10
10.8975087706269
 20
-0.4832378767778059
 10
10.89812230536565
 20
-0.482798092770015
 10
10.89865365096195
 20
-0.4822945040332189
 10
10.89911145890449
 20
-0.4817263896100369
 10
10.89948707770458
 20
-0.481094470457854
 10
10.89978014688355
 20
-0.48039838609798
 10
10.89999102692008
 20
-0.4796291245630359
 10
10.90012836930284
 20
-0.4787953373417089
 10
10.90016477765102
 20
-0.477879360977931
 10
10.90013738127021
 20
-0.4772106729988719
 10
10.9000458196817
 20
-0.4765787538466859
 10
10.89989946533156
 20
-0.4760016274561379
 10
10.89969795774111
 20
-0.4754702818598339
 10
10.89945030887771
 20
-0.4749850775364829
 10
10.89915723969874
 20
-0.474545293528694
 10
10.89881838972552
 20
-0.4741512903151519
 10
10.89844277092542
 20
-0.4737940559284899
 10
10.89802137133107
 20
-0.4734735903687189
 10
10.89757257535591
 20
-0.4731989056031889
 10
10.89708737103256
 20
-0.4729606291858559
 10
10.89657440984969
 20
-0.4727591215953979
 10
10.89548432227628
 20
-0.4724566799703709
 10
10.89431168508172
 20
-0.4722919412067889
 10
10.89431168508172
 20
-0.4720262684086409
 10
10.8954475534494
 20
-0.4716874184354239
 10
10.89645509140168
 20
-0.4712660188410749
 10
10.89731627500382
 20
-0.470753057658212
 10
10.89803975574451
 20
-0.470130150473402
 10
10.89860787016769
 20
-0.4693976577653369
 10
10.89883677413896
 20
-0.4689946425844299
 10
10.89902926976204
 20
-0.46854548613057
 10
10.89928557011413
 20
-0.4675657050377919
 10
10.89936811973527
 20
-0.466438848637499
 10
10.89933135090839
 20
-0.465623806308302
 10
10.89921239293906
 20
-0.4648725687081059
 10
10.89901989731598
 20
-0.4641764843482269
 10
10.89875422451783
 20
-0.463535192749979
 10
10.89842474699068
 20
-0.4629580663594259
 10
10.89802137133107
 20
-0.4624360932091929
 10
10.89756356338853
 20
-0.4619689128205919
 10
10.8970415902383
 20
-0.461556885672296
 10
10.89646446384774
 20
-0.4611902788395709
 10
10.89583254469557
 20
-0.4608788252471669
 10
10.89515448427043
 20
-0.4606225248950869
 10
10.89443100352975
 20
-0.460421017304632
 10
10.89285535115429
 20
-0.4601459720604119
 10
10.89112433246131
 20
-0.4600544104719079
 10
10.87888680172643
 20
-0.4600544104719079
 97
        0
 92
        3
 72
     0
 73
     1
 93
       58
 10
10.9044241939101
 20
-0.4762856846677199
 10
10.9044883591178
 20
-0.4774857182430929
 10
10.90467148229482
 20
-0.478593829751251
 10
10.90497392391984
 20
-0.4796107401495989
 10
10.90537693910077
 20
-0.4805451009268069
 10
10.90587151587018
 20
-0.4813969120828879
 10
10.90644864226073
 20
-0.482157161650459
 10
10.90709894582636
 20
-0.4828348615968989
 10
10.90781341459967
 20
-0.483439384368259
 10
10.90859204858068
 20
-0.4839613575184989
 10
10.90941646335595
 20
-0.4844011415262899
 10
10.91026827451202
 20
-0.4847767603263929
 10
10.91115649401629
 20
-0.485078841472719
 10
10.91206345841269
 20
-0.4853081059226859
 10
10.91297943477647
 20
-0.4854728446862639
 10
10.91389541114024
 20
-0.4855644062747699
 10
10.91480237553664
 20
-0.4856011751016519
 10
10.91570897945434
 20
-0.4855644062747699
 10
10.91662495581811
 20
-0.4854728446862639
 10
10.91754093218188
 20
-0.4853081059226859
 10
10.91843852413222
 20
-0.485078841472719
 10
10.91932710411517
 20
-0.4847767603263929
 10
10.92018828771733
 20
-0.4844011415262899
 10
10.92101270249259
 20
-0.4839613575184989
 10
10.92178196402753
 20
-0.483439384368259
 10
10.92250544476822
 20
-0.4828348615968989
 10
10.92315610881254
 20
-0.482157161650459
 10
10.92373287472439
 20
-0.4813969120828879
 10
10.92422781197251
 20
-0.4805451009268069
 10
10.92463082715342
 20
-0.4796107401495989
 10
10.92493290829976
 20
-0.478593829751251
 10
10.92511603147678
 20
-0.4774857182430929
 10
10.92518019668447
 20
-0.4762856846677199
 10
10.92518019668447
 20
-0.4600544104719079
 10
10.91906143131703
 20
-0.4600544104719079
 10
10.91906143131703
 20
-0.4757543390714229
 10
10.9190066385554
 20
-0.476725468675515
 10
10.91884153931313
 20
-0.477623060625854
 10
10.91855784258023
 20
-0.4784381029550509
 10
10.91812707053981
 20
-0.479143559760998
 10
10.91755030462795
 20
-0.4797296981189169
 10
10.91720208220866
 20
-0.479967974536253
 10
10.9168174514412
 20
-0.480169482126712
 10
10.91637766743341
 20
-0.4803252089229129
 10
10.91590147507742
 20
-0.480444166892237
 10
10.91480237553664
 20
-0.4805451009268069
 10
10.91370291551715
 20
-0.480444166892237
 10
10.91322672316117
 20
-0.4803252089229129
 10
10.91278693915338
 20
-0.480169482126712
 10
10.91240230838591
 20
-0.479967974536253
 10
10.91205444644531
 20
-0.4797296981189169
 10
10.91147732005476
 20
-0.479143559760998
 10
10.91104690849304
 20
-0.4784381029550509
 10
10.91076285128144
 20
-0.477623060625854
 10
10.91059775203918
 20
-0.476725468675515
 10
10.91054295927755
 20
-0.4757543390714229
 10
10.91054295927755
 20
-0.4600544104719079
 10
10.9044241939101
 20
-0.4600544104719079
 97
        0
 92
        3
 72
     0
 73
     1
 93
      105
 10
10.935558378311
 20
-0.472557614004938
 10
10.93558577469181
 20
-0.4715500760526609
 10
10.93567733628031
 20
-0.4706157152754529
 10
10.93582405110914
 20
-0.469745519705935
 10
10.9360255586996
 20
-0.4689578737575459
 10
10.93627284708432
 20
-0.4682340325381629
 10
10.93657492823066
 20
-0.467583728972546
 10
10.93692315064994
 20
-0.4669975906146169
 10
10.93731679338479
 20
-0.4664756174643769
 10
10.93774756542521
 20
-0.466017449043145
 10
10.93821474581381
 20
-0.465632818275671
 10
10.9387183345506
 20
-0.465302980269825
 10
10.93925869211427
 20
-0.4650373074716769
 10
10.93982680653746
 20
-0.4648357998812189
 10
10.94042195686277
 20
-0.4646894455310899
 10
10.94103585208019
 20
-0.464606895909954
 10
10.94167714367844
 20
-0.464579499529136
 10
10.9424738015942
 20
-0.4646526767042099
 10
10.94325243557521
 20
-0.4648635567407359
 10
10.94399430072933
 20
-0.4651930342678799
 10
10.94469975753528
 20
-0.465641830243046
 10
10.94534104913352
 20
-0.466191560252788
 10
10.94589979111065
 20
-0.4668234794049749
 10
10.94636661102055
 20
-0.46752893621091
 10
10.94673321785328
 20
-0.4683075701919219
 10
10.95178028006076
 20
-0.4659075030411969
 10
10.95084591928354
 20
-0.4644879379406279
 10
10.94982900888519
 20
-0.4632237391575719
 10
10.94871152493097
 20
-0.462133651584157
 10
10.94811637460566
 20
-0.461657459228177
 10
10.94749346742085
 20
-0.461217675220388
 10
10.94684316385523
 20
-0.460833044452916
 10
10.9461651034301
 20
-0.460494194479695
 10
10.94545063465678
 20
-0.4602011253007329
 10
10.94470876950266
 20
-0.4599628488833949
 10
10.94393950796771
 20
-0.4597707137390099
 10
10.94313347760588
 20
-0.4596330108775489
 10
10.94229067841719
 20
-0.4595508217351069
 10
10.94141147088029
 20
-0.4595234253543
 10
10.9400009177471
 20
-0.4595966025293669
 10
10.93868156572372
 20
-0.459798110119822
 10
10.9374361118328
 20
-0.460136960093037
 10
10.93628185905169
 20
-0.4605857560682009
 10
10.93521015589172
 20
-0.461153870491387
 10
10.93423001432025
 20
-0.4618221979917559
 10
10.93333242236991
 20
-0.4625918200053889
 10
10.93252639200808
 20
-0.4634436311614699
 10
10.93181192323476
 20
-0.4643870039060599
 10
10.93118901604996
 20
-0.465394541858339
 10
10.93065767045366
 20
-0.4664756174643769
 10
10.93021824692457
 20
-0.467602113385983
 10
10.92987903647265
 20
-0.468792774515279
 10
10.92963174808794
 20
-0.47001119250408
 10
10.9294853937378
 20
-0.4712753912871369
 10
10.92943024049748
 20
-0.472557614004938
 10
10.9294853937378
 20
-0.473849209168811
 10
10.92964112053401
 20
-0.4751040355058059
 10
10.92990679333216
 20
-0.476331465461981
 10
10.93026402771882
 20
-0.4775131146239029
 10
10.93073120810742
 20
-0.4786489829915729
 10
10.93128995008455
 20
-0.4797296981189169
 10
10.93194025365017
 20
-0.4807372360711979
 10
10.93269113077166
 20
-0.4816715968484169
 10
10.93354294192774
 20
-0.48253241997186
 10
10.93447730270495
 20
-0.4832930300181299
 10
10.93550322507067
 20
-0.483970729964567
 10
10.9366207090249
 20
-0.4845294719416779
 10
10.93782074260027
 20
-0.484987279884217
 10
10.93911233776414
 20
-0.4853171178900629
 10
10.94048612207045
 20
-0.485527997926585
 10
10.9419424559979
 20
-0.4856011751016519
 10
10.94268468163072
 20
-0.4855737787208419
 10
10.94341717433878
 20
-0.4854912290997049
 10
10.94486449629886
 20
-0.4851613910938589
 10
10.94556058065874
 20
-0.4849234751552169
 10
10.94624765305124
 20
-0.484630045497555
 10
10.94691634103029
 20
-0.4842911955243399
 10
10.94755763262855
 20
-0.4838975527894979
 10
10.94878506258473
 20
-0.4829905883931019
 10
10.94991155850633
 20
-0.4818914888523119
 10
10.95091008449124
 20
-0.4806366625153199
 10
10.95136789243377
 20
-0.4799402176767489
 10
10.95178028006076
 20
-0.4792077249686839
 10
10.94699889065143
 20
-0.4768170302640279
 10
10.94654072223021
 20
-0.477650457006662
 10
10.94598198025309
 20
-0.478364925779982
 10
10.94535006110091
 20
-0.4789604365839779
 10
10.9446629887084
 20
-0.4794456409073239
 10
10.94395789238115
 20
-0.4798122477400499
 10
10.94325243557521
 20
-0.4800685480921349
 10
10.94257473562877
 20
-0.480224274888338
 10
10.9419424559979
 20
-0.480279428128662
 10
10.94103585208019
 20
-0.480224274888338
 10
10.94021143730493
 20
-0.4800869325055789
 10
10.9394695721508
 20
-0.4798580285343069
 10
10.93880989613911
 20
-0.4795555869092779
 10
10.93821474581381
 20
-0.47917996810918
 10
10.93770178463094
 20
-0.4787495565474529
 10
10.93724361620971
 20
-0.4782549797780299
 10
10.93684961299617
 20
-0.4777146222143599
 10
10.93652013546903
 20
-0.4771374958238029
 10
10.93624509022481
 20
-0.476523961085062
 10
10.93601618625354
 20
-0.4758826694868129
 10
10.93584207504389
 20
-0.4752229934751259
 10
10.93562254351869
 20
-0.4738856175170039
 97
        0
 92
        3
 72
     0
 73
     1
 93
       12
 10
10.95524267792539
 20
-0.4847951447398299
 10
10.96136144329283
 20
-0.4847951447398299
 10
10.96136144329283
 20
-0.4744263355593649
 10
10.97067693372676
 20
-0.4744263355593649
 10
10.97067693372676
 20
-0.4847951447398299
 10
10.9767953386155
 20
-0.4847951447398299
 10
10.9767953386155
 20
-0.4600544104719079
 10
10.97067693372676
 20
-0.4600544104719079
 10
10.97067693372676
 20
-0.4691042281076799
 10
10.96136144329283
 20
-0.4691042281076799
 10
10.96136144329283
 20
-0.4600544104719079
 10
10.95524267792539
 20
-0.4600544104719079
 97
        0
 92
        3
 72
     0
 73
     1
 93
        8
 10
10.99276094001318
 20
-0.4648451723272919
 10
10.99914537817877
 20
-0.4648451723272919
 10
10.99914537817877
 20
-0.4600544104719079
 10
10.97998305171462
 20
-0.4600544104719079
 10
10.97998305171462
 20
-0.4648451723272919
 10
10.98664217464573
 20
-0.4648451723272919
 10
10.98664217464573
 20
-0.4847951447398299
 10
10.99276094001318
 20
-0.4847951447398299
 97
        0
 92
        3
 72
     0
 73
     1
 93
        8
 10
10.99727665662434
 20
-0.4847951447398299
 10
11.00393577955546
 20
-0.4847951447398299
 10
11.0052641435462
 20
-0.4810760860444219
 10
11.01430458873592
 20
-0.4810760860444219
 10
11.01564196469404
 20
-0.4847951447398299
 10
11.02229207565779
 20
-0.4847951447398299
 10
11.01297658522387
 20
-0.4600544104719079
 10
11.00659214705827
 20
-0.4600544104719079
 97
        0
 92
        3
 72
     0
 73
     1
 93
        6
 10
11.0249484431606
 20
-0.4847951447398299
 10
11.04091368407958
 20
-0.4847951447398299
 10
11.04091368407958
 20
-0.479748082532363
 10
11.0313328813262
 20
-0.479748082532363
 10
11.0313328813262
 20
-0.4600544104719079
 10
11.0249484431606
 20
-0.4600544104719079
 97
        0
 92
       18
 72
     0
 73
     1
 93
        3
 10
10.77300015036155
 20
-0.463251135538394
 10
10.77752523941878
 20
-0.475488666273271
 10
10.76820974898485
 20
-0.475488666273271
 97
        0
 92
       18
 72
     0
 73
     1
 93
       29
 10
10.81796554180754
 20
-0.46245447762263
 10
10.81944026014842
 20
-0.4625276547976989
 10
10.82067670207197
 20
-0.462747546801591
 10
10.82120804766827
 20
-0.4629122855651689
 10
10.82168460050294
 20
-0.463113793155622
 10
10.82211501206467
 20
-0.4633430576055919
 10
10.82249063086477
 20
-0.4636177423711159
 10
10.82281109642454
 20
-0.4639198235174439
 10
10.82308578119006
 20
-0.464259033969367
 10
10.82331504564003
 20
-0.464625280323394
 10
10.82349816881705
 20
-0.4650282955043019
 10
10.82373608475569
 20
-0.4659352599007029
 10
10.82381863437682
 20
-0.4669701942337979
 10
10.82375446916913
 20
-0.4678677861841309
 10
10.82353457716523
 20
-0.468728969786278
 10
10.82336082643429
 20
-0.469140996934564
 10
10.82314093443039
 20
-0.4695440121154709
 10
10.82287526163224
 20
-0.4699196309155739
 10
10.82255479607246
 20
-0.4702678533348619
 10
10.82217917727237
 20
-0.470588318894633
 10
10.82173939326457
 20
-0.4708813880735979
 10
10.82123544404908
 20
-0.471137688425679
 10
10.82067670207197
 20
-0.471348568462203
 10
10.82004478291978
 20
-0.471522679671849
 10
10.81933968659254
 20
-0.4716506496085419
 10
10.81855168016546
 20
-0.4717331992296779
 10
10.81769986900938
 20
-0.471760595610496
 10
10.81024372768382
 20
-0.471760595610496
 10
10.81024372768382
 20
-0.46245447762263
 97
        0
 92
       18
 72
     0
 73
     1
 93
       64
 10
10.82996479612508
 20
-0.4716048688142869
 10
10.83006573015966
 20
-0.4706431116562629
 10
10.83022145695586
 20
-0.4696723425308589
 10
10.83044134895976
 20
-0.4687195973402069
 10
10.83073441813872
 20
-0.4677946090090619
 10
10.83109165252538
 20
-0.466887644612663
 10
10.83151269164104
 20
-0.4660268214892089
 10
10.83199825644308
 20
-0.4652114186813189
 10
10.8325569984202
 20
-0.464460541559825
 10
10.83318927805108
 20
-0.4637734691673189
 10
10.83388536241095
 20
-0.4631595739498839
 10
10.83465462394589
 20
-0.462646612767024
 10
10.83548805068853
 20
-0.462225573651365
 10
10.8364040270523
 20
-0.46191412005896
 10
10.83738380814507
 20
-0.4617216244358769
 10
10.83843712689161
 20
-0.4616484472608079
 10
10.83949981808421
 20
-0.4617216244358769
 10
10.84047995965568
 20
-0.46191412005896
 10
10.841377551606
 20
-0.462225573651365
 10
10.84220196638127
 20
-0.462646612767024
 10
10.8429438315354
 20
-0.4631595739498839
 10
10.84362189196053
 20
-0.4637734691673189
 10
10.8442264147319
 20
-0.464460541559825
 10
10.84475739984951
 20
-0.4652114186813189
 10
10.84522458023811
 20
-0.4660268214892089
 10
10.84561858345165
 20
-0.466887644612663
 10
10.84595743342487
 20
-0.4677946090090619
 10
10.84622310622303
 20
-0.4687195973402069
 10
10.84643362578085
 20
-0.4696723425308589
 10
10.8465713286423
 20
-0.4706431116562629
 10
10.84666289023081
 20
-0.4716048688142869
 10
10.84669028661163
 20
-0.472557614004938
 10
10.84666289023081
 20
-0.4735193711629689
 10
10.8465713286423
 20
-0.474481128320994
 10
10.84643362578085
 20
-0.4754428854790269
 10
10.84622310622303
 20
-0.4763956306696709
 10
10.84595743342487
 20
-0.4773299914468819
 10
10.84561858345165
 20
-0.478236595364589
 10
10.84522458023811
 20
-0.4790977789667369
 10
10.84475739984951
 20
-0.4799128212959379
 10
10.8442264147319
 20
-0.4806640588961339
 10
10.84362189196053
 20
-0.4813511312886329
 10
10.8429438315354
 20
-0.4819556540600019
 10
10.84220196638127
 20
-0.482477627210241
 10
10.841377551606
 20
-0.4828990268045889
 10
10.84047995965568
 20
-0.4832104803969939
 10
10.83949981808421
 20
-0.4834026155413849
 10
10.83843712689161
 20
-0.483466780749077
 10
10.83738380814507
 20
-0.4834026155413849
 10
10.8364040270523
 20
-0.4832104803969939
 10
10.83548805068853
 20
-0.4828990268045889
 10
10.83465462394589
 20
-0.482477627210241
 10
10.83388536241095
 20
-0.4819556540600019
 10
10.83318927805108
 20
-0.4813511312886329
 10
10.8325569984202
 20
-0.4806640588961339
 10
10.83199825644308
 20
-0.4799128212959379
 10
10.83151269164104
 20
-0.4790977789667369
 10
10.83109165252538
 20
-0.478236595364589
 10
10.83073441813872
 20
-0.4773299914468819
 10
10.83044134895976
 20
-0.4763956306696709
 10
10.83022145695586
 20
-0.4754428854790269
 10
10.83006573015966
 20
-0.474481128320994
 10
10.82996479612508
 20
-0.4735193711629689
 10
10.82993739974427
 20
-0.472557614004938
 97
        0
 92
       18
 72
     0
 73
     1
 93
       26
 10
10.86212454241299
 20
-0.46245447762263
 10
10.86343416151162
 20
-0.4624908859708189
 10
10.86456101791191
 20
-0.462628588832278
 10
10.86552277506994
 20
-0.462866504770914
 10
10.8659441746643
 20
-0.46304061598056
 10
10.86631042101832
 20
-0.463251135538394
 10
10.86664025902417
 20
-0.4634894119557299
 10
10.86692431623575
 20
-0.4637734691673189
 10
10.8671622321744
 20
-0.4641033071731619
 10
10.86735472779748
 20
-0.4644695535271909
 10
10.86751045459368
 20
-0.4648909531215389
 10
10.86762040059564
 20
-0.465348761064082
 10
10.86771196218415
 20
-0.466438848637499
 10
10.86761102814956
 20
-0.4673915938281509
 10
10.86749207018025
 20
-0.467822005389876
 10
10.8673179589706
 20
-0.468225020570784
 10
10.86710743941277
 20
-0.4686096513382579
 10
10.86685077858199
 20
-0.4689578737575459
 10
10.86620984746244
 20
-0.469571408496294
 10
10.86541282906798
 20
-0.470056973298338
 10
10.86494564867938
 20
-0.4702494689214219
 10
10.86445107190995
 20
-0.470405195717621
 10
10.86335197236917
 20
-0.4706247272428259
 10
10.86212454241299
 20
-0.4706982648965859
 10
10.85440272828927
 20
-0.4706982648965859
 10
10.85440272828927
 20
-0.46245447762263
 97
        0
 92
       18
 72
     0
 73
     1
 93
       28
 10
10.86212454241299
 20
-0.4728232868030969
 10
10.86361764516733
 20
-0.472923860358976
 10
10.86491825229857
 20
-0.473207917570566
 10
10.86548600624305
 20
-0.4734187976070899
 10
10.86600833987199
 20
-0.4736660859917989
 10
10.86648453222797
 20
-0.4739591551707599
 10
10.86690593182231
 20
-0.4742886326979109
 10
10.86728155062241
 20
-0.4746552395306389
 10
10.86761102814956
 20
-0.4750582547115519
 10
10.86788607339378
 20
-0.4754980387193479
 10
10.86810560491898
 20
-0.475965219107947
 10
10.86827971612863
 20
-0.4764688078447429
 10
10.86840804654402
 20
-0.4770001534410399
 10
10.86850862009989
 20
-0.4781450337760869
 10
10.86842643095746
 20
-0.4789510641379109
 10
10.86819752698619
 20
-0.479748082532363
 10
10.86779415132657
 20
-0.480517344067306
 10
10.86720801296865
 20
-0.4812044164598039
 10
10.86685077858199
 20
-0.4815158700522109
 10
10.86643875143371
 20
-0.4817999272638009
 10
10.86598058301248
 20
-0.4820472156485139
 10
10.86547699427569
 20
-0.4822671076524069
 10
10.86491825229857
 20
-0.4824318464159819
 10
10.86430435708114
 20
-0.4825601768313679
 10
10.86363566910207
 20
-0.4826423659738059
 10
10.86292120032875
 20
-0.4826701228333219
 10
10.85440272828927
 20
-0.4826701228333219
 10
10.85440272828927
 20
-0.4728232868030969
 97
        0
 92
       18
 72
     0
 73
     1
 93
       19
 10
10.89006164126871
 20
-0.4648451723272919
 10
10.89073032924777
 20
-0.4648725687081059
 10
10.89134422446521
 20
-0.4649551183292389
 10
10.89188458202888
 20
-0.4651108451254419
 10
10.89235176241749
 20
-0.4653397490967069
 10
10.89272738121759
 20
-0.4656602146564869
 10
10.89301107795049
 20
-0.4660816142508409
 10
10.89318518916013
 20
-0.4666039478797719
 10
10.89324935436782
 20
-0.4672358670319499
 10
10.89318518916013
 20
-0.4678861705975679
 10
10.89301107795049
 20
-0.468444912574687
 10
10.89272738121759
 20
-0.4689027205172259
 10
10.89235176241749
 20
-0.469269327349953
 10
10.89188458202888
 20
-0.4695533845615389
 10
10.89134422446521
 20
-0.469745519705935
 10
10.89073032924777
 20
-0.469864477675253
 10
10.89006164126871
 20
-0.4699012465021329
 10
10.88473989429573
 20
-0.4699012465021329
 10
10.88473989429573
 20
-0.4648451723272919
 97
        0
 92
       18
 72
     0
 73
     1
 93
       19
 10
10.89112433246131
 20
-0.4744263355593649
 10
10.89185718564807
 20
-0.474472116353621
 10
10.89247973235417
 20
-0.474618470703759
 10
10.89298368156967
 20
-0.4748567471210919
 10
10.89338669675058
 20
-0.475186585126932
 10
10.89367976592954
 20
-0.4756079847212909
 10
10.89389064596607
 20
-0.476102561490708
 10
10.89400960393538
 20
-0.4766886998486399
 10
10.89404637276227
 20
-0.477348015381636
 10
10.89400960393538
 20
-0.4779345142182519
 10
10.89387226155263
 20
-0.478483883749304
 10
10.89362497316792
 20
-0.4789784605187229
 10
10.89324935436782
 20
-0.479409232559143
 10
10.89272738121759
 20
-0.4797754789131739
 10
10.89203093637902
 20
-0.4800411517113259
 10
10.89114271687475
 20
-0.4802152629209649
 10
10.89006164126871
 20
-0.480279428128662
 10
10.88500556709387
 20
-0.480279428128662
 10
10.88500556709387
 20
-0.4744263355593649
 97
        0
 92
       18
 72
     0
 73
     1
 93
        3
 10
11.00978887212475
 20
-0.4661731758393469
 10
11.01271091242571
 20
-0.476551357465876
 10
11.00659214705827
 20
-0.476551357465876
 97
        0
 75
     0
 76
     1
 98
        0
  0
HATCH
  5
84
102
{ACAD_REACTORS
330
83
102
}
330
1F
100
AcDbEntity
  8
XR$1$TB_810_1
  6
AUSGEZOGEN
 62
     3
440
 33554687
370
    35
100
AcDbHatch
 10
0.0
 20
0.0
 30
0.0
210
0.0
220
0.0
230
1.0
  2
SOLID
 70
     1
 71
     0
 91
        1
 92
        3
 72
     0
 73
     1
 93
       22
 10
10.7330911935691
 20
-0.4850698295053529
 10
10.74825977657232
 20
-0.4850698295053529
 10
10.74697755385451
 20
-0.4842270303166439
 10
10.7457317394849
 20
-0.4833110539528749
 10
10.74453170590953
 20
-0.482303516000596
 10
10.74339583754185
 20
-0.4812044164598039
 10
10.74234251879533
 20
-0.4800137553305099
 10
10.74137174966993
 20
-0.4787037757531979
 10
10.74050155410042
 20
-0.4772842106526329
 10
10.73974130453284
 20
-0.4757543390714229
 10
10.73927412414424
 20
-0.4747558130865219
 10
10.73887110896332
 20
-0.4737482751342429
 10
10.73852288654403
 20
-0.472740737181957
 10
10.73822981736508
 20
-0.4717331992296779
 10
10.73782680218416
 20
-0.4697087508790529
 10
10.73764367900714
 20
-0.467703047420556
 10
10.73768008735533
 20
-0.465724379864181
 10
10.7379093518053
 20
-0.463782481134685
 10
10.73833075139965
 20
-0.4618863631994499
 10
10.73861444813255
 20
-0.460961374868302
 10
10.73894428613839
 20
-0.4600544104719079
 10
10.7330911935691
 20
-0.4600544104719079
 97
        0
 75
     0
 76
     1
 98
        0
  0
HATCH
  5
85
102
{ACAD_REACTORS
330
83
102
}
330
1F
100
AcDbEntity
  8
XR$1$TB_810_1
  6
AUSGEZOGEN
 62
     3
440
 33554687
370
    35
100
AcDbHatch
 10
0.0
 20
0.0
 30
0.0
210
0.0
220
0.0
230
1.0
  2
SOLID
 70
     1
 71
     0
 91
        1
 92
        3
 72
     0
 73
     1
 93
       24
 10
10.74565856230982
 20
-0.4813511312886329
 10
10.74686760785256
 20
-0.4824686152428619
 10
10.74819561136462
 20
-0.4834761531951439
 10
10.74963356087863
 20
-0.484336976318591
 10
10.75118181687328
 20
-0.4850698295053529
 10
10.75809724015649
 20
-0.4850698295053529
 10
10.75809724015649
 20
-0.4600544104719079
 10
10.74453170590953
 20
-0.4600544104719079
 10
10.74397296393242
 20
-0.4606957020701549
 10
10.74349677157644
 20
-0.4614191828108449
 10
10.74267235680118
 20
-0.4629858232189309
 10
10.74229673800108
 20
-0.463782481134685
 10
10.74196689999523
 20
-0.4645978839425839
 10
10.74169221522971
 20
-0.4654129262717789
 10
10.74146331125844
 20
-0.4662373410470389
 10
10.74114248521996
 20
-0.4678861705975679
 10
10.7410051428372
 20
-0.4695350001481
 10
10.74104191166409
 20
-0.4711838296986369
 10
10.74124341925454
 20
-0.4727958904222779
 10
10.74160966560857
 20
-0.4743805547651149
 10
10.7421319992375
 20
-0.475919077834998
 10
10.74280969918394
 20
-0.477393796175889
 10
10.74362510199183
 20
-0.4788047097877769
 10
10.74457748670378
 20
-0.480123701332459
 97
        0
 75
     0
 76
     1
 98
        0
  0
HATCH
  5
86
330
1F
100
AcDbEntity
  8
XR$1$TB_810_1
  6
AUSGEZOGEN
 62
    18
420
        0
440
 33554687
370
    -3
100
AcDbHatch
 10
0.0
 20
0.0
 30
0.0
210
0.0
220
0.0
230
1.0
  2
SOLID
 70
     1
 71
     0
 91
        1
 92
        3
 72
     0
 73
     1
 93
       14
 10
11.15125343380002
 20
-0.0957408651876316
 10
11.15125343380002
 20
-0.0597408651876315
 10
11.14825343380002
 20
-0.0597408651876315
 10
11.14825343380002
 20
-0.0827408651876316
 10
11.12125343380002
 20
-0.0827408651876316
 10
11.12125343380002
 20
-0.0857408651876316
 10
11.12425343380002
 20
-0.0877408651876316
 10
11.12425343380002
 20
-0.0857408651876316
 10
11.14825343380002
 20
-0.0857408651876316
 10
11.14825343380002
 20
-0.0927408651876316
 10
11.12425343380002
 20
-0.0927408651876316
 10
11.12425343380002
 20
-0.0907408651876316
 10
11.12125343380002
 20
-0.0927408651876316
 10
11.12125343380002
 20
-0.0957408651876316
 97
        0
 75
     0
 76
     1
 98
        0
  0
HATCH
  5
87
330
1F
100
AcDbEntity
  8
XR$1$TB_810_1
  6
AUSGEZOGEN
 62
    18
420
        0
440
 33554687
370
    -3
100
AcDbHatch
 10
0.0
 20
0.0
 30
0.0
210
0.0
220
0.0
230
1.0
  2
SOLID
 70
     1
 71
     0
 91
        1
 92
        3
 72
     0
 73
     1
 93
        4
 10
10.91860343380002
 20
-0.0877408651876316
 10
10.91860343380002
 20
-0.0907408651876316
 10
10.92360343380002
 20
-0.0907408651876316
 10
10.92360343380002
 20
-0.0877408651876316
 97
        0
 75
     0
 76
     1
 98
        0
  0
HATCH
  5
88
330
1F
100
AcDbEntity
  8
XR$1$TB_810_1
  6
AUSGEZOGEN
 62
    18
420
        0
440
 33554687
370
    -3
100
AcDbHatch
 10
0.0
 20
0.0
 30
0.0
210
0.0
220
0.0
230
1.0
  2
SOLID
 70
     1
 71
     0
 91
        1
 92
        3
 72
     0
 73
     1
 93
        4
 10
10.92860343380002
 20
-0.0877408651876316
 10
10.92860343380002
 20
-0.0907408651876316
 10
10.93360343380002
 20
-0.0907408651876316
 10
10.93360343380002
 20
-0.0877408651876316
 97
        0
 75
     0
 76
     1
 98
        0
  0
HATCH
  5
89
330
1F
100
AcDbEntity
  8
XR$1$TB_810_1
  6
AUSGEZOGEN
 62
    18
420
        0
440
 33554687
370
    -3
100
AcDbHatch
 10
0.0
 20
0.0
 30
0.0
210
0.0
220
0.0
230
1.0
  2
SOLID
 70
     1
 71
     0
 91
        1
 92
        3
 72
     0
 73
     1
 93
        4
 10
10.93860343380002
 20
-0.0877408651876316
 10
10.93860343380002
 20
-0.0907408651876316
 10
10.94360343380002
 20
-0.0907408651876316
 10
10.94360343380002
 20
-0.0877408651876316
 97
        0
 75
     0
 76
     1
 98
        0
  0
HATCH
  5
8A
330
1F
100
AcDbEntity
  8
XR$1$TB_810_1
  6
AUSGEZOGEN
 62
    18
420
        0
440
 33554687
370
    -3
100
AcDbHatch
 10
0.0
 20
0.0
 30
0.0
210
0.0
220
0.0
230
1.0
  2
SOLID
 70
     1
 71
     0
 91
        1
 92
        3
 72
     0
 73
     1
 93
        4
 10
10.90860343380002
 20
-0.0877408651876316
 10
10.90860343380002
 20
-0.0907408651876316
 10
10.91360343380002
 20
-0.0907408651876316
 10
10.91360343380002
 20
-0.0877408651876316
 97
        0
 75
     0
 76
     1
 98
        0
  0
HATCH
  5
8B
330
1F
100
AcDbEntity
  8
XR$1$TB_810_1
  6
AUSGEZOGEN
 62
    18
420
        0
440
 33554687
370
    -3
100
AcDbHatch
 10
0.0
 20
0.0
 30
0.0
210
0.0
220
0.0
230
1.0
  2
SOLID
 70
     1
 71
     0
 91
        1
 92
        3
 72
     0
 73
     1
 93
        4
 10
10.89860343380002
 20
-0.0877408651876316
 10
10.89860343380002
 20
-0.0907408651876316
 10
10.90360343380002
 20
-0.0907408651876316
 10
10.90360343380002
 20
-0.0877408651876316
 97
        0
 75
     0
 76
     1
 98
        0
  0
HATCH
  5
8C
330
1F
100
AcDbEntity
  8
XR$1$TB_810_1
  6
AUSGEZOGEN
 62
     9
440
 33554687
370
    -3
100
AcDbHatch
 10
0.0
 20
0.0
 30
0.0
210
0.0
220
0.0
230
1.0
  2
SOLID
 70
     1
 71
     0
 91
        1
 92
        3
 72
     0
 73
     1
 93
        4
 10
10.86725343380004
 20
0.5172738475373979
 10
10.86725343380004
 20
-0.0464877579835405
 10
10.88725343379997
 20
-0.0464877579835405
 10
10.88725343379997
 20
0.5172738475373979
 97
        0
 75
     0
 76
     1
 98
        0
  0
HATCH
  5
8D
330
1F
100
AcDbEntity
  8
XR$1$TB_810_1
  6
AUSGEZOGEN
 62
    18
420
        0
440
 33554687
370
    -3
100
AcDbHatch
 10
0.0
 20
0.0
 30
0.0
210
0.0
220
0.0
230
1.0
  2
SOLID
 70
     1
 71
     0
 91
        2
 92
        3
 72
     0
 73
     1
 93
       18
 10
10.89670505822019
 20
-0.0498198647647272
 10
10.89599795143901
 20
-0.0491127579835405
 10
10.89670505822019
 20
-0.0484056512023547
 10
10.89599795143901
 20
-0.0476985444211681
 10
10.89599795143901
 20
-0.0382377579835404
 10
10.92399795143901
 20
-0.0382377579835404
 10
10.92399795143901
 20
0.0162622420164596
 10
10.89599795143901
 20
0.0162622420164596
 10
10.89599795143901
 20
0.0257230284540863
 10
10.89670505822019
 20
0.026430135235273
 10
10.89599795143901
 20
0.0271372420164596
 10
10.89670505822019
 20
0.0278443487976454
 10
10.89599795143901
 20
0.0285514555788321
 10
10.89599795143901
 20
0.0380122420164596
 10
10.893997951439
 20
0.0380122420164596
 10
10.893997951439
 20
-0.0599877579835405
 10
10.89599795143901
 20
-0.0599877579835405
 10
10.89599795143901
 20
-0.0505269715459138
 97
        0
 92
       18
 72
     0
 73
     1
 93
        4
 10
10.89599795143901
 20
0.0142622420164596
 10
10.92149795143901
 20
0.0142622420164596
 10
10.92149795143901
 20
-0.0362377579835404
 10
10.89599795143901
 20
-0.0362377579835404
 97
        0
 75
     0
 76
     1
 98
        0
  0
HATCH
  5
8E
330
1F
100
AcDbEntity
  8
XR$1$TB_810_1
  6
AUSGEZOGEN
 62
    18
420
        0
440
 33554687
370
    -3
100
AcDbHatch
 10
0.0
 20
0.0
 30
0.0
210
0.0
220
0.0
230
1.0
  2
SOLID
 70
     1
 71
     0
 91
        1
 92
        3
 72
     0
 73
     1
 93
       17
 10
10.89360343380002
 20
-0.0907408651876316
 10
10.89360343380002
 20
-0.0877408651876316
 10
10.87073343380002
 20
-0.0877408651876316
 10
10.86973343380002
 20
-0.0867408651876316
 10
10.86973343380002
 20
-0.0647408651876315
 10
10.87073343380002
 20
-0.0637408651876315
 10
10.91806701918983
 20
-0.0637408651876315
 10
10.91806701918983
 20
-0.0607408651876315
 10
10.86973343380002
 20
-0.0607408651876315
 10
10.86823343380002
 20
-0.0611427889762782
 10
10.86713535758867
 20
-0.0622408651876315
 10
10.86673343380002
 20
-0.0637408651876315
 10
10.86673343380002
 20
-0.0872408651876316
 10
10.86699985543623
 20
-0.0885802572009095
 10
10.86775856006587
 20
-0.0897157389217846
 10
10.86889404178674
 20
-0.0904744435514212
 10
10.87023343380002
 20
-0.0907408651876316
 97
        0
 75
     0
 76
     1
 98
        0
  0
HATCH
  5
8F
330
1F
100
AcDbEntity
  8
XR$1$TB_810_1
  6
AUSGEZOGEN
 62
    18
420
        0
440
 33554687
370
    -3
100
AcDbHatch
 10
0.0
 20
0.0
 30
0.0
210
0.0
220
0.0
230
1.0
  2
SOLID
 70
     1
 71
     0
 91
        1
 92
        3
 72
     0
 73
     1
 93
        4
 10
10.94860343380002
 20
-0.0877408651876316
 10
10.94860343380002
 20
-0.0907408651876316
 10
10.95360343380002
 20
-0.0907408651876316
 10
10.95360343380002
 20
-0.0877408651876316
 97
        0
 75
     0
 76
     1
 98
        0
  0
HATCH
  5
90
330
1F
100
AcDbEntity
  8
XR$1$TB_810_1
  6
AUSGEZOGEN
 62
    18
420
        0
440
 33554687
370
    -3
100
AcDbHatch
 10
0.0
 20
0.0
 30
0.0
210
0.0
220
0.0
230
1.0
  2
SOLID
 70
     1
 71
     0
 91
        1
 92
        3
 72
     0
 73
     1
 93
        4
 10
10.95860343380002
 20
-0.0877408651876316
 10
10.95860343380002
 20
-0.0907408651876316
 10
11.14425343380002
 20
-0.0907408651876316
 10
11.14425343380002
 20
-0.0877408651876316
 97
        0
 75
     0
 76
     1
 98
        0
  0
HATCH
  5
91
330
1F
100
AcDbEntity
  8
XR$1$TB_810_1
  6
AUSGEZOGEN
 62
    18
420
        0
440
 33554687
370
    -3
100
AcDbHatch
 10
0.0
 20
0.0
 30
0.0
210
0.0
220
0.0
230
1.0
  2
SOLID
 70
     1
 71
     0
 91
        1
 92
        3
 72
     0
 73
     1
 93
        6
 10
11.04725343380002
 20
-0.0277408651876316
 10
11.04525343380002
 20
-0.0277408651876316
 10
11.04525343380002
 20
-0.0857408651876316
 10
11.02725343380002
 20
-0.0857408651876316
 10
11.02725343380002
 20
-0.0877408651876316
 10
11.04725343380002
 20
-0.0877408651876316
 97
        0
 75
     0
 76
     1
 98
        0
  0
MTEXT
  5
92
330
1F
100
AcDbEntity
  8
XR$1$TB_810_1
  6
AUSGEZOGEN
 62
     7
440
 33554687
370
    -3
100
AcDbMText
 10
10.637811
 20
0.797913
 30
0.0
 40
0.025
 41
0.292519
 46
0.0
 71
     7
 72
     5
  1
\W1.00;FENSTERSTURZ
  7
ARIAL
 73
     1
 44
1.0
  0
MTEXT
  5
93
330
1F
100
AcDbEntity
  8
XR$1$TB_810_1
  6
AUSGEZOGEN
 62
     7
440
 33554687
370
    -3
100
AcDbMText
 10
10.637811
 20
0.762902
 30
0.0
 40
0.0175
 41
0.205921
 46
0.0
 71
     7
 72
     5
  1
\W1.00;WINDOW LINTEL
  7
ARIAL
 73
     1
 44
1.0
  0
MTEXT
  5
94
330
1F
100
AcDbEntity
  8
XR$1$TB_810_1
  6
AUSGEZOGEN
 62
     7
440
 33554687
370
    -3
100
AcDbMText
 10
10.637811
 20
0.736652
 30
0.0
 40
0.0175
 41
0.310933
 46
0.0
 71
     7
 72
     5
  1
\W1.00;LINTEAU DE LA FENETRE
  7
ARIAL
 73
     1
 44
1.0
  0
MTEXT
  5
95
330
1F
100
AcDbEntity
  8
XR$1$TB_810_1
  6
AUSGEZOGEN
 62
     7
440
 33554687
370
    -3
100
AcDbMText
 10
10.637453
 20
-0.541056
 30
0.0
 40
0.009
 41
0.89646
 46
0.0
 71
     7
 72
     5
  1
\W0.85;THESE ARE NOT BINDING CONSTRUCTION PROPOSALS WHICH HAVE TO BE VERIFIED FOR EACH INDIVIDUAL PROJECT AS REGARDS APPLICABILITY AND CORRECTNESS.
  7
ARIAL
 73
     1
 44
1.0
  0
MTEXT
  5
96
330
1F
100
AcDbEntity
  8
XR$1$TB_810_1
  6
AUSGEZOGEN
 62
     7
440
 33554687
370
    -3
100
AcDbMText
 10
10.637453
 20
-0.523056
 30
0.0
 40
0.009
 41
0.8975
 46
0.0
 71
     7
 72
     5
  1
\W0.91;DIES SIND UNVERBINDLICHE KONSTRUKTIONSVORSCHLÄGE, DIE FÜR JEDES PROJEKT AUF ANWENDBARKEIT UND RICHTIGKEIT GEPRÜFT WERDEN MÜSSEN.
  7
ARIAL
 73
     1
 44
1.0
  0
MTEXT
  5
97
330
1F
100
AcDbEntity
  8
XR$1$TB_810_1
  6
AUSGEZOGEN
 62
     7
440
 33554687
370
    -3
100
AcDbMText
 10
11.052114
 20
-0.485127
 30
0.0
 40
0.009
 41
0.348436
 46
0.0
 71
     7
 72
     5
  1
\W0.92;Tel. 09435 / 391 3238   e-mail: as.fassade@deutsche-steinzeug.de
  7
ARIAL
 73
     1
 44
1.0
  0
MTEXT
  5
98
330
1F
100
AcDbEntity
  8
XR$1$TB_810_1
  6
AUSGEZOGEN
 62
     7
440
 33554687
370
    -3
100
AcDbMText
 10
11.051663
 20
-0.468885
 30
0.0
 40
0.009
 41
0.418059
 46
0.0
 71
     7
 72
     5
  1
\W1.00;AGROB BUCHTAL GmbH   Architektenservice   D - 92521 Schwarzenfeld
  7
ARIAL
 73
     1
 44
1.0
  0
LINE
  5
99
330
1F
100
AcDbEntity
  8
XR$1$TB_810_1
  6
AUSGEZOGEN
 62
     1
440
 33554687
370
    70
100
AcDbLine
 10
10.519645
 20
-0.608434
 30
0.0
 11
10.519645
 21
0.876566
 31
0.0
  0
LINE
  5
9A
330
1F
100
AcDbEntity
  8
XR$1$TB_810_1
  6
AUSGEZOGEN
 62
    35
440
 33554687
370
    70
100
AcDbLine
 10
11.569645
 20
0.876566
 30
0.0
 11
10.519645
 21
0.876566
 31
0.0
  0
LINE
  5
9B
330
1F
100
AcDbEntity
  8
XR$1$TB_810_1
  6
AUSGEZOGEN
 62
    35
440
 33554687
370
    70
100
AcDbLine
 10
11.569645
 20
-0.608434
 30
0.0
 11
11.569645
 21
0.876566
 31
0.0
  0
LINE
  5
9C
330
1F
100
AcDbEntity
  8
XR$1$TB_810_1
  6
AUSGEZOGEN
 62
    35
440
 33554687
370
    70
100
AcDbLine
 10
10.519645
 20
-0.608434
 30
0.0
 11
11.569645
 21
-0.608434
 31
0.0
  0
MTEXT
  5
9D
330
1F
100
AcDbEntity
  8
XR$1$TB_810_1
  6
AUSGEZOGEN
 62
     7
440
 33554687
370
    -3
100
AcDbMText
 10
10.637453
 20
-0.559056
 30
0.0
 40
0.009
 41
0.895804
 46
0.0
 71
     7
 72
     5
  1
\W0.80;IL S' AGIT DE PROPOSITIONS DE CONSTRUCTION SANS ENGAGEMENT DE NOTRE PART QUI DOIVENT ETRE VERIFIEES POUR CHAQUE PROJET A LEUR EXACTITUDE ET FAISABILITE.
  7
ARIAL
 73
     1
 44
1.0
  0
LINE
  5
9E
330
1F
100
AcDbEntity
  8
XR$1$TB_810_1
  6
AUSGEZOGEN
 62
     7
440
 33554687
370
    -3
100
AcDbLine
 10
11.151253
 20
-0.095741
 30
0.0
 11
11.121253
 21
-0.095741
 31
0.0
  0
LINE
  5
9F
330
1F
100
AcDbEntity
  8
XR$1$TB_810_1
  6
AUSGEZOGEN
 62
     7
440
 33554687
370
    -3
100
AcDbLine
 10
11.121253
 20
-0.095741
 30
0.0
 11
11.121253
 21
-0.092741
 31
0.0
  0
LINE
  5
A0
330
1F
100
AcDbEntity
  8
XR$1$TB_810_1
  6
AUSGEZOGEN
 62
     7
440
 33554687
370
    -3
100
AcDbLine
 10
11.124253
 20
-0.090741
 30
0.0
 11
11.121253
 21
-0.092741
 31
0.0
  0
LINE
  5
A1
330
1F
100
AcDbEntity
  8
XR$1$TB_810_1
  6
AUSGEZOGEN
 62
     7
440
 33554687
370
    -3
100
AcDbLine
 10
11.124253
 20
-0.092741
 30
0.0
 11
11.124253
 21
-0.090741
 31
0.0
  0
LINE
  5
A2
330
1F
100
AcDbEntity
  8
XR$1$TB_810_1
  6
AUSGEZOGEN
 62
     7
440
 33554687
370
    -3
100
AcDbLine
 10
11.148253
 20
-0.092741
 30
0.0
 11
11.124253
 21
-0.092741
 31
0.0
  0
LINE
  5
A3
330
1F
100
AcDbEntity
  8
XR$1$TB_810_1
  6
AUSGEZOGEN
 62
     7
440
 33554687
370
    -3
100
AcDbLine
 10
11.148253
 20
-0.082741
 30
0.0
 11
11.121253
 21
-0.082741
 31
0.0
  0
LINE
  5
A4
330
1F
100
AcDbEntity
  8
XR$1$TB_810_1
  6
AUSGEZOGEN
 62
     7
440
 33554687
370
    -3
100
AcDbLine
 10
11.121253
 20
-0.085741
 30
0.0
 11
11.121253
 21
-0.082741
 31
0.0
  0
LINE
  5
A5
330
1F
100
AcDbEntity
  8
XR$1$TB_810_1
  6
AUSGEZOGEN
 62
     7
440
 33554687
370
    -3
100
AcDbLine
 10
11.124253
 20
-0.087741
 30
0.0
 11
11.121253
 21
-0.085741
 31
0.0
  0
LINE
  5
A6
330
1F
100
AcDbEntity
  8
XR$1$TB_810_1
  6
AUSGEZOGEN
 62
     7
440
 33554687
370
    -3
100
AcDbLine
 10
11.124253
 20
-0.085741
 30
0.0
 11
11.124253
 21
-0.087741
 31
0.0
  0
LINE
  5
A7
330
1F
100
AcDbEntity
  8
XR$1$TB_810_1
  6
AUSGEZOGEN
 62
     7
440
 33554687
370
    -3
100
AcDbLine
 10
11.148253
 20
-0.085741
 30
0.0
 11
11.124253
 21
-0.085741
 31
0.0
  0
LINE
  5
A8
330
1F
100
AcDbEntity
  8
XR$1$TB_810_1
  6
AUSGEZOGEN
 62
     7
440
 33554687
370
    -3
100
AcDbLine
 10
11.148253
 20
-0.092741
 30
0.0
 11
11.148253
 21
-0.085741
 31
0.0
  0
LINE
  5
A9
330
1F
100
AcDbEntity
  8
XR$1$TB_810_1
  6
AUSGEZOGEN
 62
    32
440
 33554687
370
    50
100
AcDbLine
 10
11.347253
 20
-0.047741
 30
0.0
 11
11.347253
 21
0.147757
 31
0.0
  0
LINE
  5
AA
330
1F
100
AcDbEntity
  8
XR$1$TB_810_1
  6
AUSGEZOGEN
 62
     7
440
 33554687
370
    -3
100
AcDbLine
 10
11.347253
 20
-0.309741
 30
0.0
 11
11.347253
 21
-0.047741
 31
0.0
  0
LINE
  5
AB
330
1F
100
AcDbEntity
  8
XR$1$TB_810_1
  6
AUSGEZOGEN
 62
    32
440
 33554687
370
    50
100
AcDbLine
 10
11.347253
 20
-0.047741
 30
0.0
 11
11.047253
 21
-0.047741
 31
0.0
  0
LINE
  5
AC
330
1F
100
AcDbEntity
  8
XR$1$TB_810_1
  6
AUSGEZOGEN
 62
     7
440
 33554687
370
    -3
100
AcDbLine
 10
11.151253
 20
-0.309741
 30
0.0
 11
11.151253
 21
-0.132741
 31
0.0
  0
LINE
  5
AD
330
1F
100
AcDbEntity
  8
XR$1$TB_810_1
  6
AUSGEZOGEN
 62
     3
440
 33554687
370
    25
100
AcDbLine
 10
11.151253
 20
-0.132741
 30
0.0
 11
11.151253
 21
-0.047741
 31
0.0
  0
LINE
  5
AE
330
1F
100
AcDbEntity
  8
XR$1$TB_810_1
  6
AUSGEZOGEN
 62
     7
440
 33554687
370
    -3
100
AcDbLine
 10
11.151253
 20
-0.059741
 30
0.0
 11
11.148253
 21
-0.059741
 31
0.0
  0
LINE
  5
AF
330
1F
100
AcDbEntity
  8
XR$1$TB_810_1
  6
AUSGEZOGEN
 62
     7
440
 33554687
370
    -3
100
AcDbLine
 10
11.148253
 20
-0.082741
 30
0.0
 11
11.148253
 21
-0.059741
 31
0.0
  0
LINE
  5
B0
330
1F
100
AcDbEntity
  8
XR$1$TB_810_1
  6
AUSGEZOGEN
 62
     7
440
 33554687
370
    -3
100
AcDbLine
 10
11.156253
 20
-0.070741
 30
0.0
 11
11.143253
 21
-0.070741
 31
0.0
  0
LINE
  5
B1
330
1F
100
AcDbEntity
  8
XR$1$TB_810_1
  6
AUSGEZOGEN
 62
     7
440
 33554687
370
    -3
100
AcDbLine
 10
11.144253
 20
-0.090741
 30
0.0
 11
11.144253
 21
-0.087741
 31
0.0
  0
LINE
  5
B2
330
1F
100
AcDbEntity
  8
XR$1$TB_810_1
  6
AUSGEZOGEN
 62
    32
440
 33554687
370
    50
100
AcDbLine
 10
11.347253
 20
0.327757
 30
0.0
 11
11.347253
 21
0.517274
 31
0.0
  0
LINE
  5
B3
330
1F
100
AcDbEntity
  8
XR$1$TB_810_1
  6
AUSGEZOGEN
 62
    52
440
 33554687
370
    13
100
AcDbLine
 10
11.057253
 20
-0.047741
 30
0.0
 11
11.067253
 21
-0.087741
 31
0.0
  0
LINE
  5
B4
330
1F
100
AcDbEntity
  8
XR$1$TB_810_1
  6
AUSGEZOGEN
 62
    52
440
 33554687
370
    13
100
AcDbLine
 10
11.067253
 20
-0.087741
 30
0.0
 11
11.077253
 21
-0.047741
 31
0.0
  0
LINE
  5
B5
330
1F
100
AcDbEntity
  8
XR$1$TB_810_1
  6
AUSGEZOGEN
 62
    52
440
 33554687
370
    13
100
AcDbLine
 10
11.077253
 20
-0.047741
 30
0.0
 11
11.087253
 21
-0.087741
 31
0.0
  0
LINE
  5
B6
330
1F
100
AcDbEntity
  8
XR$1$TB_810_1
  6
AUSGEZOGEN
 62
    52
440
 33554687
370
    13
100
AcDbLine
 10
11.087993
 20
-0.087741
 30
0.0
 11
11.097993
 21
-0.047741
 31
0.0
  0
LINE
  5
B7
330
1F
100
AcDbEntity
  8
XR$1$TB_810_1
  6
AUSGEZOGEN
 62
    52
440
 33554687
370
    13
100
AcDbLine
 10
11.097993
 20
-0.047741
 30
0.0
 11
11.107993
 21
-0.087741
 31
0.0
  0
LINE
  5
B8
330
1F
100
AcDbEntity
  8
XR$1$TB_810_1
  6
AUSGEZOGEN
 62
    52
440
 33554687
370
    13
100
AcDbLine
 10
11.107993
 20
-0.087741
 30
0.0
 11
11.117993
 21
-0.047741
 31
0.0
  0
LINE
  5
B9
330
1F
100
AcDbEntity
  8
XR$1$TB_810_1
  6
AUSGEZOGEN
 62
    52
440
 33554687
370
    13
100
AcDbLine
 10
11.117993
 20
-0.047741
 30
0.0
 11
11.126743
 21
-0.082741
 31
0.0
  0
LINE
  5
BA
330
1F
100
AcDbEntity
  8
XR$1$TB_810_1
  6
AUSGEZOGEN
 62
    52
440
 33554687
370
    13
100
AcDbLine
 10
11.129243
 20
-0.082741
 30
0.0
 11
11.137993
 21
-0.047741
 31
0.0
  0
LINE
  5
BB
330
1F
100
AcDbEntity
  8
XR$1$TB_810_1
  6
AUSGEZOGEN
 62
    52
440
 33554687
370
    13
100
AcDbLine
 10
11.137993
 20
-0.047741
 30
0.0
 11
11.146743
 21
-0.082741
 31
0.0
  0
LINE
  5
BC
330
1F
100
AcDbEntity
  8
XR$1$TB_810_1
  6
AUSGEZOGEN
 62
     7
440
 33554687
370
    -3
100
AcDbLine
 10
11.045253
 20
-0.085741
 30
0.0
 11
11.027253
 21
-0.085741
 31
0.0
  0
LINE
  5
BD
330
1F
100
AcDbEntity
  8
XR$1$TB_810_1
  6
AUSGEZOGEN
 62
     7
440
 33554687
370
    -3
100
AcDbLine
 10
11.027253
 20
-0.087741
 30
0.0
 11
11.027253
 21
-0.085741
 31
0.0
  0
LINE
  5
BE
330
1F
100
AcDbEntity
  8
XR$1$TB_810_1
  6
AUSGEZOGEN
 62
    52
440
 33554687
370
    13
100
AcDbLine
 10
11.047253
 20
-0.087741
 30
0.0
 11
11.057253
 21
-0.047741
 31
0.0
  0
LINE
  5
BF
330
1F
100
AcDbEntity
  8
XR$1$TB_810_1
  6
AUSGEZOGEN
 62
    32
440
 33554687
370
    50
100
AcDbLine
 10
11.047253
 20
-0.047741
 30
0.0
 11
11.047253
 21
0.517274
 31
0.0
  0
LINE
  5
C0
330
1F
100
AcDbEntity
  8
XR$1$TB_810_1
  6
AUSGEZOGEN
 62
    32
440
 33554687
370
    50
100
AcDbLine
 10
11.347253
 20
0.147757
 30
0.0
 11
11.443787
 21
0.147757
 31
0.0
  0
LINE
  5
C1
330
1F
100
AcDbEntity
  8
XR$1$TB_810_1
  6
AUSGEZOGEN
 62
    32
440
 33554687
370
    50
100
AcDbLine
 10
11.347253
 20
0.327757
 30
0.0
 11
11.443787
 21
0.327757
 31
0.0
  0
LINE
  5
C2
330
1F
100
AcDbEntity
  8
XR$1$TB_810_1
  6
STRICHPUNKT2_S5
 62
     7
440
 33554687
370
    -3
100
AcDbLine
 10
11.443787
 20
0.127757
 30
0.0
 11
11.443787
 21
0.347757
 31
0.0
  0
LINE
  5
C3
330
1F
100
AcDbEntity
  8
XR$1$TB_810_1
  6
AUSGEZOGEN
 62
     7
440
 33554687
370
    -3
100
AcDbLine
 10
10.923998
 20
-0.058988
 30
0.0
 11
10.923998
 21
0.517274
 31
0.0
  0
ARC
  5
C4
330
1F
100
AcDbEntity
  8
XR$1$TB_810_1
  6
AUSGEZOGEN
 62
     7
440
 33554687
370
    -3
100
AcDbCircle
 10
10.870233
 20
-0.087241
 30
0.0
 40
0.0035
100
AcDbArc
 50
180.0
 51
270.0
  0
ARC
  5
C5
330
1F
100
AcDbEntity
  8
XR$1$TB_810_1
  6
AUSGEZOGEN
 62
     7
440
 33554687
370
    -3
100
AcDbCircle
 10
10.870733
 20
-0.086741
 30
0.0
 40
0.001
100
AcDbArc
 50
180.0
 51
270.0
  0
ARC
  5
C6
330
1F
100
AcDbEntity
  8
XR$1$TB_810_1
  6
AUSGEZOGEN
 62
     7
440
 33554687
370
    -3
100
AcDbCircle
 10
10.869733
 20
-0.063741
 30
0.0
 40
0.003
100
AcDbArc
 50
90.0
 51
180.0
  0
LINE
  5
C7
330
1F
100
AcDbEntity
  8
XR$1$TB_810_1
  6
AUSGEZOGEN
 62
     7
440
 33554687
370
    -3
100
AcDbLine
 10
10.866733
 20
-0.087241
 30
0.0
 11
10.866733
 21
-0.063741
 31
0.0
  0
ARC
  5
C8
330
1F
100
AcDbEntity
  8
XR$1$TB_810_1
  6
AUSGEZOGEN
 62
     7
440
 33554687
370
    -3
100
AcDbCircle
 10
10.870733
 20
-0.064741
 30
0.0
 40
0.001
100
AcDbArc
 50
90.0
 51
180.0
  0
LINE
  5
C9
330
1F
100
AcDbEntity
  8
XR$1$TB_810_1
  6
AUSGEZOGEN
 62
     7
440
 33554687
370
    -3
100
AcDbLine
 10
10.869733
 20
-0.064741
 30
0.0
 11
10.869733
 21
-0.086741
 31
0.0
  0
LINE
  5
CA
330
1F
100
AcDbEntity
  8
XR$1$TB_810_1
  6
AUSGEZOGEN
 62
     7
440
 33554687
370
    -3
100
AcDbLine
 10
10.866787
 20
-0.310226
 30
0.0
 11
10.866787
 21
-0.087849
 31
0.0
  0
LINE
  5
CB
330
1F
100
AcDbEntity
  8
XR$1$TB_810_1
  6
AUSGEZOGEN
 62
     7
440
 33554687
370
    -3
100
AcDbLine
 10
10.869733
 20
-0.060741
 30
0.0
 11
10.918067
 21
-0.060741
 31
0.0
  0
LINE
  5
CC
330
1F
100
AcDbEntity
  8
XR$1$TB_810_1
  6
AUSGEZOGEN
 62
     7
440
 33554687
370
    -3
100
AcDbLine
 10
10.918067
 20
-0.063741
 30
0.0
 11
10.870733
 21
-0.063741
 31
0.0
  0
LINE
  5
CD
330
1F
100
AcDbEntity
  8
XR$1$TB_810_1
  6
AUSGEZOGEN
 62
     7
440
 33554687
370
    -3
100
AcDbLine
 10
10.918067
 20
-0.063741
 30
0.0
 11
10.918067
 21
-0.060741
 31
0.0
  0
LINE
  5
CE
330
1F
100
AcDbEntity
  8
XR$1$TB_810_1
  6
VERDECKT2_S2
 62
     7
440
 33554687
370
    -3
100
AcDbLine
 10
10.925998
 20
0.517274
 30
0.0
 11
10.925998
 21
-0.058988
 31
0.0
  0
LINE
  5
CF
330
1F
100
AcDbEntity
  8
XR$1$TB_810_1
  6
AUSGEZOGEN
 62
     7
440
 33554687
370
    25
100
AcDbLine
 10
10.867253
 20
-0.046488
 30
0.0
 11
10.887253
 21
-0.046488
 31
0.0
  0
LINE
  5
D0
330
1F
100
AcDbEntity
  8
XR$1$TB_810_1
  6
VERDECKT2_S2
 62
     7
440
 33554687
370
    13
100
AcDbLine
 10
10.873253
 20
-0.046488
 30
0.0
 11
10.873253
 21
0.517274
 31
0.0
  0
LINE
  5
D1
330
1F
100
AcDbEntity
  8
XR$1$TB_810_1
  6
AUSGEZOGEN
 62
     7
440
 33554687
370
    25
100
AcDbLine
 10
10.867253
 20
-0.046488
 30
0.0
 11
10.867253
 21
0.517274
 31
0.0
  0
LINE
  5
D2
330
1F
100
AcDbEntity
  8
XR$1$TB_810_1
  6
AUSGEZOGEN
 62
     7
440
 33554687
370
    25
100
AcDbLine
 10
10.887253
 20
-0.046488
 30
0.0
 11
10.887253
 21
0.517274
 31
0.0
  0
LINE
  5
D3
330
1F
100
AcDbEntity
  8
XR$1$TB_810_1
  6
VERDECKT2_S2
 62
     7
440
 33554687
370
    13
100
AcDbLine
 10
10.881248
 20
-0.046488
 30
0.0
 11
10.881248
 21
0.517274
 31
0.0
  0
LINE
  5
D4
330
1F
100
AcDbEntity
  8
XR$1$TB_810_1
  6
AUSGEZOGEN
 62
     7
440
 33554687
370
    -3
100
AcDbLine
 10
10.893998
 20
-0.051488
 30
0.0
 11
10.893998
 21
-0.053488
 31
0.0
  0
LINE
  5
D5
330
1F
100
AcDbEntity
  8
XR$1$TB_810_1
  6
AUSGEZOGEN
 62
     7
440
 33554687
370
    -3
100
AcDbLine
 10
10.890998
 20
-0.053488
 30
0.0
 11
10.890998
 21
-0.051488
 31
0.0
  0
LINE
  5
D6
330
1F
100
AcDbEntity
  8
XR$1$TB_810_1
  6
AUSGEZOGEN
 62
     7
440
 33554687
370
    -3
100
AcDbLine
 10
10.890998
 20
-0.053488
 30
0.0
 11
10.893998
 21
-0.053488
 31
0.0
  0
LINE
  5
D7
330
1F
100
AcDbEntity
  8
XR$1$TB_810_1
  6
AUSGEZOGEN
 62
     7
440
 33554687
370
    -3
100
AcDbLine
 10
10.893998
 20
0.000012
 30
0.0
 11
10.893998
 21
-0.001988
 31
0.0
  0
LINE
  5
D8
330
1F
100
AcDbEntity
  8
XR$1$TB_810_1
  6
AUSGEZOGEN
 62
     7
440
 33554687
370
    -3
100
AcDbLine
 10
10.890998
 20
-0.001988
 30
0.0
 11
10.890998
 21
0.000012
 31
0.0
  0
LINE
  5
D9
330
1F
100
AcDbEntity
  8
XR$1$TB_810_1
  6
AUSGEZOGEN
 62
     7
440
 33554687
370
    -3
100
AcDbLine
 10
10.893998
 20
0.000012
 30
0.0
 11
10.890998
 21
0.000012
 31
0.0
  0
LINE
  5
DA
330
1F
100
AcDbEntity
  8
XR$1$TB_810_1
  6
AUSGEZOGEN
 62
     7
440
 33554687
370
    -3
100
AcDbLine
 10
10.893998
 20
-0.051488
 30
0.0
 11
10.893998
 21
-0.001988
 31
0.0
  0
LINE
  5
DB
330
1F
100
AcDbEntity
  8
XR$1$TB_810_1
  6
AUSGEZOGEN
 62
     7
440
 33554687
370
    -3
100
AcDbLine
 10
10.890998
 20
-0.001988
 30
0.0
 11
10.890998
 21
-0.051488
 31
0.0
  0
ARC
  5
DC
330
1F
100
AcDbEntity
  8
XR$1$TB_810_1
  6
AUSGEZOGEN
 62
     7
440
 33554687
370
    -3
100
AcDbCircle
 10
10.891498
 20
-0.043431
 30
0.0
 40
0.0015
100
AcDbArc
 50
120.0
 51
180.0
  0
LINE
  5
DD
330
1F
100
AcDbEntity
  8
XR$1$TB_810_1
  6
AUSGEZOGEN
 62
     7
440
 33554687
370
    -3
100
AcDbLine
 10
10.889998
 20
-0.049988
 30
0.0
 11
10.889998
 21
-0.043431
 31
0.0
  0
LINE
  5
DE
330
1F
100
AcDbEntity
  8
XR$1$TB_810_1
  6
AUSGEZOGEN
 62
     7
440
 33554687
370
    -3
100
AcDbLine
 10
10.889998
 20
-0.050044
 30
0.0
 11
10.889998
 21
-0.049988
 31
0.0
  0
ARC
  5
DF
330
1F
100
AcDbEntity
  8
XR$1$TB_810_1
  6
AUSGEZOGEN
 62
     7
440
 33554687
370
    -3
100
AcDbCircle
 10
10.891498
 20
-0.050044
 30
0.0
 40
0.0015
100
AcDbArc
 50
180.0
 51
240.0
  0
LINE
  5
E0
330
1F
100
AcDbEntity
  8
XR$1$TB_810_1
  6
AUSGEZOGEN
 62
     7
440
 33554687
370
    -3
100
AcDbLine
 10
10.890998
 20
-0.041988
 30
0.0
 11
10.890748
 21
-0.042132
 31
0.0
  0
LINE
  5
E1
330
1F
100
AcDbEntity
  8
XR$1$TB_810_1
  6
AUSGEZOGEN
 62
     7
440
 33554687
370
    -3
100
AcDbLine
 10
10.890748
 20
-0.051343
 30
0.0
 11
10.890998
 21
-0.051488
 31
0.0
  0
LINE
  5
E2
330
1F
100
AcDbEntity
  8
XR$1$TB_810_1
  6
AUSGEZOGEN
 62
     7
440
 33554687
370
    -3
100
AcDbLine
 10
10.887998
 20
-0.053488
 30
0.0
 11
10.890998
 21
-0.053488
 31
0.0
  0
LINE
  5
E3
330
1F
100
AcDbEntity
  8
XR$1$TB_810_1
  6
AUSGEZOGEN
 62
     7
440
 33554687
370
    -3
100
AcDbLine
 10
10.890123
 20
-0.030354
 30
0.0
 11
10.888215
 21
-0.027402
 31
0.0
  0
ARC
  5
E4
330
1F
100
AcDbEntity
  8
XR$1$TB_810_1
  6
AUSGEZOGEN
 62
     7
440
 33554687
370
    -3
100
AcDbCircle
 10
10.893254
 20
-0.024145
 30
0.0
 40
0.003
100
AcDbArc
 50
167.877543
 51
183.880386
  0
ARC
  5
E5
330
1F
100
AcDbEntity
  8
XR$1$TB_810_1
  6
AUSGEZOGEN
 62
     7
440
 33554687
370
    -3
100
AcDbCircle
 10
10.893254
 20
-0.024145
 30
0.0
 40
0.003
100
AcDbArc
 50
183.880386
 51
212.877543
  0
ARC
  5
E6
330
1F
100
AcDbEntity
  8
XR$1$TB_810_1
  6
AUSGEZOGEN
 62
     7
440
 33554687
370
    -3
100
AcDbCircle
 10
10.893254
 20
-0.024145
 30
0.0
 40
0.006
100
AcDbArc
 50
183.880386
 51
212.877543
  0
ARC
  5
E7
330
1F
100
AcDbEntity
  8
XR$1$TB_810_1
  6
AUSGEZOGEN
 62
     7
440
 33554687
370
    -3
100
AcDbCircle
 10
10.893254
 20
-0.024145
 30
0.0
 40
0.0059999999999999
100
AcDbArc
 50
167.877543
 51
183.880386
  0
LINE
  5
E8
330
1F
100
AcDbEntity
  8
XR$1$TB_810_1
  6
AUSGEZOGEN
 62
     7
440
 33554687
370
    -3
100
AcDbLine
 10
10.887388
 20
-0.022885
 30
0.0
 11
10.890929
 21
-0.006399
 31
0.0
  0
ARC
  5
E9
330
1F
100
AcDbEntity
  8
XR$1$TB_810_1
  6
AUSGEZOGEN
 62
     7
440
 33554687
370
    -3
100
AcDbCircle
 10
10.887996
 20
-0.005769
 30
0.0
 40
0.0030000000000001
100
AcDbArc
 50
347.877543
 51
3.880386
  0
LINE
  5
EA
330
1F
100
AcDbEntity
  8
XR$1$TB_810_1
  6
AUSGEZOGEN
 62
     7
440
 33554687
370
    -3
100
AcDbLine
 10
10.890998
 20
-0.020363
 30
0.0
 11
10.890321
 21
-0.023515
 31
0.0
  0
LINE
  5
EB
330
1F
100
AcDbEntity
  8
XR$1$TB_810_1
  6
AUSGEZOGEN
 62
     7
440
 33554687
370
    -3
100
AcDbLine
 10
10.890735
 20
-0.025774
 30
0.0
 11
10.890998
 21
-0.026181
 31
0.0
  0
LINE
  5
EC
330
1F
100
AcDbEntity
  8
XR$1$TB_810_1
  6
AUSGEZOGEN
 62
     7
440
 33554687
370
    -3
100
AcDbLine
 10
10.890998
 20
-0.031708
 30
0.0
 11
10.890123
 21
-0.030354
 31
0.0
  0
ARC
  5
ED
330
1F
100
AcDbEntity
  8
XR$1$TB_810_1
  6
VERDECKT2_S2
 62
     7
440
 33554687
370
    13
100
AcDbCircle
 10
10.880748
 20
-0.038643
 30
0.0
 40
0.0004999999999999
100
AcDbArc
 50
338.583286
 51
0.0
  0
LINE
  5
EE
330
1F
100
AcDbEntity
  8
XR$1$TB_810_1
  6
VERDECKT2_S2
 62
     7
440
 33554687
370
    13
100
AcDbLine
 10
10.881248
 20
-0.038238
 30
0.0
 11
10.881248
 21
-0.038643
 31
0.0
  0
ARC
  5
EF
330
1F
100
AcDbEntity
  8
XR$1$TB_810_1
  6
VERDECKT2_S2
 62
     7
440
 33554687
370
    13
100
AcDbCircle
 10
10.880748
 20
-0.041382
 30
0.0
 40
0.0004999999999999
100
AcDbArc
 50
158.583286
 51
180.0
  0
LINE
  5
F0
330
1F
100
AcDbEntity
  8
XR$1$TB_810_1
  6
AUSGEZOGEN
 62
     7
440
 33554687
370
    -3
100
AcDbLine
 10
10.887253
 20
-0.046488
 30
0.0
 11
10.889998
 21
-0.046488
 31
0.0
  0
ARC
  5
F1
330
1F
100
AcDbEntity
  8
XR$1$TB_810_1
  6
AUSGEZOGEN
 62
     7
440
 33554687
370
    -3
100
AcDbCircle
 10
10.883248
 20
-0.049988
 30
0.0
 40
0.0015
100
AcDbArc
 50
270.0
 51
90.0
  0
LINE
  5
F2
330
1F
100
AcDbEntity
  8
XR$1$TB_810_1
  6
AUSGEZOGEN
 62
     7
440
 33554687
370
    -3
100
AcDbLine
 10
10.873748
 20
-0.051488
 30
0.0
 11
10.873748
 21
-0.046488
 31
0.0
  0
LINE
  5
F3
330
1F
100
AcDbEntity
  8
XR$1$TB_810_1
  6
AUSGEZOGEN
 62
     7
440
 33554687
370
    -3
100
AcDbLine
 10
10.883248
 20
-0.051488
 30
0.0
 11
10.878248
 21
-0.051488
 31
0.0
  0
LINE
  5
F4
330
1F
100
AcDbEntity
  8
XR$1$TB_810_1
  6
AUSGEZOGEN
 62
     7
440
 33554687
370
    -3
100
AcDbLine
 10
10.878248
 20
-0.048488
 30
0.0
 11
10.883248
 21
-0.048488
 31
0.0
  0
ARC
  5
F5
330
1F
100
AcDbEntity
  8
XR$1$TB_810_1
  6
AUSGEZOGEN
 62
     7
440
 33554687
370
    -3
100
AcDbCircle
 10
10.878248
 20
-0.049988
 30
0.0
 40
0.0015
100
AcDbArc
 50
90.0
 51
270.0
  0
ARC
  5
F6
330
1F
100
AcDbEntity
  8
XR$1$TB_810_1
  6
VERDECKT2_S2
 62
     7
440
 33554687
370
    -3
100
AcDbCircle
 10
10.875748
 20
-0.051488
 30
0.0
 40
0.002
100
AcDbArc
 50
180.0
 51
270.0
  0
LINE
  5
F7
330
1F
100
AcDbEntity
  8
XR$1$TB_810_1
  6
AUSGEZOGEN
 62
     7
440
 33554687
370
    -3
100
AcDbLine
 10
10.875748
 20
-0.053488
 30
0.0
 11
10.887998
 21
-0.053488
 31
0.0
  0
LINE
  5
F8
330
1F
100
AcDbEntity
  8
XR$1$TB_810_1
  6
VERDECKT2_S2
 62
     7
440
 33554687
370
    13
100
AcDbLine
 10
10.873748
 20
-0.046488
 30
0.0
 11
10.873748
 21
-0.039238
 31
0.0
  0
ARC
  5
F9
330
1F
100
AcDbEntity
  8
XR$1$TB_810_1
  6
VERDECKT2_S2
 62
     7
440
 33554687
370
    13
100
AcDbCircle
 10
10.875748
 20
-0.039238
 30
0.0
 40
0.002
100
AcDbArc
 50
90.0
 51
180.0
  0
LINE
  5
FA
330
1F
100
AcDbEntity
  8
XR$1$TB_810_1
  6
VERDECKT2_S2
 62
     7
440
 33554687
370
    13
100
AcDbLine
 10
10.875748
 20
-0.037238
 30
0.0
 11
10.880248
 21
-0.037238
 31
0.0
  0
ARC
  5
FB
330
1F
100
AcDbEntity
  8
XR$1$TB_810_1
  6
VERDECKT2_S2
 62
     7
440
 33554687
370
    13
100
AcDbCircle
 10
10.880248
 20
-0.038238
 30
0.0
 40
0.001
100
AcDbArc
 50
0.0
 51
90.0
  0
LINE
  5
FC
330
1F
100
AcDbEntity
  8
XR$1$TB_810_1
  6
VERDECKT2_S2
 62
     7
440
 33554687
370
    13
100
AcDbLine
 10
10.880282
 20
-0.041199
 30
0.0
 11
10.881213
 21
-0.038826
 31
0.0
  0
LINE
  5
FD
330
1F
100
AcDbEntity
  8
XR$1$TB_810_1
  6
VERDECKT2_S2
 62
     7
440
 33554687
370
    13
100
AcDbLine
 10
10.880248
 20
-0.046488
 30
0.0
 11
10.880248
 21
-0.041382
 31
0.0
  0
LINE
  5
FE
330
1F
100
AcDbEntity
  8
XR$1$TB_810_1
  6
AUSGEZOGEN
 62
     7
440
 33554687
370
    -3
100
AcDbLine
 10
10.898748
 20
-0.049988
 30
0.0
 11
10.885248
 21
-0.049988
 31
0.0
  0
LINE
  5
FF
330
1F
100
AcDbEntity
  8
XR$1$TB_810_1
  6
AUSGEZOGEN
 62
     7
440
 33554687
370
    -3
100
AcDbLine
 10
10.895998
 20
-0.059988
 30
0.0
 11
10.893998
 21
-0.059988
 31
0.0
  0
LINE
  5
100
330
1F
100
AcDbEntity
  8
XR$1$TB_810_1
  6
AUSGEZOGEN
 62
     7
440
 33554687
370
    -3
100
AcDbLine
 10
10.923998
 20
-0.038238
 30
0.0
 11
10.895998
 21
-0.038238
 31
0.0
  0
LINE
  5
101
330
1F
100
AcDbEntity
  8
XR$1$TB_810_1
  6
AUSGEZOGEN
 62
     7
440
 33554687
370
    -3
100
AcDbLine
 10
10.923998
 20
0.016262
 30
0.0
 11
10.895998
 21
0.016262
 31
0.0
  0
LINE
  5
102
330
1F
100
AcDbEntity
  8
XR$1$TB_810_1
  6
AUSGEZOGEN
 62
     7
440
 33554687
370
    -3
100
AcDbLine
 10
10.921498
 20
0.014262
 30
0.0
 11
10.921498
 21
-0.036238
 31
0.0
  0
LINE
  5
103
330
1F
100
AcDbEntity
  8
XR$1$TB_810_1
  6
AUSGEZOGEN
 62
     7
440
 33554687
370
    -3
100
AcDbLine
 10
10.895998
 20
0.038012
 30
0.0
 11
10.893998
 21
0.038012
 31
0.0
  0
LINE
  5
104
330
1F
100
AcDbEntity
  8
XR$1$TB_810_1
  6
AUSGEZOGEN
 62
     7
440
 33554687
370
    -3
100
AcDbLine
 10
10.893998
 20
-0.046488
 30
0.0
 11
10.893998
 21
-0.059988
 31
0.0
  0
LINE
  5
105
330
1F
100
AcDbEntity
  8
XR$1$TB_810_1
  6
AUSGEZOGEN
 62
     7
440
 33554687
370
    -3
100
AcDbLine
 10
10.893998
 20
0.038012
 30
0.0
 11
10.893998
 21
0.014262
 31
0.0
  0
LINE
  5
106
330
1F
100
AcDbEntity
  8
XR$1$TB_810_1
  6
AUSGEZOGEN
 62
     7
440
 33554687
370
    -3
100
AcDbLine
 10
10.893998
 20
0.014262
 30
0.0
 11
10.893998
 21
-0.059988
 31
0.0
  0
LINE
  5
107
330
1F
100
AcDbEntity
  8
XR$1$TB_810_1
  6
AUSGEZOGEN
 62
     7
440
 33554687
370
    -3
100
AcDbLine
 10
10.895998
 20
0.014262
 30
0.0
 11
10.921498
 21
0.014262
 31
0.0
  0
LINE
  5
108
330
1F
100
AcDbEntity
  8
XR$1$TB_810_1
  6
AUSGEZOGEN
 62
     7
440
 33554687
370
    -3
100
AcDbLine
 10
10.921498
 20
-0.036238
 30
0.0
 11
10.895998
 21
-0.036238
 31
0.0
  0
LINE
  5
109
330
1F
100
AcDbEntity
  8
XR$1$TB_810_1
  6
AUSGEZOGEN
 62
     7
440
 33554687
370
    -3
100
AcDbLine
 10
10.895998
 20
0.014262
 30
0.0
 11
10.895998
 21
-0.036238
 31
0.0
  0
LINE
  5
10A
330
1F
100
AcDbEntity
  8
XR$1$TB_810_1
  6
AUSGEZOGEN
 62
     7
440
 33554687
370
    -3
100
AcDbLine
 10
10.929498
 20
-0.010988
 30
0.0
 11
10.914498
 21
-0.010988
 31
0.0
  0
LINE
  5
10B
330
1F
100
AcDbEntity
  8
XR$1$TB_810_1
  6
AUSGEZOGEN
 62
     7
440
 33554687
370
    -3
100
AcDbLine
 10
10.787637
 20
0.025365
 30
0.0
 11
10.893998
 21
0.006371
 31
0.0
  0
LINE
  5
10C
330
1F
100
AcDbEntity
  8
XR$1$TB_810_1
  6
AUSGEZOGEN
 62
     5
440
 33554687
370
    -3
100
AcDbLine
 10
10.692697
 20
0.057986
 30
0.0
 11
10.694429
 21
0.056986
 31
0.0
  0
LINE
  5
10D
330
1F
100
AcDbEntity
  8
XR$1$TB_810_1
  6
AUSGEZOGEN
 62
     5
440
 33554687
370
    -3
100
AcDbLine
 10
10.694429
 20
0.056986
 30
0.0
 11
10.694429
 21
-0.041014
 31
0.0
  0
LINE
  5
10E
330
1F
100
AcDbEntity
  8
XR$1$TB_810_1
  6
AUSGEZOGEN
 62
     5
440
 33554687
370
    -3
100
AcDbLine
 10
10.694429
 20
-0.041014
 30
0.0
 11
10.692697
 21
-0.040014
 31
0.0
  0
LINE
  5
10F
330
1F
100
AcDbEntity
  8
XR$1$TB_810_1
  6
AUSGEZOGEN
 62
     5
440
 33554687
370
    -3
100
AcDbLine
 10
10.692697
 20
-0.040014
 30
0.0
 11
10.692697
 21
-0.018264
 31
0.0
  0
LINE
  5
110
330
1F
100
AcDbEntity
  8
XR$1$TB_810_1
  6
AUSGEZOGEN
 62
     5
440
 33554687
370
    -3
100
AcDbLine
 10
10.692697
 20
-0.018264
 30
0.0
 11
10.668448
 21
-0.004264
 31
0.0
  0
LINE
  5
111
330
1F
100
AcDbEntity
  8
XR$1$TB_810_1
  6
AUSGEZOGEN
 62
     5
440
 33554687
370
    -3
100
AcDbLine
 10
10.668448
 20
-0.004264
 30
0.0
 11
10.668448
 21
0.050236
 31
0.0
  0
LINE
  5
112
330
1F
100
AcDbEntity
  8
XR$1$TB_810_1
  6
AUSGEZOGEN
 62
     5
440
 33554687
370
    -3
100
AcDbLine
 10
10.668448
 20
0.050236
 30
0.0
 11
10.692697
 21
0.036236
 31
0.0
  0
LINE
  5
113
330
1F
100
AcDbEntity
  8
XR$1$TB_810_1
  6
AUSGEZOGEN
 62
     5
440
 33554687
370
    -3
100
AcDbLine
 10
10.692697
 20
0.036236
 30
0.0
 11
10.692697
 21
0.057986
 31
0.0
  0
LINE
  5
114
330
1F
100
AcDbEntity
  8
XR$1$TB_810_1
  6
AUSGEZOGEN
 62
     5
440
 33554687
370
    -3
100
AcDbLine
 10
10.692697
 20
0.034236
 30
0.0
 11
10.670614
 21
0.046986
 31
0.0
  0
LINE
  5
115
330
1F
100
AcDbEntity
  8
XR$1$TB_810_1
  6
AUSGEZOGEN
 62
     5
440
 33554687
370
    -3
100
AcDbLine
 10
10.670614
 20
-0.003514
 30
0.0
 11
10.670614
 21
0.046986
 31
0.0
  0
LINE
  5
116
330
1F
100
AcDbEntity
  8
XR$1$TB_810_1
  6
AUSGEZOGEN
 62
     5
440
 33554687
370
    -3
100
AcDbLine
 10
10.692697
 20
-0.016264
 30
0.0
 11
10.670614
 21
-0.003514
 31
0.0
  0
LINE
  5
117
330
1F
100
AcDbEntity
  8
XR$1$TB_810_1
  6
AUSGEZOGEN
 62
     5
440
 33554687
370
    -3
100
AcDbLine
 10
10.692697
 20
-0.016264
 30
0.0
 11
10.692697
 21
0.034236
 31
0.0
  0
LINE
  5
118
330
1F
100
AcDbEntity
  8
XR$1$TB_810_1
  6
AUSGEZOGEN
 62
     5
440
 33554687
370
    -3
100
AcDbLine
 10
10.670614
 20
-0.003514
 30
0.0
 11
10.692697
 21
0.009236
 31
0.0
  0
ARC
  5
119
330
1F
100
AcDbEntity
  8
XR$1$TB_810_1
  6
AUSGEZOGEN
 62
     7
440
 33554687
370
    -3
100
AcDbCircle
 10
10.730531
 20
0.041329
 30
0.0
 40
0.0216506350946043
100
AcDbArc
 50
300.0
 51
0.0
  0
ARC
  5
11A
330
1F
100
AcDbEntity
  8
XR$1$TB_810_1
  6
AUSGEZOGEN
 62
     7
440
 33554687
370
    -3
100
AcDbCircle
 10
10.752182
 20
0.028829
 30
0.0
 40
0.0216506350946043
100
AcDbArc
 50
120.0
 51
180.0
  0
ARC
  5
11B
330
1F
100
AcDbEntity
  8
XR$1$TB_810_1
  6
AUSGEZOGEN
 62
     7
440
 33554687
370
    -3
100
AcDbCircle
 10
10.728799
 20
0.042329
 30
0.0
 40
0.0216506350946043
100
AcDbArc
 50
300.0
 51
0.0
  0
ARC
  5
11C
330
1F
100
AcDbEntity
  8
XR$1$TB_810_1
  6
AUSGEZOGEN
 62
     7
440
 33554687
370
    -3
100
AcDbCircle
 10
10.743233
 20
0.042329
 30
0.0
 40
0.0072168783648681
100
AcDbArc
 50
0.0
 51
52.035237
  0
ARC
  5
11D
330
1F
100
AcDbEntity
  8
XR$1$TB_810_1
  6
AUSGEZOGEN
 62
     7
440
 33554687
370
    -3
100
AcDbCircle
 10
10.736016
 20
0.029829
 30
0.0
 40
0.0072168783648681
100
AcDbArc
 50
247.964764
 51
300.0
  0
LINE
  5
11E
330
1F
100
AcDbEntity
  8
XR$1$TB_810_1
  6
AUSGEZOGEN
 62
     5
440
 33554687
370
    -3
100
AcDbLine
 10
10.668448
 20
0.050236
 30
0.0
 11
10.741333
 21
0.092316
 31
0.0
  0
LINE
  5
11F
330
1F
100
AcDbEntity
  8
XR$1$TB_810_1
  6
AUSGEZOGEN
 62
     5
440
 33554687
370
    -3
100
AcDbLine
 10
10.692697
 20
0.057986
 30
0.0
 11
10.747477
 21
0.089613
 31
0.0
  0
LINE
  5
120
330
1F
100
AcDbEntity
  8
XR$1$TB_810_1
  6
AUSGEZOGEN
 62
     5
440
 33554687
370
    -3
100
AcDbLine
 10
10.694429
 20
0.056986
 30
0.0
 11
10.74931
 21
0.088672
 31
0.0
  0
LINE
  5
121
330
1F
100
AcDbEntity
  8
XR$1$TB_810_1
  6
AUSGEZOGEN
 62
     5
440
 33554687
370
    -3
100
AcDbLine
 10
10.694429
 20
-0.041014
 30
0.0
 11
10.78694
 21
0.012397
 31
0.0
  0
ARC
  5
122
330
1F
100
AcDbEntity
  8
XR$1$TB_810_1
  6
AUSGEZOGEN
 62
     7
440
 33554687
370
    -3
100
AcDbCircle
 10
10.737748
 20
0.028829
 30
0.0
 40
0.0072168783648681
100
AcDbArc
 50
180.0
 51
300.0
  0
ARC
  5
123
330
1F
100
AcDbEntity
  8
XR$1$TB_810_1
  6
AUSGEZOGEN
 62
     7
440
 33554687
370
    -3
100
AcDbCircle
 10
10.744965
 20
0.041329
 30
0.0
 40
0.0072168783648681
100
AcDbArc
 50
0.0
 51
120.0
  0
LINE
  5
124
330
1F
100
AcDbEntity
  8
XR$1$TB_810_1
  6
AUSGEZOGEN
 62
     5
440
 33554687
370
    -3
100
AcDbLine
 10
10.752182
 20
0.041329
 30
0.0
 11
10.752182
 21
0.041328
 31
0.0
  0
LINE
  5
125
330
1F
100
AcDbEntity
  8
XR$1$TB_810_1
  6
AUSGEZOGEN
 62
     5
440
 33554687
370
    -3
100
AcDbLine
 10
10.72857
 20
0.0047
 30
0.0
 11
10.753734
 21
0.019229
 31
0.0
  0
LINE
  5
126
330
1F
100
AcDbEntity
  8
XR$1$TB_810_1
  6
AUSGEZOGEN
 62
     5
440
 33554687
370
    -3
100
AcDbLine
 10
10.730646
 20
0.020161
 30
0.0
 11
10.730646
 21
0.004033
 31
0.0
  0
LINE
  5
127
330
1F
100
AcDbEntity
  8
XR$1$TB_810_1
  6
AUSGEZOGEN
 62
     5
440
 33554687
370
    -3
100
AcDbLine
 10
10.752182
 20
0.032595
 30
0.0
 11
10.752182
 21
0.016466
 31
0.0
  0
LINE
  5
128
330
1F
100
AcDbEntity
  8
XR$1$TB_810_1
  6
AUSGEZOGEN
 62
     5
440
 33554687
370
    -3
100
AcDbLine
 10
10.730646
 20
0.005899
 30
0.0
 11
10.732378
 21
0.004899
 31
0.0
  0
LINE
  5
129
330
1F
100
AcDbEntity
  8
XR$1$TB_810_1
  6
AUSGEZOGEN
 62
     5
440
 33554687
370
    -3
100
AcDbLine
 10
10.730646
 20
0.005899
 30
0.0
 11
10.728914
 21
0.006899
 31
0.0
  0
LINE
  5
12A
330
1F
100
AcDbEntity
  8
XR$1$TB_810_1
  6
AUSGEZOGEN
 62
     5
440
 33554687
370
    -3
100
AcDbLine
 10
10.752182
 20
0.018332
 30
0.0
 11
10.753914
 21
0.017332
 31
0.0
  0
LINE
  5
12B
330
1F
100
AcDbEntity
  8
XR$1$TB_810_1
  6
AUSGEZOGEN
 62
     5
440
 33554687
370
    -3
100
AcDbLine
 10
10.752182
 20
0.018332
 30
0.0
 11
10.75045
 21
0.019332
 31
0.0
  0
MTEXT
  5
12C
330
1F
100
AcDbEntity
  8
XR$1$TB_810_1
  6
AUSGEZOGEN
 62
     7
440
 33554687
370
    -3
100
AcDbMText
 10
10.735171
 20
-0.002617
 30
0.0
 40
0.0075
 41
0.02203
 46
0.0
 71
     7
 72
     5
  1
\W1.39;\Q30.0;d>
  7
ARIAL
 11
0.8660254037844375
 21
0.5000000000000024
 31
0.0
 73
     1
 44
1.0
  0
MTEXT
  5
12D
330
1F
100
AcDbEntity
  8
XR$1$TB_810_1
  6
AUSGEZOGEN
 62
     7
440
 33554687
370
    -3
100
AcDbMText
 10
10.645739
 20
-0.076217
 30
0.0
 40
0.0125
 41
0.175287
 46
0.0
 71
     1
 72
     5
  1
\A1;{\fArial|i0|b0;\H0.012500;\W1.250000;\C7;d> Durchmesser }\P{\fArial|i0|b0;\H0.012500;\W1.250000;\C7;     Werkzeug}\P
  7
ARIAL
 73
     1
 44
1.204819
  0
MTEXT
  5
12E
330
1F
100
AcDbEntity
  8
XR$1$TB_810_1
  6
AUSGEZOGEN
 62
     7
440
 33554687
370
    -3
100
AcDbMText
 10
10.644919
 20
-0.208743
 30
0.0
 40
0.0125
 41
0.201076
 46
0.0
 71
     7
 72
     5
  1
\W1.26;d> outil de diamètre
  7
ARIAL
 73
     1
 44
1.0
  0
MTEXT
  5
12F
330
1F
100
AcDbEntity
  8
XR$1$TB_810_1
  6
AUSGEZOGEN
 62
     7
440
 33554687
370
    -3
100
AcDbMText
 10
10.64638
 20
-0.139038
 30
0.0
 40
0.0125
 41
0.13023
 46
0.0
 71
     1
 72
     5
  1
\A1;{\fArial|i0|b0;\H0.012500;\W1.250000;\C7;d> diameter }\P{\fArial|i0|b0;\H0.012500;\W1.250000;\C7;     tool}\P
  7
ARIAL
 73
     1
 44
1.204819
  0
CIRCLE
  5
130
330
1F
100
AcDbEntity
  8
XR$1$TB_810_1
  6
STRICHPUNKT2_S5
 62
     5
440
 33554687
370
    -3
100
AcDbCircle
 10
10.715122
 20
0.024386
 30
0.0
 40
0.0728117338926939
  0
LINE
  5
131
330
1F
100
AcDbEntity
  8
XR$1$TB_810_1
  6
AUSGEZOGEN
 62
     7
440
 33554687
370
    -3
100
AcDbLine
 10
10.895998
 20
0.027137
 30
0.0
 11
10.896705
 21
0.027844
 31
0.0
  0
LINE
  5
132
330
1F
100
AcDbEntity
  8
XR$1$TB_810_1
  6
AUSGEZOGEN
 62
     7
440
 33554687
370
    -3
100
AcDbLine
 10
10.895998
 20
0.027137
 30
0.0
 11
10.896705
 21
0.02643
 31
0.0
  0
LINE
  5
133
330
1F
100
AcDbEntity
  8
XR$1$TB_810_1
  6
AUSGEZOGEN
 62
     7
440
 33554687
370
    -3
100
AcDbLine
 10
10.896705
 20
0.027844
 30
0.0
 11
10.895998
 21
0.028551
 31
0.0
  0
LINE
  5
134
330
1F
100
AcDbEntity
  8
XR$1$TB_810_1
  6
AUSGEZOGEN
 62
     7
440
 33554687
370
    -3
100
AcDbLine
 10
10.895998
 20
0.028551
 30
0.0
 11
10.895998
 21
0.038012
 31
0.0
  0
LINE
  5
135
330
1F
100
AcDbEntity
  8
XR$1$TB_810_1
  6
AUSGEZOGEN
 62
     7
440
 33554687
370
    -3
100
AcDbLine
 10
10.895998
 20
0.016262
 30
0.0
 11
10.895998
 21
0.025723
 31
0.0
  0
LINE
  5
136
330
1F
100
AcDbEntity
  8
XR$1$TB_810_1
  6
AUSGEZOGEN
 62
     7
440
 33554687
370
    -3
100
AcDbLine
 10
10.896705
 20
0.02643
 30
0.0
 11
10.895998
 21
0.025723
 31
0.0
  0
LINE
  5
137
330
1F
100
AcDbEntity
  8
XR$1$TB_810_1
  6
AUSGEZOGEN
 62
     7
440
 33554687
370
    -3
100
AcDbLine
 10
10.895998
 20
-0.049113
 30
0.0
 11
10.896705
 21
-0.048406
 31
0.0
  0
LINE
  5
138
330
1F
100
AcDbEntity
  8
XR$1$TB_810_1
  6
AUSGEZOGEN
 62
     7
440
 33554687
370
    -3
100
AcDbLine
 10
10.895998
 20
-0.049113
 30
0.0
 11
10.896705
 21
-0.04982
 31
0.0
  0
LINE
  5
139
330
1F
100
AcDbEntity
  8
XR$1$TB_810_1
  6
AUSGEZOGEN
 62
     7
440
 33554687
370
    -3
100
AcDbLine
 10
10.896705
 20
-0.048406
 30
0.0
 11
10.895998
 21
-0.047699
 31
0.0
  0
LINE
  5
13A
330
1F
100
AcDbEntity
  8
XR$1$TB_810_1
  6
AUSGEZOGEN
 62
     7
440
 33554687
370
    -3
100
AcDbLine
 10
10.896705
 20
-0.04982
 30
0.0
 11
10.895998
 21
-0.050527
 31
0.0
  0
LINE
  5
13B
330
1F
100
AcDbEntity
  8
XR$1$TB_810_1
  6
AUSGEZOGEN
 62
     7
440
 33554687
370
    -3
100
AcDbLine
 10
10.895998
 20
-0.038238
 30
0.0
 11
10.895998
 21
-0.047699
 31
0.0
  0
LINE
  5
13C
330
1F
100
AcDbEntity
  8
XR$1$TB_810_1
  6
AUSGEZOGEN
 62
     7
440
 33554687
370
    -3
100
AcDbLine
 10
10.895998
 20
-0.050527
 30
0.0
 11
10.895998
 21
-0.059988
 31
0.0
  0
LINE
  5
13D
330
1F
100
AcDbEntity
  8
XR$1$TB_810_1
  6
AUSGEZOGEN
 62
     7
440
 33554687
370
    -3
100
AcDbLine
 10
10.923998
 20
-0.058988
 30
0.0
 11
10.975253
 21
-0.058988
 31
0.0
  0
LINE
  5
13E
330
1F
100
AcDbEntity
  8
XR$1$TB_810_1
  6
AUSGEZOGEN
 62
    52
440
 33554687
370
    13
100
AcDbLine
 10
10.975253
 20
-0.087741
 30
0.0
 11
10.975253
 21
0.052259
 31
0.0
  0
LINE
  5
13F
330
1F
100
AcDbEntity
  8
XR$1$TB_810_1
  6
AUSGEZOGEN
 62
    52
440
 33554687
370
    13
100
AcDbLine
 10
10.975253
 20
0.132259
 30
0.0
 11
10.975253
 21
0.517274
 31
0.0
  0
LINE
  5
140
330
1F
100
AcDbEntity
  8
XR$1$TB_810_1
  6
AUSGEZOGEN
 62
     7
440
 33554687
370
    -3
100
AcDbLine
 10
11.144253
 20
-0.090741
 30
0.0
 11
10.870207
 21
-0.090741
 31
0.0
  0
LINE
  5
141
330
1F
100
AcDbEntity
  8
XR$1$TB_810_1
  6
AUSGEZOGEN
 62
     7
440
 33554687
370
    -3
100
AcDbLine
 10
11.144253
 20
-0.087741
 30
0.0
 11
10.870733
 21
-0.087741
 31
0.0
  0
LINE
  5
142
330
1F
100
AcDbEntity
  8
XR$1$TB_810_1
  6
AUSGEZOGEN
 62
     7
440
 33554687
370
    -3
100
AcDbLine
 10
11.047253
 20
-0.027741
 30
0.0
 11
11.045253
 21
-0.027741
 31
0.0
  0
LINE
  5
143
330
1F
100
AcDbEntity
  8
XR$1$TB_810_1
  6
AUSGEZOGEN
 62
     7
440
 33554687
370
    -3
100
AcDbLine
 10
11.047253
 20
-0.027741
 30
0.0
 11
11.047253
 21
-0.087741
 31
0.0
  0
LINE
  5
144
330
1F
100
AcDbEntity
  8
XR$1$TB_810_1
  6
AUSGEZOGEN
 62
     7
440
 33554687
370
    -3
100
AcDbLine
 10
11.045253
 20
-0.027741
 30
0.0
 11
11.045253
 21
-0.085741
 31
0.0
  0
LINE
  5
145
330
1F
100
AcDbEntity
  8
XR$1$TB_810_1
  6
AUSGEZOGEN
 62
     7
440
 33554687
370
    -3
100
AcDbLine
 10
11.052253
 20
-0.037741
 30
0.0
 11
11.039253
 21
-0.037741
 31
0.0
  0
LINE
  5
146
330
1F
100
AcDbEntity
  8
XR$1$TB_810_1
  6
VERDECKT2_S2
 62
     7
440
 33554687
370
    -3
100
AcDbLine
 10
10.975253
 20
0.132259
 30
0.0
 11
10.975253
 21
0.052259
 31
0.0
  0
LINE
  5
147
330
1F
100
AcDbEntity
  8
XR$1$TB_810_1
  6
VERDECKT2_S2
 62
     7
440
 33554687
370
    -3
100
AcDbLine
 10
11.038253
 20
0.132259
 30
0.0
 11
11.038253
 21
0.052259
 31
0.0
  0
LINE
  5
148
330
1F
100
AcDbEntity
  8
XR$1$TB_810_1
  6
STRICHPUNKT2_S5
 62
     6
440
 33554687
370
    35
100
AcDbLine
 10
11.028253
 20
0.092259
 30
0.0
 11
11.146253
 21
0.092259
 31
0.0
  0
LINE
  5
149
330
1F
100
AcDbEntity
  8
XR$1$TB_810_1
  6
AUSGEZOGEN
 62
     7
440
 33554687
370
    -3
100
AcDbLine
 10
11.041253
 20
0.132259
 30
0.0
 11
11.041253
 21
0.052259
 31
0.0
  0
LINE
  5
14A
330
1F
100
AcDbEntity
  8
XR$1$TB_810_1
  6
AUSGEZOGEN
 62
     7
440
 33554687
370
    13
100
AcDbLine
 10
10.975253
 20
-0.037741
 30
0.0
 11
11.047253
 21
-0.012741
 31
0.0
  0
LINE
  5
14B
330
1F
100
AcDbEntity
  8
XR$1$TB_810_1
  6
AUSGEZOGEN
 62
     7
440
 33554687
370
    13
100
AcDbLine
 10
11.047253
 20
-0.012741
 30
0.0
 11
10.975253
 21
0.012259
 31
0.0
  0
LINE
  5
14C
330
1F
100
AcDbEntity
  8
XR$1$TB_810_1
  6
AUSGEZOGEN
 62
     7
440
 33554687
370
    13
100
AcDbLine
 10
11.047253
 20
0.237259
 30
0.0
 11
10.975253
 21
0.262259
 31
0.0
  0
LINE
  5
14D
330
1F
100
AcDbEntity
  8
XR$1$TB_810_1
  6
AUSGEZOGEN
 62
     7
440
 33554687
370
    13
100
AcDbLine
 10
10.975253
 20
0.262259
 30
0.0
 11
11.047253
 21
0.287259
 31
0.0
  0
LINE
  5
14E
330
1F
100
AcDbEntity
  8
XR$1$TB_810_1
  6
AUSGEZOGEN
 62
     7
440
 33554687
370
    13
100
AcDbLine
 10
10.975253
 20
0.012259
 30
0.0
 11
11.047253
 21
0.037259
 31
0.0
  0
LINE
  5
14F
330
1F
100
AcDbEntity
  8
XR$1$TB_810_1
  6
AUSGEZOGEN
 62
     7
440
 33554687
370
    13
100
AcDbLine
 10
11.047253
 20
0.137259
 30
0.0
 11
10.975253
 21
0.162259
 31
0.0
  0
LINE
  5
150
330
1F
100
AcDbEntity
  8
XR$1$TB_810_1
  6
AUSGEZOGEN
 62
     7
440
 33554687
370
    13
100
AcDbLine
 10
10.975253
 20
0.162259
 30
0.0
 11
11.047253
 21
0.187259
 31
0.0
  0
LINE
  5
151
330
1F
100
AcDbEntity
  8
XR$1$TB_810_1
  6
AUSGEZOGEN
 62
     7
440
 33554687
370
    13
100
AcDbLine
 10
11.047253
 20
0.187259
 30
0.0
 11
10.975253
 21
0.212259
 31
0.0
  0
LINE
  5
152
330
1F
100
AcDbEntity
  8
XR$1$TB_810_1
  6
AUSGEZOGEN
 62
     7
440
 33554687
370
    13
100
AcDbLine
 10
10.975253
 20
0.212259
 30
0.0
 11
11.047253
 21
0.237259
 31
0.0
  0
LINE
  5
153
330
1F
100
AcDbEntity
  8
XR$1$TB_810_1
  6
AUSGEZOGEN
 62
     7
440
 33554687
370
    13
100
AcDbLine
 10
11.047253
 20
0.337259
 30
0.0
 11
10.975253
 21
0.362259
 31
0.0
  0
LINE
  5
154
330
1F
100
AcDbEntity
  8
XR$1$TB_810_1
  6
AUSGEZOGEN
 62
     7
440
 33554687
370
    13
100
AcDbLine
 10
10.975253
 20
0.362259
 30
0.0
 11
11.047253
 21
0.387259
 31
0.0
  0
LINE
  5
155
330
1F
100
AcDbEntity
  8
XR$1$TB_810_1
  6
AUSGEZOGEN
 62
     7
440
 33554687
370
    13
100
AcDbLine
 10
11.047253
 20
0.287259
 30
0.0
 11
10.975253
 21
0.312259
 31
0.0
  0
LINE
  5
156
330
1F
100
AcDbEntity
  8
XR$1$TB_810_1
  6
AUSGEZOGEN
 62
     7
440
 33554687
370
    13
100
AcDbLine
 10
10.975253
 20
0.312259
 30
0.0
 11
11.047253
 21
0.337259
 31
0.0
  0
LINE
  5
157
330
1F
100
AcDbEntity
  8
XR$1$TB_810_1
  6
AUSGEZOGEN
 62
     7
440
 33554687
370
    13
100
AcDbLine
 10
11.047253
 20
0.437259
 30
0.0
 11
10.975253
 21
0.462259
 31
0.0
  0
LINE
  5
158
330
1F
100
AcDbEntity
  8
XR$1$TB_810_1
  6
AUSGEZOGEN
 62
     7
440
 33554687
370
    13
100
AcDbLine
 10
10.975253
 20
0.462259
 30
0.0
 11
11.047253
 21
0.487259
 31
0.0
  0
LINE
  5
159
330
1F
100
AcDbEntity
  8
XR$1$TB_810_1
  6
AUSGEZOGEN
 62
     7
440
 33554687
370
    13
100
AcDbLine
 10
11.047253
 20
0.387259
 30
0.0
 11
10.975253
 21
0.412259
 31
0.0
  0
LINE
  5
15A
330
1F
100
AcDbEntity
  8
XR$1$TB_810_1
  6
AUSGEZOGEN
 62
     7
440
 33554687
370
    13
100
AcDbLine
 10
10.975253
 20
0.412259
 30
0.0
 11
11.047253
 21
0.437259
 31
0.0
  0
LINE
  5
15B
330
1F
100
AcDbEntity
  8
XR$1$TB_810_1
  6
AUSGEZOGEN
 62
     7
440
 33554687
370
    13
100
AcDbLine
 10
11.047253
 20
0.487259
 30
0.0
 11
10.975253
 21
0.512259
 31
0.0
  0
LINE
  5
15C
330
1F
100
AcDbEntity
  8
XR$1$TB_810_1
  6
AUSGEZOGEN
 62
     7
440
 33554687
370
    13
100
AcDbLine
 10
10.975253
 20
0.512259
 30
0.0
 11
10.989696
 21
0.517274
 31
0.0
  0
LINE
  5
15D
330
1F
100
AcDbEntity
  8
XR$1$TB_810_1
  6
AUSGEZOGEN
 62
     7
440
 33554687
370
    13
100
AcDbLine
 10
11.032853
 20
0.132259
 30
0.0
 11
11.047253
 21
0.137259
 31
0.0
  0
LINE
  5
15E
330
1F
100
AcDbEntity
  8
XR$1$TB_810_1
  6
AUSGEZOGEN
 62
     7
440
 33554687
370
    13
100
AcDbLine
 10
11.047253
 20
0.037259
 30
0.0
 11
11.004053
 21
0.052259
 31
0.0
  0
LINE
  5
15F
330
1F
100
AcDbEntity
  8
XR$1$TB_810_1
  6
AUSGEZOGEN
 62
     7
440
 33554687
370
    13
100
AcDbLine
 10
11.047253
 20
-0.062741
 30
0.0
 11
11.047235
 21
-0.062734
 31
0.0
  0
LINE
  5
160
330
1F
100
AcDbEntity
  8
XR$1$TB_810_1
  6
AUSGEZOGEN
 62
     7
440
 33554687
370
    13
100
AcDbLine
 10
11.045253
 20
-0.062046
 30
0.0
 11
10.975253
 21
-0.037741
 31
0.0
  0
LINE
  5
161
330
1F
100
AcDbEntity
  8
XR$1$TB_810_1
  6
AUSGEZOGEN
 62
     7
440
 33554687
370
    13
100
AcDbLine
 10
10.975253
 20
-0.087741
 30
0.0
 11
11.045253
 21
-0.063435
 31
0.0
  0
LINE
  5
162
330
1F
100
AcDbEntity
  8
XR$1$TB_810_1
  6
AUSGEZOGEN
 62
     7
440
 33554687
370
    13
100
AcDbLine
 10
11.047235
 20
-0.062747
 30
0.0
 11
11.047253
 21
-0.062741
 31
0.0
  0
MTEXT
  5
163
330
1F
100
AcDbEntity
  8
XR$1$TB_810_1
  6
AUSGEZOGEN
 62
     7
440
 33554687
370
    -3
100
AcDbMText
 10
10.637874
 20
0.686667
 30
0.0
 40
0.0225
 41
0.381035
 46
0.0
 71
     7
 72
     5
  1
\W1.00;KeraTwin   K20 - Klammer
  7
ARIAL
 73
     1
 44
1.0
  0
MTEXT
  5
164
330
1F
100
AcDbEntity
  8
XR$1$TB_810_1
  6
AUSGEZOGEN
 62
     7
440
 33554687
370
    -3
100
AcDbMText
 10
10.772048
 20
0.698863
 30
0.0
 40
0.01
 41
0.024254
 46
0.0
 71
     7
 72
     5
  1
\A1;{\fArial|i0|b0;\H0.017500;\W0.911111;\C7;®}\P
  7
ARIAL
 73
     1
 44
1.0
  0
MTEXT
  5
165
330
1F
100
AcDbEntity
  8
XR$1$TB_810_1
  6
AUSGEZOGEN
 62
     6
440
 33554687
370
    -3
100
AcDbMText
 10
10.640317
 20
0.62974
 30
0.0
 40
0.0175
 41
0.216709
 46
0.0
 71
     1
 72
     5
  1
}\P{\fArial|i0|b0;\H0.017500;\W1.000000;\C6;VERTICAL FIXING}\P
  7
ARIAL
 73
     1
 44
0.903614
  0
MTEXT
  5
166
330
1F
100
AcDbEntity
  8
XR$1$TB_810_1
  6
AUSGEZOGEN
 62
     6
440
 33554687
370
    -3
100
AcDbMText
 10
10.638998
 20
0.617361
 30
0.0
 40
0.0175
 41
0.264251
 46
0.0
 71
     7
 72
     5
  1
\W1.00;FIXATION VERTICALE
  7
ARIAL
 73
     1
 44
1.0
  0
MTEXT
  5
167
330
1F
100
AcDbEntity
  8
XR$1$TB_810_1
  6
AUSGEZOGEN
 62
     7
440
 33554687
370
    -3
100
AcDbMText
 10
10.638073
 20
0.648842
 30
0.0
 40
0.0175
 41
0.281188
 46
0.0
 71
     7
 72
     5
  1
\W1.00;VERTIKALVERLEGUNG
  7
ARIAL
 73
     1
 44
1.0
  0
LINE
  5
168
330
1F
100
AcDbEntity
  8
XR$1$TB_810_1
  6
AUSGEZOGEN
 62
     3
440
 33554687
370
    25
100
AcDbLine
 10
11.231253
 20
-0.107741
 30
0.0
 11
11.246253
 21
-0.107741
 31
0.0
  0
LINE
  5
169
330
1F
100
AcDbEntity
  8
XR$1$TB_810_1
  6
AUSGEZOGEN
 62
     3
440
 33554687
370
    25
100
AcDbLine
 10
11.246253
 20
-0.187741
 30
0.0
 11
11.186253
 21
-0.187741
 31
0.0
  0
LINE
  5
16A
330
1F
100
AcDbEntity
  8
XR$1$TB_810_1
  6
AUSGEZOGEN
 62
     3
440
 33554687
370
    25
100
AcDbLine
 10
11.186253
 20
-0.132741
 30
0.0
 11
11.186253
 21
-0.187741
 31
0.0
  0
LINE
  5
16B
330
1F
100
AcDbEntity
  8
XR$1$TB_810_1
  6
AUSGEZOGEN
 62
     3
440
 33554687
370
    25
100
AcDbLine
 10
11.246253
 20
-0.107741
 30
0.0
 11
11.246253
 21
-0.187741
 31
0.0
  0
LINE
  5
16C
330
1F
100
AcDbEntity
  8
XR$1$TB_810_1
  6
AUSGEZOGEN
 62
     3
440
 33554687
370
    25
100
AcDbLine
 10
11.231253
 20
-0.132741
 30
0.0
 11
11.231253
 21
-0.047741
 31
0.0
  0
LINE
  5
16D
330
1F
100
AcDbEntity
  8
XR$1$TB_810_1
  6
AUSGEZOGEN
 62
     3
440
 33554687
370
    25
100
AcDbLine
 10
11.231253
 20
-0.057741
 30
0.0
 11
11.151253
 21
-0.057741
 31
0.0
  0
LINE
  5
16E
330
1F
100
AcDbEntity
  8
XR$1$TB_810_1
  6
AUSGEZOGEN
 62
     3
440
 33554687
370
    25
100
AcDbLine
 10
11.231253
 20
-0.132741
 30
0.0
 11
11.151253
 21
-0.132741
 31
0.0
  0
LINE
  5
16F
330
1F
100
AcDbEntity
  8
XR$1$TB_810_1
  6
AUSGEZOGEN
 62
     7
440
 33554687
370
    -3
100
AcDbLine
 10
11.186253
 20
-0.309918
 30
0.0
 11
11.186253
 21
-0.187741
 31
0.0
  0
LINE
  5
170
330
1F
100
AcDbEntity
  8
XR$1$TB_810_1
  6
AUSGEZOGEN
 62
     7
440
 33554687
370
    -3
100
AcDbLine
 10
11.204253
 20
-0.309901
 30
0.0
 11
11.204253
 21
-0.187741
 31
0.0
  0
LINE
  5
171
330
1F
100
AcDbEntity
  8
XR$1$TB_810_1
  6
AUSGEZOGEN
 62
     7
440
 33554687
370
    -3
100
AcDbLine
 10
11.208253
 20
-0.309897
 30
0.0
 11
11.208253
 21
-0.187741
 31
0.0
  0
LINE
  5
172
330
1F
100
AcDbEntity
  8
XR$1$TB_810_1
  6
AUSGEZOGEN
 62
     7
440
 33554687
370
    -3
100
AcDbLine
 10
11.228253
 20
-0.309877
 30
0.0
 11
11.228253
 21
-0.187741
 31
0.0
  0
LINE
  5
173
330
1F
100
AcDbEntity
  8
XR$1$TB_810_1
  6
AUSGEZOGEN
 62
     7
440
 33554687
370
    -3
100
AcDbLine
 10
11.224253
 20
-0.309881
 30
0.0
 11
11.224253
 21
-0.187741
 31
0.0
  0
LINE
  5
174
330
1F
100
AcDbEntity
  8
XR$1$TB_810_1
  6
AUSGEZOGEN
 62
     7
440
 33554687
370
    -3
100
AcDbLine
 10
11.246253
 20
-0.309859
 30
0.0
 11
11.246253
 21
-0.187741
 31
0.0
  0
CIRCLE
  5
175
330
1F
100
AcDbEntity
  8
XR$1$TB_810_1
  6
AUSGEZOGEN
 62
     7
440
 33554687
370
    -3
100
AcDbCircle
 10
10.954253
 20
0.112259
 30
0.0
 40
0.0015
  0
CIRCLE
  5
176
330
1F
100
AcDbEntity
  8
XR$1$TB_810_1
  6
AUSGEZOGEN
 62
     7
440
 33554687
370
    -3
100
AcDbCircle
 10
10.954253
 20
0.112259
 30
0.0
 40
0.005
  0
CIRCLE
  5
177
330
1F
100
AcDbEntity
  8
XR$1$TB_810_1
  6
AUSGEZOGEN
 62
     7
440
 33554687
370
    -3
100
AcDbCircle
 10
10.954253
 20
0.072259
 30
0.0
 40
0.0015
  0
CIRCLE
  5
178
330
1F
100
AcDbEntity
  8
XR$1$TB_810_1
  6
AUSGEZOGEN
 62
     7
440
 33554687
370
    -3
100
AcDbCircle
 10
10.954253
 20
0.072259
 30
0.0
 40
0.005
  0
ARC
  5
179
330
1F
100
AcDbEntity
  8
XR$1$TB_810_1
  6
AUSGEZOGEN
 62
     7
440
 33554687
370
    -3
100
AcDbCircle
 10
10.954253
 20
0.119759
 30
0.0
 40
0.0025
100
AcDbArc
 50
0.0
 51
180.0
  0
LINE
  5
17A
330
1F
100
AcDbEntity
  8
XR$1$TB_810_1
  6
AUSGEZOGEN
 62
     7
440
 33554687
370
    -3
100
AcDbLine
 10
10.951753
 20
0.116589
 30
0.0
 11
10.951753
 21
0.119759
 31
0.0
  0
LINE
  5
17B
330
1F
100
AcDbEntity
  8
XR$1$TB_810_1
  6
AUSGEZOGEN
 62
     7
440
 33554687
370
    -3
100
AcDbLine
 10
10.956753
 20
0.116589
 30
0.0
 11
10.956753
 21
0.119759
 31
0.0
  0
ARC
  5
17C
330
1F
100
AcDbEntity
  8
XR$1$TB_810_1
  6
AUSGEZOGEN
 62
     7
440
 33554687
370
    -3
100
AcDbCircle
 10
10.954253
 20
0.104759
 30
0.0
 40
0.0025
100
AcDbArc
 50
180.0
 51
0.0
  0
LINE
  5
17D
330
1F
100
AcDbEntity
  8
XR$1$TB_810_1
  6
AUSGEZOGEN
 62
     7
440
 33554687
370
    -3
100
AcDbLine
 10
10.956753
 20
0.104759
 30
0.0
 11
10.956753
 21
0.107929
 31
0.0
  0
LINE
  5
17E
330
1F
100
AcDbEntity
  8
XR$1$TB_810_1
  6
AUSGEZOGEN
 62
     7
440
 33554687
370
    -3
100
AcDbLine
 10
10.951753
 20
0.104759
 30
0.0
 11
10.951753
 21
0.107929
 31
0.0
  0
LINE
  5
17F
330
1F
100
AcDbEntity
  8
XR$1$TB_810_1
  6
AUSGEZOGEN
 62
     7
440
 33554687
370
    -3
100
AcDbLine
 10
10.951753
 20
0.076589
 30
0.0
 11
10.951753
 21
0.079759
 31
0.0
  0
LINE
  5
180
330
1F
100
AcDbEntity
  8
XR$1$TB_810_1
  6
AUSGEZOGEN
 62
     7
440
 33554687
370
    -3
100
AcDbLine
 10
10.956753
 20
0.076589
 30
0.0
 11
10.956753
 21
0.079759
 31
0.0
  0
ARC
  5
181
330
1F
100
AcDbEntity
  8
XR$1$TB_810_1
  6
AUSGEZOGEN
 62
     7
440
 33554687
370
    -3
100
AcDbCircle
 10
10.954253
 20
0.079759
 30
0.0
 40
0.0025
100
AcDbArc
 50
0.0
 51
180.0
  0
ARC
  5
182
330
1F
100
AcDbEntity
  8
XR$1$TB_810_1
  6
AUSGEZOGEN
 62
     7
440
 33554687
370
    -3
100
AcDbCircle
 10
10.954253
 20
0.064759
 30
0.0
 40
0.0025
100
AcDbArc
 50
180.0
 51
0.0
  0
LINE
  5
183
330
1F
100
AcDbEntity
  8
XR$1$TB_810_1
  6
AUSGEZOGEN
 62
     7
440
 33554687
370
    -3
100
AcDbLine
 10
10.956753
 20
0.064759
 30
0.0
 11
10.956753
 21
0.067929
 31
0.0
  0
LINE
  5
184
330
1F
100
AcDbEntity
  8
XR$1$TB_810_1
  6
AUSGEZOGEN
 62
     7
440
 33554687
370
    -3
100
AcDbLine
 10
10.951753
 20
0.064759
 30
0.0
 11
10.951753
 21
0.067929
 31
0.0
  0
LINE
  5
185
330
1F
100
AcDbEntity
  8
XR$1$TB_810_1
  6
AUSGEZOGEN
 62
     7
440
 33554687
370
    -3
100
AcDbLine
 10
10.973998
 20
0.052259
 30
0.0
 11
10.941253
 21
0.052259
 31
0.0
  0
LINE
  5
186
330
1F
100
AcDbEntity
  8
XR$1$TB_810_1
  6
AUSGEZOGEN
 62
     7
440
 33554687
370
    -3
100
AcDbLine
 10
10.941253
 20
0.132259
 30
0.0
 11
10.973998
 21
0.132259
 31
0.0
  0
LINE
  5
187
330
1F
100
AcDbEntity
  8
XR$1$TB_810_1
  6
AUSGEZOGEN
 62
     7
440
 33554687
370
    -3
100
AcDbLine
 10
10.941253
 20
0.132259
 30
0.0
 11
10.941253
 21
0.052259
 31
0.0
  0
LINE
  5
188
330
1F
100
AcDbEntity
  8
XR$1$TB_810_1
  6
AUSGEZOGEN
 62
     7
440
 33554687
370
    -3
100
AcDbLine
 10
11.047253
 20
0.132259
 30
0.0
 11
10.941253
 21
0.132259
 31
0.0
  0
LINE
  5
189
330
1F
100
AcDbEntity
  8
XR$1$TB_810_1
  6
AUSGEZOGEN
 62
     7
440
 33554687
370
    -3
100
AcDbLine
 10
10.941253
 20
0.052259
 30
0.0
 11
11.047253
 21
0.052259
 31
0.0
  0
MTEXT
  5
18A
330
1F
100
AcDbEntity
  8
XR$1$TB_810_1
  6
AUSGEZOGEN
 62
     7
440
 33554687
370
    35
100
AcDbMText
 10
10.72967
 20
0.115389
 30
0.0
 40
0.0125
 41
0.094636
 46
0.0
 71
     7
 72
     5
  1
\W0.92;Art.-Nr.: 681
  7
ARIAL
 11
0.9999999937315056
 21
-0.0001119686961200568
 31
0.0
 73
     1
 44
1.0
  0
LINE
  5
18C
102
{ACAD_REACTORS
330
18B
102
}
330
1F
100
AcDbEntity
  8
XR$1$TB_810_1
  6
AUSGEZOGEN
 62
     7
440
 33554687
370
    -3
100
AcDbLine
 10
10.818532
 20
0.121213
 30
0.0
 11
10.892825
 21
-0.011467
 31
0.0
  0
LINE
  5
18D
102
{ACAD_REACTORS
330
18B
102
}
330
1F
100
AcDbEntity
  8
XR$1$TB_810_1
  6
AUSGEZOGEN
 62
     7
440
 33554687
370
    -3
100
AcDbLine
 10
10.887695
 20
-0.002306
 30
0.0
 11
10.887328
 21
-0.001651
 31
0.0
  0
LINE
  5
18E
102
{ACAD_REACTORS
330
18B
102
}
330
1F
100
AcDbEntity
  8
XR$1$TB_810_1
  6
AUSGEZOGEN
 62
     7
440
 33554687
370
    -3
100
AcDbLine
 10
10.892825
 20
-0.011467
 30
0.0
 11
10.892825
 21
-0.011467
 31
0.0
  0
LINE
  5
18F
102
{ACAD_REACTORS
330
18B
102
}
330
1F
100
AcDbEntity
  8
XR$1$TB_810_1
  6
AUSGEZOGEN
 62
     7
440
 33554687
370
    -3
100
AcDbLine
 10
10.892825
 20
-0.011467
 30
0.0
 11
10.892825
 21
-0.011467
 31
0.0
  0
LINE
  5
190
102
{ACAD_REACTORS
330
18B
102
}
330
1F
100
AcDbEntity
  8
XR$1$TB_810_1
  6
AUSGEZOGEN
 62
     7
440
 33554687
370
    -3
100
AcDbLine
 10
10.892825
 20
-0.011467
 30
0.0
 11
10.892825
 21
-0.011467
 31
0.0
  0
LINE
  5
191
102
{ACAD_REACTORS
330
18B
102
}
330
1F
100
AcDbEntity
  8
XR$1$TB_810_1
  6
AUSGEZOGEN
 62
     7
440
 33554687
370
    -3
100
AcDbLine
 10
10.892825
 20
-0.011467
 30
0.0
 11
10.889003
 21
-0.001573
 31
0.0
  0
LINE
  5
192
102
{ACAD_REACTORS
330
18B
102
}
330
1F
100
AcDbEntity
  8
XR$1$TB_810_1
  6
AUSGEZOGEN
 62
     7
440
 33554687
370
    -3
100
AcDbLine
 10
10.889003
 20
-0.001573
 30
0.0
 11
10.886386
 21
-0.003039
 31
0.0
  0
LINE
  5
193
102
{ACAD_REACTORS
330
18B
102
}
330
1F
100
AcDbEntity
  8
XR$1$TB_810_1
  6
AUSGEZOGEN
 62
     7
440
 33554687
370
    -3
100
AcDbLine
 10
10.886386
 20
-0.003039
 30
0.0
 11
10.892825
 21
-0.011467
 31
0.0
  0
HATCH
  5
194
102
{ACAD_REACTORS
330
18B
102
}
330
1F
100
AcDbEntity
  8
XR$1$TB_810_1
  6
AUSGEZOGEN
 62
     7
440
 33554687
370
    -3
100
AcDbHatch
 10
0.0
 20
0.0
 30
0.0
210
0.0
220
0.0
230
1.0
  2
SOLID
 70
     1
 71
     0
 91
        1
 92
        3
 72
     0
 73
     1
 93
        3
 10
10.88638586425781
 20
-0.0030386962890625
 10
10.89282452392578
 20
-0.0114674682617188
 10
10.88900347900391
 20
-0.001572998046875
 97
        0
 75
     0
 76
     1
 98
        0
  0
LINE
  5
195
330
1F
100
AcDbEntity
  8
XR$1$TB_810_1
  6
STRICHPUNKT2_S5
 62
     7
440
 33554687
370
    -3
100
AcDbLine
 10
10.852253
 20
0.517274
 30
0.0
 11
11.367253
 21
0.517274
 31
0.0
  0
LINE
  5
196
330
1F
100
AcDbEntity
  8
XR$1$TB_810_1
  6
STRICHPUNKT2_S5
 62
     7
440
 33554687
370
    -3
100
AcDbLine
 10
10.852253
 20
-0.310226
 30
0.0
 11
11.367253
 21
-0.309741
 31
0.0
  0
MTEXT
  5
197
330
1F
100
AcDbEntity
  8
XR$1$TB_810_1
  6
AUSGEZOGEN
 62
     7
440
 33554687
370
    -3
100
AcDbMText
 10
11.416621
 20
-0.504772
 30
0.0
 40
0.009
 41
0.096773
 46
0.0
 71
     7
 72
     5
  1
\W0.91;STAND: Mai 2020
  7
ARIAL
 73
     1
 44
1.0
  0
VIEWPORT
  5
72
330
6E
100
AcDbEntity
 67
     1
  8
0
100
AcDbViewport
 10
0.105
 20
0.1485
 30
0.0
 40
0.2102
 41
0.2972
 68
     1
 69
     1
 12
0.105
 22
0.1485
 13
0.0
 23
0.0
 14
0.5
 24
0.5
 15
0.5
 25
0.5
 16
0.0
 26
0.0
 36
1.0
 17
0.0
 27
0.0
 37
0.0
 42
50.0
 43
0.0
 44
0.0
 45
0.2972
 50
0.0
 51
0.0
 72
   100
 90
   557152
  1

281
     0
 71
     1
 74
     0
110
0.0
120
0.0
130
0.0
111
1.0
121
0.0
131
0.0
112
0.0
122
1.0
132
0.0
 79
     0
146
0.0
170
     0
 61
     5
348
2F
292
     1
282
     1
141
0.0
142
0.0
 63
   256
361
73
  0
VIEWPORT
  5
19A
330
6E
100
AcDbEntity
 67
     1
  8
PLAN_810
  6
AUSGEZOGEN
 62
     7
370
    35
100
AcDbViewport
 10
0.105
 20
0.1485
 30
0.0
 40
0.2102
 41
0.2972
 68
     2
 69
     2
 12
0.0
 22
0.0
 13
0.0
 23
0.0
 14
1.0
 24
1.0
 15
0.0
 25
0.0
 16
0.0
 26
0.0
 36
1.0
 17
11.044645
 27
0.134066
 37
0.0
 42
50.0
 43
0.0
 44
0.0
 45
1.486
 50
0.0
 51
0.0
 72
   100
331
10
331
76
331
78
 90
   557280
  1

281
     0
 71
     1
 74
     0
110
0.0
120
0.0
130
0.0
111
1.0
121
0.0
131
0.0
112
0.0
122
1.0
132
0.0
 79
     0
146
0.0
170
     0
 61
     5
348
2F
292
     1
282
     1
141
0.0
142
0.0
 63
   256
361
19B
  0
ENDSEC
  0
SECTION
  2
OBJECTS
  0
DICTIONARY
  5
C
330
0
100
AcDbDictionary
281
     1
  3
ACAD_DETAILVIEWSTYLE
350
1D3
  3
ACAD_GROUP
350
D
  3
ACAD_LAYOUT
350
1A
  3
ACAD_MATERIAL
350
43
  3
ACAD_MLEADERSTYLE
350
6B
  3
ACAD_MLINESTYLE
350
17
  3
ACAD_PLOTSETTINGS
350
19
  3
ACAD_PLOTSTYLENAME
350
E
  3
ACAD_SCALELIST
350
47
  3
ACAD_SECTIONVIEWSTYLE
350
1D4
  3
ACAD_TABLESTYLE
350
69
  3
ACAD_VISUALSTYLE
350
2A
  3
ACDB_RECOMPOSE_DATA
350
1D0
  3
AcDbVariableDictionary
350
19C
  0
SUN
  5
6D
330
29
100
AcDbSun
 90
        1
290
     0
 63
     7
421
 16777215
 40
1.0
291
     1
 91
  2455826
 92
 54000000
292
     0
 70
     2
 71
   256
280
     1
  0
DICTIONARY
  5
198
330
1F
100
AcDbDictionary
280
     1
281
     1
  3
ACAD_SORTENTS
360
199
  0
SUN
  5
73
330
72
100
AcDbSun
 90
        1
290
     0
 63
     7
421
 16777215
 40
1.0
291
     1
 91
  2455826
 92
 54000000
292
     0
 70
     2
 71
   256
280
     1
  0
SUN
  5
19B
330
19A
100
AcDbSun
 90
        1
290
     0
 63
     7
421
 16777215
 40
1.0
291
     1
 91
  2455826
 92
 54000000
292
     0
 70
     2
 71
   256
280
     1
  0
DICTIONARY
  5
1D3
102
{ACAD_REACTORS
330
C
102
}
330
C
100
AcDbDictionary
281
     1
  0
DICTIONARY
  5
D
102
{ACAD_REACTORS
330
C
102
}
330
C
100
AcDbDictionary
281
     1
  3
VERBUNDBLOCK_0
350
83
  3
VERBUNDBLOCK_1
350
18B
  0
DICTIONARY
  5
1A
102
{ACAD_REACTORS
330
C
102
}
330
C
100
AcDbDictionary
281
     1
  3
K20 Klammersystem vertikal 11
350
6F
  3
Model
350
22
  0
DICTIONARY
  5
43
102
{ACAD_REACTORS
330
C
102
}
330
C
100
AcDbDictionary
281
     1
  3
ByBlock
350
45
  3
ByLayer
350
44
  3
Global
350
46
  0
DICTIONARY
  5
6B
102
{ACAD_REACTORS
330
C
102
}
330
C
100
AcDbDictionary
281
     1
  3
Standard
350
6C
  0
DICTIONARY
  5
17
102
{ACAD_REACTORS
330
C
102
}
330
C
100
AcDbDictionary
281
     1
  3
Standard
350
18
  0
DICTIONARY
  5
19
102
{ACAD_REACTORS
330
C
102
}
330
C
100
AcDbDictionary
281
     1
  0
ACDBDICTIONARYWDFLT
  5
E
102
{ACAD_REACTORS
330
C
102
}
330
C
100
AcDbDictionary
281
     1
  3
Normal
350
F
100
AcDbDictionaryWithDefault
340
F
  0
DICTIONARY
  5
47
102
{ACAD_REACTORS
330
C
102
}
330
C
100
AcDbDictionary
281
     1
  3
A0
350
48
  3
A1
350
49
  3
A2
350
4A
  3
A3
350
4B
  3
A4
350
4C
  3
A5
350
4D
  3
A6
350
4E
  3
A7
350
4F
  3
A8
350
50
  3
A9
350
51
  3
B0
350
52
  3
B1
350
53
  3
B2
350
54
  3
B3
350
55
  3
B4
350
56
  3
B5
350
57
  3
B6
350
58
  3
B7
350
59
  3
B8
350
5A
  3
B9
350
5B
  3
C0
350
5C
  3
C1
350
5D
  3
C2
350
5E
  3
C3
350
5F
  3
C4
350
60
  3
C5
350
61
  3
C6
350
62
  3
C7
350
63
  3
C8
350
64
  3
C9
350
65
  3
D0
350
66
  3
D1
350
67
  3
D2
350
68
  0
DICTIONARY
  5
1D4
102
{ACAD_REACTORS
330
C
102
}
330
C
100
AcDbDictionary
281
     1
  0
DICTIONARY
  5
69
102
{ACAD_REACTORS
330
C
102
}
330
C
100
AcDbDictionary
281
     1
  3
Standard
350
6A
  0
DICTIONARY
  5
2A
102
{ACAD_REACTORS
330
C
102
}
330
C
100
AcDbDictionary
281
     1
  3
2dWireframe
350
2F
  3
Basic
350
32
  3
Brighten
350
36
  3
ColorChange
350
3A
  3
Conceptual
350
34
  3
Dim
350
35
  3
EdgeColorOff
350
3D
  3
Facepattern
350
39
  3
Flat
350
2B
  3
FlatWithEdges
350
2C
  3
Gouraud
350
2D
  3
GouraudWithEdges
350
2E
  3
Hidden
350
31
  3
JitterOff
350
3B
  3
Linepattern
350
38
  3
OverhangOff
350
3C
  3
Realistic
350
33
  3
Shaded
350
42
  3
Shaded with edges
350
41
  3
Shades of Gray
350
3E
  3
Sketchy
350
3F
  3
Thicken
350
37
  3
Wireframe
350
30
  3
X-Ray
350
40
  0
XRECORD
  5
1D0
102
{ACAD_REACTORS
330
C
102
}
330
C
100
AcDbXrecord
280
     1
 90
        1
330
6A
  0
DICTIONARY
  5
19C
102
{ACAD_REACTORS
330
C
102
}
330
C
100
AcDbDictionary
281
     1
  3
CANNOSCALE
350
19D
  3
CMLEADERSTYLE
350
1D2
  3
CTABLESTYLE
350
1D1
  0
SORTENTSTABLE
  5
199
102
{ACAD_REACTORS
330
198
102
}
330
198
100
AcDbSortentsTable
330
1F
331
7E
  5
90
331
7F
  5
91
331
80
  5
92
331
81
  5
7E
331
82
  5
7F
331
84
  5
80
331
85
  5
81
331
86
  5
82
331
87
  5
84
331
88
  5
85
331
89
  5
86
331
8A
  5
87
331
8B
  5
88
331
8C
  5
89
331
8D
  5
8A
331
8E
  5
8B
331
8F
  5
8C
331
90
  5
8D
331
91
  5
8E
331
92
  5
93
331
93
  5
94
331
94
  5
95
331
95
  5
96
331
96
  5
97
331
97
  5
98
331
98
  5
99
331
99
  5
9A
331
9A
  5
9B
331
9B
  5
9C
331
9C
  5
9D
331
9D
  5
9E
331
9E
  5
9F
331
9F
  5
A0
331
A0
  5
A1
331
A1
  5
A2
331
A2
  5
A3
331
A3
  5
A4
331
A4
  5
A5
331
A5
  5
A6
331
A6
  5
A7
331
A7
  5
A8
331
A8
  5
A9
331
A9
  5
AA
331
AA
  5
AB
331
AB
  5
AC
331
AC
  5
AD
331
AD
  5
AE
331
AE
  5
AF
331
AF
  5
B0
331
B0
  5
B1
331
B1
  5
B2
331
B2
  5
B3
331
B3
  5
B4
331
B4
  5
B5
331
B5
  5
B6
331
B6
  5
B7
331
B7
  5
B8
331
B8
  5
B9
331
B9
  5
BA
331
BA
  5
BB
331
BB
  5
BC
331
BC
  5
BD
331
BD
  5
BE
331
BE
  5
BF
331
BF
  5
C0
331
C0
  5
C1
331
C1
  5
C2
331
C2
  5
C3
331
C3
  5
C4
331
C4
  5
C5
331
C5
  5
C6
331
C6
  5
C7
331
C7
  5
C8
331
C8
  5
C9
331
C9
  5
CA
331
CA
  5
CB
331
CB
  5
CC
331
CC
  5
CD
331
CD
  5
CE
331
CE
  5
CF
331
CF
  5
D0
331
D0
  5
D1
331
D1
  5
D2
331
D2
  5
D3
331
D3
  5
D4
331
D4
  5
D5
331
D5
  5
D6
331
D6
  5
D7
331
D7
  5
D8
331
D8
  5
D9
331
D9
  5
DA
331
DA
  5
DB
331
DB
  5
DC
331
DC
  5
DD
331
DD
  5
DE
331
DE
  5
DF
331
DF
  5
E0
331
E0
  5
E1
331
E1
  5
E2
331
E2
  5
E3
331
E3
  5
E4
331
E4
  5
E5
331
E5
  5
E6
331
E6
  5
E7
331
E7
  5
E8
331
E8
  5
E9
331
E9
  5
EA
331
EA
  5
EB
331
EB
  5
EC
331
EC
  5
ED
331
ED
  5
EE
331
EE
  5
EF
331
EF
  5
F0
331
F0
  5
F1
331
F1
  5
F2
331
F2
  5
F3
331
F3
  5
F4
331
F4
  5
F5
331
F5
  5
F6
331
F6
  5
F7
331
F7
  5
F8
331
F8
  5
F9
331
F9
  5
FA
331
FA
  5
FB
331
FB
  5
FC
331
FC
  5
FD
331
FD
  5
FE
331
FE
  5
FF
331
FF
  5
100
331
100
  5
101
331
101
  5
102
331
102
  5
103
331
103
  5
104
331
104
  5
105
331
105
  5
106
331
106
  5
107
331
107
  5
108
331
108
  5
109
331
109
  5
10A
331
10A
  5
10B
331
10B
  5
10C
331
10C
  5
10D
331
10D
  5
10E
331
10E
  5
10F
331
10F
  5
110
331
110
  5
111
331
111
  5
112
331
112
  5
113
331
113
  5
114
331
114
  5
115
331
115
  5
116
331
116
  5
117
331
117
  5
118
331
118
  5
119
331
119
  5
11A
331
11A
  5
11B
331
11B
  5
11C
331
11C
  5
11D
331
11D
  5
11E
331
11E
  5
11F
331
11F
  5
120
331
120
  5
121
331
121
  5
122
331
122
  5
123
331
123
  5
124
331
124
  5
125
331
125
  5
126
331
126
  5
127
331
127
  5
128
331
128
  5
129
331
129
  5
12A
331
12A
  5
12B
331
12B
  5
12C
331
12C
  5
12D
331
12D
  5
12E
331
12E
  5
12F
331
12F
  5
130
331
130
  5
131
331
131
  5
132
331
132
  5
133
331
133
  5
134
331
134
  5
135
331
135
  5
136
331
136
  5
137
331
137
  5
138
331
138
  5
139
331
139
  5
13A
331
13A
  5
13B
331
13B
  5
13C
331
13C
  5
13D
331
13D
  5
13E
331
13E
  5
13F
331
13F
  5
140
331
140
  5
141
331
141
  5
142
331
142
  5
143
331
143
  5
144
331
144
  5
145
331
145
  5
146
331
146
  5
147
331
147
  5
148
331
148
  5
149
331
149
  5
14A
331
14A
  5
14B
331
14B
  5
14C
331
14C
  5
14D
331
14D
  5
14E
331
14E
  5
14F
331
14F
  5
150
331
150
  5
151
331
151
  5
152
331
152
  5
153
331
153
  5
154
331
154
  5
155
331
155
  5
156
331
156
  5
157
331
157
  5
158
331
158
  5
159
331
159
  5
15A
331
15A
  5
15B
331
15B
  5
15C
331
15C
  5
15D
331
15D
  5
15E
331
15E
  5
15F
331
15F
  5
160
331
160
  5
161
331
161
  5
162
331
162
  5
163
331
163
  5
164
331
164
  5
165
331
165
  5
166
331
166
  5
167
331
167
  5
168
331
168
  5
169
331
169
  5
16A
331
16A
  5
16B
331
16B
  5
16C
331
16C
  5
16D
331
16D
  5
16E
331
16E
  5
16F
331
16F
  5
170
331
170
  5
171
331
171
  5
172
331
172
  5
173
331
173
  5
174
331
174
  5
175
331
175
  5
176
331
176
  5
177
331
177
  5
178
331
178
  5
179
331
179
  5
17A
331
17A
  5
17B
331
17B
  5
17C
331
17C
  5
17D
331
17D
  5
17E
331
17E
  5
17F
331
17F
  5
180
331
180
  5
181
331
181
  5
182
331
182
  5
183
331
183
  5
184
331
184
  5
185
331
185
  5
186
331
186
  5
187
331
187
  5
188
331
188
  5
189
331
189
  5
18A
331
18A
  5
18C
331
18C
  5
18D
331
18D
  5
18E
331
18E
  5
18F
331
18F
  5
190
331
190
  5
191
331
191
  5
192
331
192
  5
193
331
193
  5
194
331
194
  5
8F
  0
GROUP
  5
83
102
{ACAD_REACTORS
330
D
102
}
330
D
100
AcDbGroup
300

 70
     0
 71
     1
340
84
340
85
  0
GROUP
  5
18B
102
{ACAD_REACTORS
330
D
102
}
330
D
100
AcDbGroup
300

 70
     0
 71
     1
340
18C
340
18D
340
18E
340
18F
340
190
340
191
340
192
340
193
340
194
  0
LAYOUT
  5
6F
102
{ACAD_REACTORS
330
1A
102
}
330
1A
100
AcDbPlotSettings
  1

  2
none_device
  4
none_user_media
  6

 40
0.0
 41
0.0
 42
0.0
 43
0.0
 44
297.0
 45
209.9
 46
0.0
 47
0.0
 48
0.0
 49
0.0
140
0.0
141
0.0
142
1000.0
143
1.0
 70
   688
 72
     1
 73
     1
 74
     5
  7

 75
    33
 76
     0
 77
     2
 78
   300
147
1000.0
148
0.0
149
0.0
100
AcDbLayout
  1
K20 Klammersystem vertikal 11
 70
     0
 71
     1
 10
-0.0001
 20
-0.0001
 11
0.2101
 21
0.2971
 12
0.0
 22
0.0
 32
0.0
 14
-0.0001
 24
-0.0001
 34
0.0
 15
0.2101
 25
0.2971
 35
0.0
146
0.0
 13
0.0
 23
0.0
 33
0.0
 16
1.0
 26
0.0
 36
0.0
 17
0.0
 27
1.0
 37
0.0
 76
     0
330
6E
331
72
  0
LAYOUT
  5
22
102
{ACAD_REACTORS
330
1A
102
}
330
1A
100
AcDbPlotSettings
  1

  2
none_device
  4
Letter_(8.50_x_11.00_Inches)
  6

 40
6.35
 41
6.35
 42
6.350005
 43
6.350005
 44
215.9
 45
279.4
 46
0.0
 47
0.0
 48
0.0
 49
0.0
140
0.0
141
0.0
142
1.0
143
1.0
 70
  1712
 72
     0
 73
     0
 74
     0
  7

 75
     0
 76
     0
 77
     2
 78
   300
147
1.0
148
0.0
149
0.0
100
AcDbLayout
  1
Model
 70
     1
 71
     0
 10
10.519645
 20
-0.608434
 11
11.569645
 21
0.876566
 12
0.0
 22
0.0
 32
0.0
 14
10.519645
 24
-0.608434
 34
10.519645
 15
11.569645
 25
0.876566
 35
11.569645
146
0.0
 13
0.0
 23
0.0
 33
0.0
 16
1.0
 26
0.0
 36
0.0
 17
0.0
 27
1.0
 37
0.0
 76
     0
330
1F
331
29
  0
MATERIAL
  5
45
102
{ACAD_REACTORS
330
43
102
}
330
43
100
AcDbMaterial
  1
ByBlock
 72
     1
 94
      127
  0
MATERIAL
  5
44
102
{ACAD_REACTORS
330
43
102
}
330
43
100
AcDbMaterial
  1
ByLayer
 72
     1
 94
      127
  0
MATERIAL
  5
46
102
{ACAD_REACTORS
330
43
102
}
330
43
100
AcDbMaterial
  1
Global
 72
     1
 94
      127
  0
MLEADERSTYLE
  5
6C
102
{ACAD_REACTORS
330
6B
102
}
330
6B
100
AcDbMLeaderStyle
179
     2
170
     2
171
     1
172
     0
 90
        2
 40
0.0
 41
0.0
173
     1
 91
-1056964608
340
14
 92
       -2
290
     1
 42
0.09
291
     1
 43
0.36
  3
Standard
341
0
 44
0.18
300

342
11
174
     1
178
     6
175
     1
176
     0
 93
-1056964608
 45
0.18
292
     0
297
     0
 46
0.18
343
0
 94
-1056964608
 47
1.0
 49
1.0
140
1.0
293
     1
141
0.0
294
     1
177
     0
142
1.0
295
     0
296
     0
143
0.125
271
     0
272
     9
273
     9
  0
MLINESTYLE
  5
18
102
{ACAD_REACTORS
330
17
102
}
330
17
100
AcDbMlineStyle
  2
Standard
 70
     0
  3

 62
   256
 51
90.0
 52
90.0
 71
     2
 49
0.5
 62
   256
  6
BYLAYER
 49
-0.5
 62
   256
  6
BYLAYER
  0
ACDBPLACEHOLDER
  5
F
102
{ACAD_REACTORS
330
E
102
}
330
E
  0
SCALE
  5
48
102
{ACAD_REACTORS
330
47
102
}
330
47
100
AcDbScale
 70
     0
300
1:1
140
1.0
141
1.0
290
     1
  0
SCALE
  5
49
102
{ACAD_REACTORS
330
47
102
}
330
47
100
AcDbScale
 70
     0
300
1:2
140
1.0
141
2.0
290
     0
  0
SCALE
  5
4A
102
{ACAD_REACTORS
330
47
102
}
330
47
100
AcDbScale
 70
     0
300
1:4
140
1.0
141
4.0
290
     0
  0
SCALE
  5
4B
102
{ACAD_REACTORS
330
47
102
}
330
47
100
AcDbScale
 70
     0
300
1:5
140
1.0
141
5.0
290
     0
  0
SCALE
  5
4C
102
{ACAD_REACTORS
330
47
102
}
330
47
100
AcDbScale
 70
     0
300
1:8
140
1.0
141
8.0
290
     0
  0
SCALE
  5
4D
102
{ACAD_REACTORS
330
47
102
}
330
47
100
AcDbScale
 70
     0
300
1:10
140
1.0
141
10.0
290
     0
  0
SCALE
  5
4E
102
{ACAD_REACTORS
330
47
102
}
330
47
100
AcDbScale
 70
     0
300
1:16
140
1.0
141
16.0
290
     0
  0
SCALE
  5
4F
102
{ACAD_REACTORS
330
47
102
}
330
47
100
AcDbScale
 70
     0
300
1:20
140
1.0
141
20.0
290
     0
  0
SCALE
  5
50
102
{ACAD_REACTORS
330
47
102
}
330
47
100
AcDbScale
 70
     0
300
1:30
140
1.0
141
30.0
290
     0
  0
SCALE
  5
51
102
{ACAD_REACTORS
330
47
102
}
330
47
100
AcDbScale
 70
     0
300
1:40
140
1.0
141
40.0
290
     0
  0
SCALE
  5
52
102
{ACAD_REACTORS
330
47
102
}
330
47
100
AcDbScale
 70
     0
300
1:50
140
1.0
141
50.0
290
     0
  0
SCALE
  5
53
102
{ACAD_REACTORS
330
47
102
}
330
47
100
AcDbScale
 70
     0
300
1:100
140
1.0
141
100.0
290
     0
  0
SCALE
  5
54
102
{ACAD_REACTORS
330
47
102
}
330
47
100
AcDbScale
 70
     0
300
2:1
140
2.0
141
1.0
290
     0
  0
SCALE
  5
55
102
{ACAD_REACTORS
330
47
102
}
330
47
100
AcDbScale
 70
     0
300
4:1
140
4.0
141
1.0
290
     0
  0
SCALE
  5
56
102
{ACAD_REACTORS
330
47
102
}
330
47
100
AcDbScale
 70
     0
300
8:1
140
8.0
141
1.0
290
     0
  0
SCALE
  5
57
102
{ACAD_REACTORS
330
47
102
}
330
47
100
AcDbScale
 70
     0
300
10:1
140
10.0
141
1.0
290
     0
  0
SCALE
  5
58
102
{ACAD_REACTORS
330
47
102
}
330
47
100
AcDbScale
 70
     0
300
100:1
140
100.0
141
1.0
290
     0
  0
SCALE
  5
59
102
{ACAD_REACTORS
330
47
102
}
330
47
100
AcDbScale
 70
     0
300
1/128" = 1'-0"
140
0.007812
141
12.0
290
     0
  0
SCALE
  5
5A
102
{ACAD_REACTORS
330
47
102
}
330
47
100
AcDbScale
 70
     0
300
1/64" = 1'-0"
140
0.015625
141
12.0
290
     0
  0
SCALE
  5
5B
102
{ACAD_REACTORS
330
47
102
}
330
47
100
AcDbScale
 70
     0
300
1/32" = 1'-0"
140
0.03125
141
12.0
290
     0
  0
SCALE
  5
5C
102
{ACAD_REACTORS
330
47
102
}
330
47
100
AcDbScale
 70
     0
300
1/16" = 1'-0"
140
0.0625
141
12.0
290
     0
  0
SCALE
  5
5D
102
{ACAD_REACTORS
330
47
102
}
330
47
100
AcDbScale
 70
     0
300
3/32" = 1'-0"
140
0.09375
141
12.0
290
     0
  0
SCALE
  5
5E
102
{ACAD_REACTORS
330
47
102
}
330
47
100
AcDbScale
 70
     0
300
1/8" = 1'-0"
140
0.125
141
12.0
290
     0
  0
SCALE
  5
5F
102
{ACAD_REACTORS
330
47
102
}
330
47
100
AcDbScale
 70
     0
300
3/16" = 1'-0"
140
0.1875
141
12.0
290
     0
  0
SCALE
  5
60
102
{ACAD_REACTORS
330
47
102
}
330
47
100
AcDbScale
 70
     0
300
1/4" = 1'-0"
140
0.25
141
12.0
290
     0
  0
SCALE
  5
61
102
{ACAD_REACTORS
330
47
102
}
330
47
100
AcDbScale
 70
     0
300
3/8" = 1'-0"
140
0.375
141
12.0
290
     0
  0
SCALE
  5
62
102
{ACAD_REACTORS
330
47
102
}
330
47
100
AcDbScale
 70
     0
300
1/2" = 1'-0"
140
0.5
141
12.0
290
     0
  0
SCALE
  5
63
102
{ACAD_REACTORS
330
47
102
}
330
47
100
AcDbScale
 70
     0
300
3/4" = 1'-0"
140
0.75
141
12.0
290
     0
  0
SCALE
  5
64
102
{ACAD_REACTORS
330
47
102
}
330
47
100
AcDbScale
 70
     0
300
1" = 1'-0"
140
1.0
141
12.0
290
     0
  0
SCALE
  5
65
102
{ACAD_REACTORS
330
47
102
}
330
47
100
AcDbScale
 70
     0
300
1-1/2" = 1'-0"
140
1.5
141
12.0
290
     0
  0
SCALE
  5
66
102
{ACAD_REACTORS
330
47
102
}
330
47
100
AcDbScale
 70
     0
300
3" = 1'-0"
140
3.0
141
12.0
290
     0
  0
SCALE
  5
67
102
{ACAD_REACTORS
330
47
102
}
330
47
100
AcDbScale
 70
     0
300
6" = 1'-0"
140
6.0
141
12.0
290
     0
  0
SCALE
  5
68
102
{ACAD_REACTORS
330
47
102
}
330
47
100
AcDbScale
 70
     0
300
1'-0" = 1'-0"
140
12.0
141
12.0
290
     0
  0
TABLESTYLE
  5
6A
102
{ACAD_REACTORS
330
69
102
}
102
{ACAD_XDICTIONARY
360
1CE
102
}
330
69
100
AcDbTableStyle
  3
Standard
 70
     0
 71
     0
 40
0.06
 41
0.06
280
     0
281
     0
  7
Standard
140
0.18
170
     2
 62
     0
 63
   257
283
     0
 90
        4
 91
        0
  1

274
    -2
284
     1
 64
     0
275
    -2
285
     1
 65
     0
276
    -2
286
     1
 66
     0
277
    -2
287
     1
 67
     0
278
    -2
288
     1
 68
     0
279
    -2
289
     1
 69
     0
  7
Standard
140
0.25
170
     5
 62
     0
 63
   257
283
     0
 90
        4
 91
        0
  1

274
    -2
284
     1
 64
     0
275
    -2
285
     1
 65
     0
276
    -2
286
     1
 66
     0
277
    -2
287
     1
 67
     0
278
    -2
288
     1
 68
     0
279
    -2
289
     1
 69
     0
  7
Standard
140
0.18
170
     5
 62
     0
 63
   257
283
     0
 90
        4
 91
        0
  1

274
    -2
284
     1
 64
     0
275
    -2
285
     1
 65
     0
276
    -2
286
     1
 66
     0
277
    -2
287
     1
 67
     0
278
    -2
288
     1
 68
     0
279
    -2
289
     1
 69
     0
  0
VISUALSTYLE
  5
2F
102
{ACAD_REACTORS
330
2A
102
}
102
{ACAD_XDICTIONARY
360
1A6
102
}
330
2A
100
AcDbVisualStyle
  2
2dWireframe
 70
     4
177
     2
291
     0
 71
     0
176
     1
 72
     2
176
     1
 73
     0
176
     1
 90
        0
176
     1
 40
0.6
176
     1
 41
30.0
176
     1
 62
     5
 63
     7
421
 16777215
176
     1
 74
     1
176
     1
 91
        4
176
     1
 64
     7
176
     1
 65
   257
176
     1
 75
     1
176
     1
175
     1
176
     1
 42
1.0
176
     1
 92
        0
176
     1
 66
   257
176
     1
 43
1.0
176
     1
 76
     1
176
     1
 77
     6
176
     1
 78
     2
176
     1
 67
     7
176
     1
 79
     5
176
     1
170
     0
176
     1
171
     0
176
     1
290
     0
176
     1
 93
        1
176
     1
 44
0.0
176
     1
173
     0
176
     1
  0
VISUALSTYLE
  5
32
102
{ACAD_REACTORS
330
2A
102
}
102
{ACAD_XDICTIONARY
360
1AC
102
}
330
2A
100
AcDbVisualStyle
  2
Basic
 70
     7
177
     2
291
     1
 71
     1
176
     1
 72
     0
176
     1
 73
     1
176
     1
 90
        0
176
     1
 40
0.6
176
     1
 41
30.0
176
     1
 62
     5
 63
     7
421
 16777215
176
     1
 74
     0
176
     1
 91
        4
176
     1
 64
     7
176
     1
 65
   257
176
     1
 75
     1
176
     1
175
     1
176
     1
 42
1.0
176
     1
 92
        8
176
     1
 66
     7
176
     1
 43
1.0
176
     1
 76
     1
176
     1
 77
     6
176
     1
 78
     2
176
     1
 67
     7
176
     1
 79
     5
176
     1
170
     0
176
     1
171
     0
176
     1
290
     0
176
     1
 93
        1
176
     1
 44
0.0
176
     1
173
     0
176
     1
  0
VISUALSTYLE
  5
36
102
{ACAD_REACTORS
330
2A
102
}
102
{ACAD_XDICTIONARY
360
1B4
102
}
330
2A
100
AcDbVisualStyle
  2
Brighten
 70
    12
177
     2
291
     1
 71
     2
176
     1
 72
     2
176
     1
 73
     0
176
     1
 90
        0
176
     1
 40
0.6
176
     1
 41
30.0
176
     1
 62
     5
 63
     7
421
 16777215
176
     1
 74
     1
176
     1
 91
        4
176
     1
 64
     7
176
     1
 65
   257
176
     1
 75
     1
176
     1
175
     1
176
     1
 42
1.0
176
     1
 92
        8
176
     1
 66
     7
176
     1
 43
1.0
176
     1
 76
     1
176
     1
 77
     6
176
     1
 78
     2
176
     1
 67
     7
176
     1
 79
     5
176
     1
170
     0
176
     1
171
     0
176
     1
290
     0
176
     1
 93
        1
176
     1
 44
50.0
176
     1
173
     0
176
     1
  0
VISUALSTYLE
  5
3A
102
{ACAD_REACTORS
330
2A
102
}
102
{ACAD_XDICTIONARY
360
1BC
102
}
330
2A
100
AcDbVisualStyle
  2
ColorChange
 70
    16
177
     2
291
     1
 71
     2
176
     1
 72
     2
176
     1
 73
     3
176
     1
 90
        0
176
     1
 40
0.6
176
     1
 41
30.0
176
     1
 62
     5
 63
     8
421
  8421504
176
     1
 74
     1
176
     1
 91
        4
176
     1
 64
     7
176
     1
 65
   257
176
     1
 75
     1
176
     1
175
     1
176
     1
 42
1.0
176
     1
 92
        8
176
     1
 66
     8
424
  8421504
176
     1
 43
1.0
176
     1
 76
     1
176
     1
 77
     6
176
     1
 78
     2
176
     1
 67
     7
176
     1
 79
     5
176
     1
170
     0
176
     1
171
     0
176
     1
290
     0
176
     1
 93
        1
176
     1
 44
0.0
176
     1
173
     0
176
     1
  0
VISUALSTYLE
  5
34
102
{ACAD_REACTORS
330
2A
102
}
102
{ACAD_XDICTIONARY
360
1B0
102
}
330
2A
100
AcDbVisualStyle
  2
Conceptual
 70
     9
177
     2
291
     0
 71
     3
176
     1
 72
     2
176
     1
 73
     0
176
     1
 90
        0
176
     1
 40
0.6
176
     1
 41
30.0
176
     1
 62
     5
 63
     7
421
 16777215
176
     1
 74
     2
176
     1
 91
        2
176
     1
 64
     7
176
     1
 65
   257
176
     1
 75
     1
176
     1
175
     1
176
     1
 42
179.0
176
     1
 92
        8
176
     1
 66
     7
176
     1
 43
1.0
176
     1
 76
     1
176
     1
 77
     6
176
     1
 78
     2
176
     1
 67
     7
176
     1
 79
     3
176
     1
170
     0
176
     1
171
     0
176
     1
290
     0
176
     1
 93
        1
176
     1
 44
0.0
176
     1
173
     0
176
     1
  0
VISUALSTYLE
  5
35
102
{ACAD_REACTORS
330
2A
102
}
102
{ACAD_XDICTIONARY
360
1B2
102
}
330
2A
100
AcDbVisualStyle
  2
Dim
 70
    11
177
     2
291
     1
 71
     2
176
     1
 72
     2
176
     1
 73
     0
176
     1
 90
        0
176
     1
 40
0.6
176
     1
 41
30.0
176
     1
 62
     5
 63
     7
421
 16777215
176
     1
 74
     1
176
     1
 91
        4
176
     1
 64
     7
176
     1
 65
   257
176
     1
 75
     1
176
     1
175
     1
176
     1
 42
1.0
176
     1
 92
        8
176
     1
 66
     7
176
     1
 43
1.0
176
     1
 76
     1
176
     1
 77
     6
176
     1
 78
     2
176
     1
 67
     7
176
     1
 79
     5
176
     1
170
     0
176
     1
171
     0
176
     1
290
     0
176
     1
 93
        1
176
     1
 44
-50.0
176
     1
173
     0
176
     1
  0
VISUALSTYLE
  5
3D
102
{ACAD_REACTORS
330
2A
102
}
102
{ACAD_XDICTIONARY
360
1C2
102
}
330
2A
100
AcDbVisualStyle
  2
EdgeColorOff
 70
    22
177
     2
291
     1
 71
     2
176
     0
 72
     2
176
     0
 73
     0
176
     0
 90
        0
176
     0
 40
0.6
176
     0
 41
30.0
176
     0
 62
     5
 63
     7
421
 16777215
176
     0
 74
     1
176
     0
 91
        4
176
     0
 64
     7
176
     0
 65
   257
176
     0
 75
     1
176
     0
175
     1
176
     0
 42
1.0
176
     0
 92
        8
176
     2
 66
     7
176
     0
 43
1.0
176
     0
 76
     1
176
     0
 77
     6
176
     0
 78
     2
176
     0
 67
     7
176
     0
 79
     5
176
     0
170
     0
176
     0
171
     0
176
     0
290
     0
176
     0
 93
        1
176
     0
 44
0.0
176
     0
173
     0
176
     0
  0
VISUALSTYLE
  5
39
102
{ACAD_REACTORS
330
2A
102
}
102
{ACAD_XDICTIONARY
360
1BA
102
}
330
2A
100
AcDbVisualStyle
  2
Facepattern
 70
    15
177
     2
291
     1
 71
     2
176
     1
 72
     2
176
     1
 73
     0
176
     1
 90
        0
176
     1
 40
0.6
176
     1
 41
30.0
176
     1
 62
     5
 63
     7
421
 16777215
176
     1
 74
     1
176
     1
 91
        4
176
     1
 64
     7
176
     1
 65
   257
176
     1
 75
     1
176
     1
175
     1
176
     1
 42
1.0
176
     1
 92
        8
176
     1
 66
     7
176
     1
 43
1.0
176
     1
 76
     1
176
     1
 77
     6
176
     1
 78
     2
176
     1
 67
     7
176
     1
 79
     5
176
     1
170
     0
176
     1
171
     0
176
     1
290
     0
176
     1
 93
        1
176
     1
 44
0.0
176
     1
173
     0
176
     1
  0
VISUALSTYLE
  5
2B
102
{ACAD_REACTORS
330
2A
102
}
102
{ACAD_XDICTIONARY
360
19E
102
}
330
2A
100
AcDbVisualStyle
  2
Flat
 70
     0
177
     2
291
     1
 71
     2
176
     1
 72
     1
176
     1
 73
     1
176
     1
 90
        2
176
     1
 40
0.6
176
     1
 41
30.0
176
     1
 62
     5
 63
     7
421
 16777215
176
     1
 74
     0
176
     1
 91
        0
176
     1
 64
     7
176
     1
 65
   257
176
     1
 75
     1
176
     1
175
     1
176
     1
 42
1.0
176
     1
 92
        8
176
     1
 66
     7
176
     1
 43
1.0
176
     1
 76
     1
176
     1
 77
     6
176
     1
 78
     2
176
     1
 67
     7
176
     1
 79
     5
176
     1
170
     0
176
     1
171
     0
176
     1
290
     0
176
     1
 93
       13
176
     1
 44
0.0
176
     1
173
     0
176
     1
  0
VISUALSTYLE
  5
2C
102
{ACAD_REACTORS
330
2A
102
}
102
{ACAD_XDICTIONARY
360
1A0
102
}
330
2A
100
AcDbVisualStyle
  2
FlatWithEdges
 70
     1
177
     2
291
     1
 71
     2
176
     1
 72
     1
176
     1
 73
     1
176
     1
 90
        2
176
     1
 40
0.6
176
     1
 41
30.0
176
     1
 62
     5
 63
     7
421
 16777215
176
     1
 74
     1
176
     1
 91
        0
176
     1
 64
     7
176
     1
 65
   257
176
     1
 75
     1
176
     1
175
     1
176
     1
 42
1.0
176
     1
 92
        0
176
     1
 66
   257
176
     1
 43
1.0
176
     1
 76
     1
176
     1
 77
     6
176
     1
 78
     2
176
     1
 67
     7
176
     1
 79
     5
176
     1
170
     0
176
     1
171
     0
176
     1
290
     0
176
     1
 93
       13
176
     1
 44
0.0
176
     1
173
     0
176
     1
  0
VISUALSTYLE
  5
2D
102
{ACAD_REACTORS
330
2A
102
}
102
{ACAD_XDICTIONARY
360
1A2
102
}
330
2A
100
AcDbVisualStyle
  2
Gouraud
 70
     2
177
     2
291
     1
 71
     2
176
     1
 72
     2
176
     1
 73
     1
176
     1
 90
        2
176
     1
 40
0.6
176
     1
 41
30.0
176
     1
 62
     5
 63
     7
421
 16777215
176
     1
 74
     0
176
     1
 91
        0
176
     1
 64
     7
176
     1
 65
   257
176
     1
 75
     1
176
     1
175
     1
176
     1
 42
1.0
176
     1
 92
        0
176
     1
 66
     7
176
     1
 43
1.0
176
     1
 76
     1
176
     1
 77
     6
176
     1
 78
     2
176
     1
 67
     7
176
     1
 79
     5
176
     1
170
     0
176
     1
171
     0
176
     1
290
     0
176
     1
 93
       13
176
     1
 44
0.0
176
     1
173
     0
176
     1
  0
VISUALSTYLE
  5
2E
102
{ACAD_REACTORS
330
2A
102
}
102
{ACAD_XDICTIONARY
360
1A4
102
}
330
2A
100
AcDbVisualStyle
  2
GouraudWithEdges
 70
     3
177
     2
291
     1
 71
     2
176
     1
 72
     2
176
     1
 73
     1
176
     1
 90
        2
176
     1
 40
0.6
176
     1
 41
30.0
176
     1
 62
     5
 63
     7
421
 16777215
176
     1
 74
     1
176
     1
 91
        0
176
     1
 64
     7
176
     1
 65
   257
176
     1
 75
     1
176
     1
175
     1
176
     1
 42
1.0
176
     1
 92
        0
176
     1
 66
   257
176
     1
 43
1.0
176
     1
 76
     1
176
     1
 77
     6
176
     1
 78
     2
176
     1
 67
     7
176
     1
 79
     5
176
     1
170
     0
176
     1
171
     0
176
     1
290
     0
176
     1
 93
       13
176
     1
 44
0.0
176
     1
173
     0
176
     1
  0
VISUALSTYLE
  5
31
102
{ACAD_REACTORS
330
2A
102
}
102
{ACAD_XDICTIONARY
360
1AA
102
}
330
2A
100
AcDbVisualStyle
  2
Hidden
 70
     6
177
     2
291
     0
 71
     1
176
     1
 72
     2
176
     1
 73
     2
176
     1
 90
        0
176
     1
 40
0.6
176
     1
 41
30.0
176
     1
 62
     5
 63
     7
421
 16777215
176
     1
 74
     2
176
     1
 91
        2
176
     1
 64
     7
176
     1
 65
   257
176
     1
 75
     2
176
     1
175
     1
176
     1
 42
40.0
176
     1
 92
        0
176
     1
 66
   257
176
     1
 43
1.0
176
     1
 76
     1
176
     1
 77
     6
176
     1
 78
     2
176
     1
 67
     7
176
     1
 79
     3
176
     1
170
     0
176
     1
171
     0
176
     1
290
     0
176
     1
 93
        1
176
     1
 44
0.0
176
     1
173
     0
176
     1
  0
VISUALSTYLE
  5
3B
102
{ACAD_REACTORS
330
2A
102
}
102
{ACAD_XDICTIONARY
360
1BE
102
}
330
2A
100
AcDbVisualStyle
  2
JitterOff
 70
    20
177
     2
291
     1
 71
     2
176
     0
 72
     2
176
     0
 73
     0
176
     0
 90
        0
176
     0
 40
0.6
176
     0
 41
30.0
176
     0
 62
     5
 63
     7
421
 16777215
176
     0
 74
     1
176
     0
 91
        4
176
     0
 64
     7
176
     0
 65
   257
176
     0
 75
     1
176
     0
175
     1
176
     0
 42
1.0
176
     0
 92
       10
176
     2
 66
     7
176
     0
 43
1.0
176
     0
 76
     1
176
     0
 77
     6
176
     0
 78
     2
176
     0
 67
     7
176
     0
 79
     5
176
     0
170
     0
176
     0
171
     0
176
     0
290
     0
176
     0
 93
        1
176
     0
 44
0.0
176
     0
173
     0
176
     0
  0
VISUALSTYLE
  5
38
102
{ACAD_REACTORS
330
2A
102
}
102
{ACAD_XDICTIONARY
360
1B8
102
}
330
2A
100
AcDbVisualStyle
  2
Linepattern
 70
    14
177
     2
291
     1
 71
     2
176
     1
 72
     2
176
     1
 73
     0
176
     1
 90
        0
176
     1
 40
0.6
176
     1
 41
30.0
176
     1
 62
     5
 63
     7
421
 16777215
176
     1
 74
     1
176
     1
 91
        4
176
     1
 64
     7
176
     1
 65
   257
176
     1
 75
     7
176
     1
175
     7
176
     1
 42
1.0
176
     1
 92
        8
176
     1
 66
     7
176
     1
 43
1.0
176
     1
 76
     1
176
     1
 77
     6
176
     1
 78
     2
176
     1
 67
     7
176
     1
 79
     5
176
     1
170
     0
176
     1
171
     0
176
     1
290
     0
176
     1
 93
        1
176
     1
 44
0.0
176
     1
173
     0
176
     1
  0
VISUALSTYLE
  5
3C
102
{ACAD_REACTORS
330
2A
102
}
102
{ACAD_XDICTIONARY
360
1C0
102
}
330
2A
100
AcDbVisualStyle
  2
OverhangOff
 70
    21
177
     2
291
     1
 71
     2
176
     0
 72
     2
176
     0
 73
     0
176
     0
 90
        0
176
     0
 40
0.6
176
     0
 41
30.0
176
     0
 62
     5
 63
     7
421
 16777215
176
     0
 74
     1
176
     0
 91
        4
176
     0
 64
     7
176
     0
 65
   257
176
     0
 75
     1
176
     0
175
     1
176
     0
 42
1.0
176
     0
 92
        9
176
     2
 66
     7
176
     0
 43
1.0
176
     0
 76
     1
176
     0
 77
     6
176
     0
 78
     2
176
     0
 67
     7
176
     0
 79
     5
176
     0
170
     0
176
     0
171
     0
176
     0
290
     0
176
     0
 93
        1
176
     0
 44
0.0
176
     0
173
     0
176
     0
  0
VISUALSTYLE
  5
33
102
{ACAD_REACTORS
330
2A
102
}
102
{ACAD_XDICTIONARY
360
1AE
102
}
330
2A
100
AcDbVisualStyle
  2
Realistic
 70
     8
177
     2
291
     0
 71
     2
176
     1
 72
     3
176
     1
 73
     0
176
     1
 90
        2
176
     1
 40
0.6
176
     1
 41
30.0
176
     1
 62
     5
 63
     7
421
 16777215
176
     1
 74
     0
176
     1
 91
        0
176
     1
 64
     7
176
     1
 65
   257
176
     1
 75
     1
176
     1
175
     1
176
     1
 42
1.0
176
     1
 92
        8
176
     1
 66
   257
176
     1
 43
1.0
176
     1
 76
     1
176
     1
 77
     6
176
     1
 78
     2
176
     1
 67
     7
176
     1
 79
     3
176
     1
170
     0
176
     1
171
     0
176
     1
290
     0
176
     1
 93
       13
176
     1
 44
0.0
176
     1
173
     0
176
     1
  0
VISUALSTYLE
  5
42
102
{ACAD_REACTORS
330
2A
102
}
102
{ACAD_XDICTIONARY
360
1CC
102
}
330
2A
100
AcDbVisualStyle
  2
Shaded
 70
    27
177
     2
291
     0
 71
     2
176
     1
 72
     2
176
     1
 73
     1
176
     1
 90
        2
176
     1
 40
0.6
176
     1
 41
30.0
176
     1
 62
     5
 63
     7
421
 16777215
176
     1
 74
     0
176
     1
 91
        4
176
     1
 64
     7
176
     1
 65
   257
176
     1
 75
     1
176
     1
175
     1
176
     1
 42
1.0
176
     1
 92
        8
176
     1
 66
   257
176
     1
 43
1.0
176
     1
 76
     1
176
     1
 77
     6
176
     1
 78
     2
176
     1
 67
     8
425
  7895160
176
     1
 79
     3
176
     1
170
     0
176
     1
171
     0
176
     1
290
     0
176
     1
 93
        5
176
     1
 44
0.0
176
     1
173
     0
176
     1
  0
VISUALSTYLE
  5
41
102
{ACAD_REACTORS
330
2A
102
}
102
{ACAD_XDICTIONARY
360
1CA
102
}
330
2A
100
AcDbVisualStyle
  2
Shaded with edges
 70
    26
177
     2
291
     0
 71
     2
176
     1
 72
     2
176
     1
 73
     1
176
     1
 90
        2
176
     1
 40
0.6
176
     1
 41
30.0
176
     1
 62
     5
 63
     7
421
 16777215
176
     1
 74
     1
176
     1
 91
       10
176
     1
 64
     7
176
     1
 65
   257
176
     1
 75
     2
176
     1
175
     1
176
     1
 42
1.0
176
     1
 92
        8
176
     1
 66
   257
176
     1
 43
1.0
176
     1
 76
     1
176
     1
 77
     6
176
     1
 78
     2
176
     1
 67
     7
176
     1
 79
     3
176
     1
170
     0
176
     1
171
     0
176
     1
290
     0
176
     1
 93
        5
176
     1
 44
0.0
176
     1
173
     0
176
     1
  0
VISUALSTYLE
  5
3E
102
{ACAD_REACTORS
330
2A
102
}
102
{ACAD_XDICTIONARY
360
1C4
102
}
330
2A
100
AcDbVisualStyle
  2
Shades of Gray
 70
    23
177
     2
291
     0
 71
     2
176
     1
 72
     2
176
     1
 73
     3
176
     1
 90
        0
176
     1
 40
0.6
176
     1
 41
30.0
176
     1
 62
     5
 63
     7
421
 16777215
176
     1
 74
     2
176
     1
 91
        2
176
     1
 64
     7
176
     1
 65
     7
176
     1
 75
     1
176
     1
175
     1
176
     1
 42
40.0
176
     1
 92
        8
176
     1
 66
     7
176
     1
 43
1.0
176
     1
 76
     1
176
     1
 77
     6
176
     1
 78
     2
176
     1
 67
     7
176
     1
 79
     3
176
     1
170
     0
176
     1
171
     0
176
     1
290
     0
176
     1
 93
        1
176
     1
 44
0.0
176
     1
173
     0
176
     1
  0
VISUALSTYLE
  5
3F
102
{ACAD_REACTORS
330
2A
102
}
102
{ACAD_XDICTIONARY
360
1C6
102
}
330
2A
100
AcDbVisualStyle
  2
Sketchy
 70
    24
177
     2
291
     0
 71
     1
176
     1
 72
     2
176
     1
 73
     2
176
     1
 90
        0
176
     1
 40
0.6
176
     1
 41
30.0
176
     1
 62
     5
 63
     7
421
 16777215
176
     1
 74
     2
176
     1
 91
        2
176
     1
 64
     7
176
     1
 65
     7
176
     1
 75
     1
176
     1
175
     1
176
     1
 42
40.0
176
     1
 92
       11
176
     1
 66
     7
176
     1
 43
1.0
176
     1
 76
     1
176
     1
 77
     6
176
     1
 78
     2
176
     1
 67
     7
176
     1
 79
     6
176
     1
170
     0
176
     1
171
     0
176
     1
290
     0
176
     1
 93
        1
176
     1
 44
0.0
176
     1
173
     0
176
     1
  0
VISUALSTYLE
  5
37
102
{ACAD_REACTORS
330
2A
102
}
102
{ACAD_XDICTIONARY
360
1B6
102
}
330
2A
100
AcDbVisualStyle
  2
Thicken
 70
    13
177
     2
291
     1
 71
     2
176
     1
 72
     2
176
     1
 73
     0
176
     1
 90
        0
176
     1
 40
0.6
176
     1
 41
30.0
176
     1
 62
     5
 63
     7
421
 16777215
176
     1
 74
     1
176
     1
 91
        4
176
     1
 64
     7
176
     1
 65
   257
176
     1
 75
     1
176
     1
175
     1
176
     1
 42
1.0
176
     1
 92
       12
176
     1
 66
     7
176
     1
 43
1.0
176
     1
 76
     1
176
     1
 77
     6
176
     1
 78
     2
176
     1
 67
     7
176
     1
 79
     5
176
     1
170
     0
176
     1
171
     0
176
     1
290
     0
176
     1
 93
        1
176
     1
 44
0.0
176
     1
173
     0
176
     1
  0
VISUALSTYLE
  5
30
102
{ACAD_REACTORS
330
2A
102
}
102
{ACAD_XDICTIONARY
360
1A8
102
}
330
2A
100
AcDbVisualStyle
  2
Wireframe
 70
     5
177
     2
291
     0
 71
     0
176
     1
 72
     2
176
     1
 73
     0
176
     1
 90
        0
176
     1
 40
0.6
176
     1
 41
30.0
176
     1
 62
     5
 63
     7
421
 16777215
176
     1
 74
     1
176
     1
 91
        4
176
     1
 64
     7
176
     1
 65
   257
176
     1
 75
     1
176
     1
175
     1
176
     1
 42
1.0
176
     1
 92
        0
176
     1
 66
   257
176
     1
 43
1.0
176
     1
 76
     1
176
     1
 77
     6
176
     1
 78
     2
176
     1
 67
     7
176
     1
 79
     3
176
     1
170
     0
176
     1
171
     0
176
     1
290
     0
176
     1
 93
        1
176
     1
 44
0.0
176
     1
173
     0
176
     1
  0
VISUALSTYLE
  5
40
102
{ACAD_REACTORS
330
2A
102
}
102
{ACAD_XDICTIONARY
360
1C8
102
}
330
2A
100
AcDbVisualStyle
  2
X-Ray
 70
    25
177
     2
291
     0
 71
     2
176
     1
 72
     2
176
     1
 73
     1
176
     1
 90
        1
176
     1
 40
0.5
176
     1
 41
30.0
176
     1
 62
     5
 63
     7
421
 16777215
176
     1
 74
     1
176
     1
 91
        0
176
     1
 64
     7
176
     1
 65
   257
176
     1
 75
     1
176
     1
175
     1
176
     1
 42
1.0
176
     1
 92
        8
176
     1
 66
     7
176
     1
 43
1.0
176
     1
 76
     1
176
     1
 77
     6
176
     1
 78
     2
176
     1
 67
     7
176
     1
 79
     3
176
     1
170
     0
176
     1
171
     0
176
     1
290
     0
176
     1
 93
       13
176
     1
 44
0.0
176
     1
173
     0
176
     1
  0
DICTIONARYVAR
  5
19D
102
{ACAD_REACTORS
330
19C
102
}
330
19C
100
DictionaryVariables
280
     0
  1
1:1
  0
DICTIONARYVAR
  5
1D2
102
{ACAD_REACTORS
330
19C
102
}
330
19C
100
DictionaryVariables
280
     0
  1
Standard
  0
DICTIONARYVAR
  5
1D1
102
{ACAD_REACTORS
330
19C
102
}
330
19C
100
DictionaryVariables
280
     0
  1
Standard
  0
DICTIONARY
  5
1CE
330
6A
100
AcDbDictionary
280
     1
281
     1
  3
ACAD_ROUNDTRIP_2008_TABLESTYLE_CELLSTYLEMAP
360
1CF
  0
DICTIONARY
  5
1A6
330
2F
100
AcDbDictionary
280
     1
281
     1
  3
ACAD_XREC_ROUNDTRIP
360
1A7
  0
DICTIONARY
  5
1AC
330
32
100
AcDbDictionary
280
     1
281
     1
  3
ACAD_XREC_ROUNDTRIP
360
1AD
  0
DICTIONARY
  5
1B4
330
36
100
AcDbDictionary
280
     1
281
     1
  3
ACAD_XREC_ROUNDTRIP
360
1B5
  0
DICTIONARY
  5
1BC
330
3A
100
AcDbDictionary
280
     1
281
     1
  3
ACAD_XREC_ROUNDTRIP
360
1BD
  0
DICTIONARY
  5
1B0
330
34
100
AcDbDictionary
280
     1
281
     1
  3
ACAD_XREC_ROUNDTRIP
360
1B1
  0
DICTIONARY
  5
1B2
330
35
100
AcDbDictionary
280
     1
281
     1
  3
ACAD_XREC_ROUNDTRIP
360
1B3
  0
DICTIONARY
  5
1C2
330
3D
100
AcDbDictionary
280
     1
281
     1
  3
ACAD_XREC_ROUNDTRIP
360
1C3
  0
DICTIONARY
  5
1BA
330
39
100
AcDbDictionary
280
     1
281
     1
  3
ACAD_XREC_ROUNDTRIP
360
1BB
  0
DICTIONARY
  5
19E
330
2B
100
AcDbDictionary
280
     1
281
     1
  3
ACAD_XREC_ROUNDTRIP
360
19F
  0
DICTIONARY
  5
1A0
330
2C
100
AcDbDictionary
280
     1
281
     1
  3
ACAD_XREC_ROUNDTRIP
360
1A1
  0
DICTIONARY
  5
1A2
330
2D
100
AcDbDictionary
280
     1
281
     1
  3
ACAD_XREC_ROUNDTRIP
360
1A3
  0
DICTIONARY
  5
1A4
330
2E
100
AcDbDictionary
280
     1
281
     1
  3
ACAD_XREC_ROUNDTRIP
360
1A5
  0
DICTIONARY
  5
1AA
330
31
100
AcDbDictionary
280
     1
281
     1
  3
ACAD_XREC_ROUNDTRIP
360
1AB
  0
DICTIONARY
  5
1BE
330
3B
100
AcDbDictionary
280
     1
281
     1
  3
ACAD_XREC_ROUNDTRIP
360
1BF
  0
DICTIONARY
  5
1B8
330
38
100
AcDbDictionary
280
     1
281
     1
  3
ACAD_XREC_ROUNDTRIP
360
1B9
  0
DICTIONARY
  5
1C0
330
3C
100
AcDbDictionary
280
     1
281
     1
  3
ACAD_XREC_ROUNDTRIP
360
1C1
  0
DICTIONARY
  5
1AE
330
33
100
AcDbDictionary
280
     1
281
     1
  3
ACAD_XREC_ROUNDTRIP
360
1AF
  0
DICTIONARY
  5
1CC
330
42
100
AcDbDictionary
280
     1
281
     1
  3
ACAD_XREC_ROUNDTRIP
360
1CD
  0
DICTIONARY
  5
1CA
330
41
100
AcDbDictionary
280
     1
281
     1
  3
ACAD_XREC_ROUNDTRIP
360
1CB
  0
DICTIONARY
  5
1C4
330
3E
100
AcDbDictionary
280
     1
281
     1
  3
ACAD_XREC_ROUNDTRIP
360
1C5
  0
DICTIONARY
  5
1C6
330
3F
100
AcDbDictionary
280
     1
281
     1
  3
ACAD_XREC_ROUNDTRIP
360
1C7
  0
DICTIONARY
  5
1B6
330
37
100
AcDbDictionary
280
     1
281
     1
  3
ACAD_XREC_ROUNDTRIP
360
1B7
  0
DICTIONARY
  5
1A8
330
30
100
AcDbDictionary
280
     1
281
     1
  3
ACAD_XREC_ROUNDTRIP
360
1A9
  0
DICTIONARY
  5
1C8
330
40
100
AcDbDictionary
280
     1
281
     1
  3
ACAD_XREC_ROUNDTRIP
360
1C9
  0
CELLSTYLEMAP
  5
1CF
102
{ACAD_REACTORS
330
1CE
102
}
330
1CE
100
AcDbCellStyleMap
 90
        3
300
CELLSTYLE
  1
TABLEFORMAT_BEGIN
 90
        5
170
     1
 91
        0
 92
    32768
 62
   257
 93
        1
300
CONTENTFORMAT
  1
CONTENTFORMAT_BEGIN
 90
        0
 91
        0
 92
        4
 93
        0
300

 40
0.0
140
1.0
 94
        5
 62
     0
340
11
144
0.25
309
CONTENTFORMAT_END
171
     1
301
MARGIN
  1
CELLMARGIN_BEGIN
 40
0.06
 40
0.06
 40
0.06
 40
0.06
 40
0.06
 40
0.06
309
CELLMARGIN_END
 94
        6
 95
        1
302
GRIDFORMAT
  1
GRIDFORMAT_BEGIN
 90
        0
 91
        1
 62
     0
 92
       -2
340
14
 93
        0
 40
0.045
309
GRIDFORMAT_END
 95
        2
302
GRIDFORMAT
  1
GRIDFORMAT_BEGIN
 90
        0
 91
        1
 62
     0
 92
       -2
340
14
 93
        0
 40
0.045
309
GRIDFORMAT_END
 95
        4
302
GRIDFORMAT
  1
GRIDFORMAT_BEGIN
 90
        0
 91
        1
 62
     0
 92
       -2
340
14
 93
        0
 40
0.045
309
GRIDFORMAT_END
 95
        8
302
GRIDFORMAT
  1
GRIDFORMAT_BEGIN
 90
        0
 91
        1
 62
     0
 92
       -2
340
14
 93
        0
 40
0.045
309
GRIDFORMAT_END
 95
       16
302
GRIDFORMAT
  1
GRIDFORMAT_BEGIN
 90
        0
 91
        1
 62
     0
 92
       -2
340
14
 93
        0
 40
0.045
309
GRIDFORMAT_END
 95
       32
302
GRIDFORMAT
  1
GRIDFORMAT_BEGIN
 90
        0
 91
        1
 62
     0
 92
       -2
340
14
 93
        0
 40
0.045
309
GRIDFORMAT_END
309
TABLEFORMAT_END
  1
CELLSTYLE_BEGIN
 90
        1
 91
        1
300
_TITLE
309
CELLSTYLE_END
300
CELLSTYLE
  1
TABLEFORMAT_BEGIN
 90
        5
170
     1
 91
        0
 92
        0
 62
   257
 93
        1
300
CONTENTFORMAT
  1
CONTENTFORMAT_BEGIN
 90
        0
 91
        0
 92
        4
 93
        0
300

 40
0.0
140
1.0
 94
        5
 62
     0
340
11
144
0.18
309
CONTENTFORMAT_END
171
     1
301
MARGIN
  1
CELLMARGIN_BEGIN
 40
0.06
 40
0.06
 40
0.06
 40
0.06
 40
0.06
 40
0.06
309
CELLMARGIN_END
 94
        6
 95
        1
302
GRIDFORMAT
  1
GRIDFORMAT_BEGIN
 90
        0
 91
        1
 62
     0
 92
       -2
340
14
 93
        0
 40
0.045
309
GRIDFORMAT_END
 95
        2
302
GRIDFORMAT
  1
GRIDFORMAT_BEGIN
 90
        0
 91
        1
 62
     0
 92
       -2
340
14
 93
        0
 40
0.045
309
GRIDFORMAT_END
 95
        4
302
GRIDFORMAT
  1
GRIDFORMAT_BEGIN
 90
        0
 91
        1
 62
     0
 92
       -2
340
14
 93
        0
 40
0.045
309
GRIDFORMAT_END
 95
        8
302
GRIDFORMAT
  1
GRIDFORMAT_BEGIN
 90
        0
 91
        1
 62
     0
 92
       -2
340
14
 93
        0
 40
0.045
309
GRIDFORMAT_END
 95
       16
302
GRIDFORMAT
  1
GRIDFORMAT_BEGIN
 90
        0
 91
        1
 62
     0
 92
       -2
340
14
 93
        0
 40
0.045
309
GRIDFORMAT_END
 95
       32
302
GRIDFORMAT
  1
GRIDFORMAT_BEGIN
 90
        0
 91
        1
 62
     0
 92
       -2
340
14
 93
        0
 40
0.045
309
GRIDFORMAT_END
309
TABLEFORMAT_END
  1
CELLSTYLE_BEGIN
 90
        2
 91
        1
300
_HEADER
309
CELLSTYLE_END
300
CELLSTYLE
  1
TABLEFORMAT_BEGIN
 90
        5
170
     1
 91
        0
 92
        0
 62
   257
 93
        1
300
CONTENTFORMAT
  1
CONTENTFORMAT_BEGIN
 90
        0
 91
        0
 92
        4
 93
        0
300

 40
0.0
140
1.0
 94
        2
 62
     0
340
11
144
0.18
309
CONTENTFORMAT_END
171
     1
301
MARGIN
  1
CELLMARGIN_BEGIN
 40
0.06
 40
0.06
 40
0.06
 40
0.06
 40
0.06
 40
0.06
309
CELLMARGIN_END
 94
        6
 95
        1
302
GRIDFORMAT
  1
GRIDFORMAT_BEGIN
 90
        0
 91
        1
 62
     0
 92
       -2
340
14
 93
        0
 40
0.045
309
GRIDFORMAT_END
 95
        2
302
GRIDFORMAT
  1
GRIDFORMAT_BEGIN
 90
        0
 91
        1
 62
     0
 92
       -2
340
14
 93
        0
 40
0.045
309
GRIDFORMAT_END
 95
        4
302
GRIDFORMAT
  1
GRIDFORMAT_BEGIN
 90
        0
 91
        1
 62
     0
 92
       -2
340
14
 93
        0
 40
0.045
309
GRIDFORMAT_END
 95
        8
302
GRIDFORMAT
  1
GRIDFORMAT_BEGIN
 90
        0
 91
        1
 62
     0
 92
       -2
340
14
 93
        0
 40
0.045
309
GRIDFORMAT_END
 95
       16
302
GRIDFORMAT
  1
GRIDFORMAT_BEGIN
 90
        0
 91
        1
 62
     0
 92
       -2
340
14
 93
        0
 40
0.045
309
GRIDFORMAT_END
 95
       32
302
GRIDFORMAT
  1
GRIDFORMAT_BEGIN
 90
        0
 91
        1
 62
     0
 92
       -2
340
14
 93
        0
 40
0.045
309
GRIDFORMAT_END
309
TABLEFORMAT_END
  1
CELLSTYLE_BEGIN
 90
        3
 91
        2
300
_DATA
309
CELLSTYLE_END
  0
XRECORD
  5
1A7
102
{ACAD_REACTORS
330
1A6
102
}
330
1A6
100
AcDbXrecord
280
     1
102
RTVSPost2010Prop28
280
     1
102
RTVSPost2010PropOp28
 70
     1
102
RTVSPost2010Prop29
280
     1
102
RTVSPost2010PropOp29
 70
     1
102
RTVSPost2010Prop30
280
     0
102
RTVSPost2010PropOp30
 70
     1
102
RTVSPost2010Prop31
280
     0
102
RTVSPost2010PropOp31
 70
     1
102
RTVSPost2010Prop32
280
     0
102
RTVSPost2010PropOp32
 70
     1
102
RTVSPost2010Prop33
280
     0
102
RTVSPost2010PropOp33
 70
     1
102
RTVSPost2010Prop34
280
     0
102
RTVSPost2010PropOp34
 70
     1
102
RTVSPost2010Prop35
280
     0
102
RTVSPost2010PropOp35
 70
     1
102
RTVSPost2010Prop36
280
     0
102
RTVSPost2010PropOp36
 70
     1
102
RTVSPost2010Prop37
 90
       50
102
RTVSPost2010PropOp37
 70
     1
102
RTVSPost2010Prop38
140
0.0
102
RTVSPost2010PropOp38
 70
     1
102
RTVSPost2010Prop39
140
1.0
102
RTVSPost2010PropOp39
 70
     1
102
RTVSPost2010Prop40
 90
        0
102
RTVSPost2010PropOp40
 70
     1
102
RTVSPost2010Prop41ColorIndex
 90
       18
102
RTVSPost2010Prop41ColorRGB
 90
        0
102
RTVSPost2010PropOp41
 70
     1
102
RTVSPost2010Prop42
 90
       50
102
RTVSPost2010PropOp42
 70
     1
102
RTVSPost2010Prop43
 90
        3
102
RTVSPost2010PropOp43
 70
     1
102
RTVSPost2010Prop44ColorIndex
 90
        5
102
RTVSPost2010Prop44ColorRGB
 90
      255
102
RTVSPost2010PropOp44
 70
     1
102
RTVSPost2010Prop45
280
     0
102
RTVSPost2010PropOp45
 70
     1
102
RTVSPost2010Prop46
 90
       50
102
RTVSPost2010PropOp46
 70
     1
102
RTVSPost2010Prop47
 90
       50
102
RTVSPost2010PropOp47
 70
     1
102
RTVSPost2010Prop48
 90
       50
102
RTVSPost2010PropOp48
 70
     1
102
RTVSPost2010Prop49
280
     0
102
RTVSPost2010PropOp49
 70
     1
102
RTVSPost2010Prop50
 90
       50
102
RTVSPost2010PropOp50
 70
     1
102
RTVSPost2010Prop51ColorIndex
 90
      256
102
RTVSPost2010Prop51ColorRGB
 90
-16777216
102
RTVSPost2010PropOp51
 70
     0
102
RTVSPost2010Prop52
140
1.0
102
RTVSPost2010PropOp52
 70
     0
102
RTVSPost2010Prop53
 90
        2
102
RTVSPost2010PropOp53
 70
     1
102
RTVSPost2010Prop54
  1
strokes_ogs.tif
102
RTVSPost2010PropOp54
 70
     1
102
RTVSPost2010Prop55
280
     0
102
RTVSPost2010PropOp55
 70
     1
102
RTVSPost2010Prop56
140
1.0
102
RTVSPost2010PropOp56
 70
     1
102
RTVSPost2010Prop57
140
1.0
102
RTVSPost2010PropOp57
 70
     1
  0
XRECORD
  5
1AD
102
{ACAD_REACTORS
330
1AC
102
}
330
1AC
100
AcDbXrecord
280
     1
102
RTVSPost2010Prop28
280
     0
102
RTVSPost2010PropOp28
 70
     1
102
RTVSPost2010Prop29
280
     1
102
RTVSPost2010PropOp29
 70
     1
102
RTVSPost2010Prop30
280
     1
102
RTVSPost2010PropOp30
 70
     1
102
RTVSPost2010Prop31
280
     0
102
RTVSPost2010PropOp31
 70
     1
102
RTVSPost2010Prop32
280
     0
102
RTVSPost2010PropOp32
 70
     1
102
RTVSPost2010Prop33
280
     0
102
RTVSPost2010PropOp33
 70
     1
102
RTVSPost2010Prop34
280
     0
102
RTVSPost2010PropOp34
 70
     1
102
RTVSPost2010Prop35
280
     0
102
RTVSPost2010PropOp35
 70
     1
102
RTVSPost2010Prop36
280
     0
102
RTVSPost2010PropOp36
 70
     1
102
RTVSPost2010Prop37
 90
       50
102
RTVSPost2010PropOp37
 70
     1
102
RTVSPost2010Prop38
140
0.0
102
RTVSPost2010PropOp38
 70
     1
102
RTVSPost2010Prop39
140
1.0
102
RTVSPost2010PropOp39
 70
     1
102
RTVSPost2010Prop40
 90
        0
102
RTVSPost2010PropOp40
 70
     1
102
RTVSPost2010Prop41ColorIndex
 90
       18
102
RTVSPost2010Prop41ColorRGB
 90
        0
102
RTVSPost2010PropOp41
 70
     1
102
RTVSPost2010Prop42
 90
       50
102
RTVSPost2010PropOp42
 70
     1
102
RTVSPost2010Prop43
 90
        3
102
RTVSPost2010PropOp43
 70
     1
102
RTVSPost2010Prop44ColorIndex
 90
        5
102
RTVSPost2010Prop44ColorRGB
 90
      255
102
RTVSPost2010PropOp44
 70
     1
102
RTVSPost2010Prop45
280
     0
102
RTVSPost2010PropOp45
 70
     1
102
RTVSPost2010Prop46
 90
       50
102
RTVSPost2010PropOp46
 70
     1
102
RTVSPost2010Prop47
 90
       50
102
RTVSPost2010PropOp47
 70
     1
102
RTVSPost2010Prop48
 90
       50
102
RTVSPost2010PropOp48
 70
     1
102
RTVSPost2010Prop49
280
     0
102
RTVSPost2010PropOp49
 70
     1
102
RTVSPost2010Prop50
 90
       50
102
RTVSPost2010PropOp50
 70
     1
102
RTVSPost2010Prop51ColorIndex
 90
      256
102
RTVSPost2010Prop51ColorRGB
 90
-16777216
102
RTVSPost2010PropOp51
 70
     0
102
RTVSPost2010Prop52
140
1.0
102
RTVSPost2010PropOp52
 70
     0
102
RTVSPost2010Prop53
 90
        2
102
RTVSPost2010PropOp53
 70
     1
102
RTVSPost2010Prop54
  1
strokes_ogs.tif
102
RTVSPost2010PropOp54
 70
     1
102
RTVSPost2010Prop55
280
     0
102
RTVSPost2010PropOp55
 70
     1
102
RTVSPost2010Prop56
140
1.0
102
RTVSPost2010PropOp56
 70
     1
102
RTVSPost2010Prop57
140
1.0
102
RTVSPost2010PropOp57
 70
     1
  0
XRECORD
  5
1B5
102
{ACAD_REACTORS
330
1B4
102
}
330
1B4
100
AcDbXrecord
280
     1
102
RTVSPost2010Prop28
280
     0
102
RTVSPost2010PropOp28
 70
     1
102
RTVSPost2010Prop29
280
     1
102
RTVSPost2010PropOp29
 70
     1
102
RTVSPost2010Prop30
280
     1
102
RTVSPost2010PropOp30
 70
     1
102
RTVSPost2010Prop31
280
     0
102
RTVSPost2010PropOp31
 70
     1
102
RTVSPost2010Prop32
280
     0
102
RTVSPost2010PropOp32
 70
     1
102
RTVSPost2010Prop33
280
     0
102
RTVSPost2010PropOp33
 70
     1
102
RTVSPost2010Prop34
280
     0
102
RTVSPost2010PropOp34
 70
     1
102
RTVSPost2010Prop35
280
     0
102
RTVSPost2010PropOp35
 70
     1
102
RTVSPost2010Prop36
280
     0
102
RTVSPost2010PropOp36
 70
     1
102
RTVSPost2010Prop37
 90
       50
102
RTVSPost2010PropOp37
 70
     1
102
RTVSPost2010Prop38
140
0.0
102
RTVSPost2010PropOp38
 70
     1
102
RTVSPost2010Prop39
140
1.0
102
RTVSPost2010PropOp39
 70
     1
102
RTVSPost2010Prop40
 90
        0
102
RTVSPost2010PropOp40
 70
     1
102
RTVSPost2010Prop41ColorIndex
 90
       18
102
RTVSPost2010Prop41ColorRGB
 90
        0
102
RTVSPost2010PropOp41
 70
     1
102
RTVSPost2010Prop42
 90
       50
102
RTVSPost2010PropOp42
 70
     1
102
RTVSPost2010Prop43
 90
        3
102
RTVSPost2010PropOp43
 70
     1
102
RTVSPost2010Prop44ColorIndex
 90
        5
102
RTVSPost2010Prop44ColorRGB
 90
      255
102
RTVSPost2010PropOp44
 70
     1
102
RTVSPost2010Prop45
280
     0
102
RTVSPost2010PropOp45
 70
     1
102
RTVSPost2010Prop46
 90
       50
102
RTVSPost2010PropOp46
 70
     1
102
RTVSPost2010Prop47
 90
       50
102
RTVSPost2010PropOp47
 70
     1
102
RTVSPost2010Prop48
 90
       50
102
RTVSPost2010PropOp48
 70
     1
102
RTVSPost2010Prop49
280
     0
102
RTVSPost2010PropOp49
 70
     1
102
RTVSPost2010Prop50
 90
       50
102
RTVSPost2010PropOp50
 70
     1
102
RTVSPost2010Prop51ColorIndex
 90
      256
102
RTVSPost2010Prop51ColorRGB
 90
-16777216
102
RTVSPost2010PropOp51
 70
     0
102
RTVSPost2010Prop52
140
1.0
102
RTVSPost2010PropOp52
 70
     0
102
RTVSPost2010Prop53
 90
        2
102
RTVSPost2010PropOp53
 70
     1
102
RTVSPost2010Prop54
  1
strokes_ogs.tif
102
RTVSPost2010PropOp54
 70
     1
102
RTVSPost2010Prop55
280
     0
102
RTVSPost2010PropOp55
 70
     1
102
RTVSPost2010Prop56
140
1.0
102
RTVSPost2010PropOp56
 70
     1
102
RTVSPost2010Prop57
140
1.0
102
RTVSPost2010PropOp57
 70
     1
  0
XRECORD
  5
1BD
102
{ACAD_REACTORS
330
1BC
102
}
330
1BC
100
AcDbXrecord
280
     1
102
RTVSPost2010Prop28
280
     0
102
RTVSPost2010PropOp28
 70
     1
102
RTVSPost2010Prop29
280
     1
102
RTVSPost2010PropOp29
 70
     1
102
RTVSPost2010Prop30
280
     1
102
RTVSPost2010PropOp30
 70
     1
102
RTVSPost2010Prop31
280
     0
102
RTVSPost2010PropOp31
 70
     1
102
RTVSPost2010Prop32
280
     0
102
RTVSPost2010PropOp32
 70
     1
102
RTVSPost2010Prop33
280
     0
102
RTVSPost2010PropOp33
 70
     1
102
RTVSPost2010Prop34
280
     0
102
RTVSPost2010PropOp34
 70
     1
102
RTVSPost2010Prop35
280
     0
102
RTVSPost2010PropOp35
 70
     1
102
RTVSPost2010Prop36
280
     0
102
RTVSPost2010PropOp36
 70
     1
102
RTVSPost2010Prop37
 90
       50
102
RTVSPost2010PropOp37
 70
     1
102
RTVSPost2010Prop38
140
0.0
102
RTVSPost2010PropOp38
 70
     1
102
RTVSPost2010Prop39
140
1.0
102
RTVSPost2010PropOp39
 70
     1
102
RTVSPost2010Prop40
 90
        0
102
RTVSPost2010PropOp40
 70
     1
102
RTVSPost2010Prop41ColorIndex
 90
       18
102
RTVSPost2010Prop41ColorRGB
 90
        0
102
RTVSPost2010PropOp41
 70
     1
102
RTVSPost2010Prop42
 90
       50
102
RTVSPost2010PropOp42
 70
     1
102
RTVSPost2010Prop43
 90
        3
102
RTVSPost2010PropOp43
 70
     1
102
RTVSPost2010Prop44ColorIndex
 90
        5
102
RTVSPost2010Prop44ColorRGB
 90
      255
102
RTVSPost2010PropOp44
 70
     1
102
RTVSPost2010Prop45
280
     0
102
RTVSPost2010PropOp45
 70
     1
102
RTVSPost2010Prop46
 90
       50
102
RTVSPost2010PropOp46
 70
     1
102
RTVSPost2010Prop47
 90
       50
102
RTVSPost2010PropOp47
 70
     1
102
RTVSPost2010Prop48
 90
       50
102
RTVSPost2010PropOp48
 70
     1
102
RTVSPost2010Prop49
280
     0
102
RTVSPost2010PropOp49
 70
     1
102
RTVSPost2010Prop50
 90
       50
102
RTVSPost2010PropOp50
 70
     1
102
RTVSPost2010Prop51ColorIndex
 90
      256
102
RTVSPost2010Prop51ColorRGB
 90
-16777216
102
RTVSPost2010PropOp51
 70
     0
102
RTVSPost2010Prop52
140
1.0
102
RTVSPost2010PropOp52
 70
     0
102
RTVSPost2010Prop53
 90
        2
102
RTVSPost2010PropOp53
 70
     1
102
RTVSPost2010Prop54
  1
strokes_ogs.tif
102
RTVSPost2010PropOp54
 70
     1
102
RTVSPost2010Prop55
280
     0
102
RTVSPost2010PropOp55
 70
     1
102
RTVSPost2010Prop56
140
1.0
102
RTVSPost2010PropOp56
 70
     1
102
RTVSPost2010Prop57
140
1.0
102
RTVSPost2010PropOp57
 70
     1
  0
XRECORD
  5
1B1
102
{ACAD_REACTORS
330
1B0
102
}
330
1B0
100
AcDbXrecord
280
     1
102
RTVSPost2010Prop28
280
     0
102
RTVSPost2010PropOp28
 70
     1
102
RTVSPost2010Prop29
280
     1
102
RTVSPost2010PropOp29
 70
     1
102
RTVSPost2010Prop30
280
     1
102
RTVSPost2010PropOp30
 70
     1
102
RTVSPost2010Prop31
280
     0
102
RTVSPost2010PropOp31
 70
     1
102
RTVSPost2010Prop32
280
     0
102
RTVSPost2010PropOp32
 70
     1
102
RTVSPost2010Prop33
280
     0
102
RTVSPost2010PropOp33
 70
     1
102
RTVSPost2010Prop34
280
     0
102
RTVSPost2010PropOp34
 70
     1
102
RTVSPost2010Prop35
280
     0
102
RTVSPost2010PropOp35
 70
     1
102
RTVSPost2010Prop36
280
     0
102
RTVSPost2010PropOp36
 70
     1
102
RTVSPost2010Prop37
 90
       50
102
RTVSPost2010PropOp37
 70
     1
102
RTVSPost2010Prop38
140
0.0
102
RTVSPost2010PropOp38
 70
     1
102
RTVSPost2010Prop39
140
1.0
102
RTVSPost2010PropOp39
 70
     1
102
RTVSPost2010Prop40
 90
        0
102
RTVSPost2010PropOp40
 70
     1
102
RTVSPost2010Prop41ColorIndex
 90
       18
102
RTVSPost2010Prop41ColorRGB
 90
        0
102
RTVSPost2010PropOp41
 70
     1
102
RTVSPost2010Prop42
 90
       50
102
RTVSPost2010PropOp42
 70
     1
102
RTVSPost2010Prop43
 90
        3
102
RTVSPost2010PropOp43
 70
     1
102
RTVSPost2010Prop44ColorIndex
 90
        5
102
RTVSPost2010Prop44ColorRGB
 90
      255
102
RTVSPost2010PropOp44
 70
     1
102
RTVSPost2010Prop45
280
     0
102
RTVSPost2010PropOp45
 70
     1
102
RTVSPost2010Prop46
 90
       50
102
RTVSPost2010PropOp46
 70
     1
102
RTVSPost2010Prop47
 90
       50
102
RTVSPost2010PropOp47
 70
     1
102
RTVSPost2010Prop48
 90
       50
102
RTVSPost2010PropOp48
 70
     1
102
RTVSPost2010Prop49
280
     0
102
RTVSPost2010PropOp49
 70
     1
102
RTVSPost2010Prop50
 90
       50
102
RTVSPost2010PropOp50
 70
     1
102
RTVSPost2010Prop51ColorIndex
 90
      256
102
RTVSPost2010Prop51ColorRGB
 90
-16777216
102
RTVSPost2010PropOp51
 70
     0
102
RTVSPost2010Prop52
140
1.0
102
RTVSPost2010PropOp52
 70
     0
102
RTVSPost2010Prop53
 90
        2
102
RTVSPost2010PropOp53
 70
     1
102
RTVSPost2010Prop54
  1
strokes_ogs.tif
102
RTVSPost2010PropOp54
 70
     1
102
RTVSPost2010Prop55
280
     0
102
RTVSPost2010PropOp55
 70
     1
102
RTVSPost2010Prop56
140
1.0
102
RTVSPost2010PropOp56
 70
     1
102
RTVSPost2010Prop57
140
1.0
102
RTVSPost2010PropOp57
 70
     1
  0
XRECORD
  5
1B3
102
{ACAD_REACTORS
330
1B2
102
}
330
1B2
100
AcDbXrecord
280
     1
102
RTVSPost2010Prop28
280
     0
102
RTVSPost2010PropOp28
 70
     1
102
RTVSPost2010Prop29
280
     1
102
RTVSPost2010PropOp29
 70
     1
102
RTVSPost2010Prop30
280
     1
102
RTVSPost2010PropOp30
 70
     1
102
RTVSPost2010Prop31
280
     0
102
RTVSPost2010PropOp31
 70
     1
102
RTVSPost2010Prop32
280
     0
102
RTVSPost2010PropOp32
 70
     1
102
RTVSPost2010Prop33
280
     0
102
RTVSPost2010PropOp33
 70
     1
102
RTVSPost2010Prop34
280
     0
102
RTVSPost2010PropOp34
 70
     1
102
RTVSPost2010Prop35
280
     0
102
RTVSPost2010PropOp35
 70
     1
102
RTVSPost2010Prop36
280
     0
102
RTVSPost2010PropOp36
 70
     1
102
RTVSPost2010Prop37
 90
       50
102
RTVSPost2010PropOp37
 70
     1
102
RTVSPost2010Prop38
140
0.0
102
RTVSPost2010PropOp38
 70
     1
102
RTVSPost2010Prop39
140
1.0
102
RTVSPost2010PropOp39
 70
     1
102
RTVSPost2010Prop40
 90
        0
102
RTVSPost2010PropOp40
 70
     1
102
RTVSPost2010Prop41ColorIndex
 90
       18
102
RTVSPost2010Prop41ColorRGB
 90
        0
102
RTVSPost2010PropOp41
 70
     1
102
RTVSPost2010Prop42
 90
       50
102
RTVSPost2010PropOp42
 70
     1
102
RTVSPost2010Prop43
 90
        3
102
RTVSPost2010PropOp43
 70
     1
102
RTVSPost2010Prop44ColorIndex
 90
        5
102
RTVSPost2010Prop44ColorRGB
 90
      255
102
RTVSPost2010PropOp44
 70
     1
102
RTVSPost2010Prop45
280
     0
102
RTVSPost2010PropOp45
 70
     1
102
RTVSPost2010Prop46
 90
       50
102
RTVSPost2010PropOp46
 70
     1
102
RTVSPost2010Prop47
 90
       50
102
RTVSPost2010PropOp47
 70
     1
102
RTVSPost2010Prop48
 90
       50
102
RTVSPost2010PropOp48
 70
     1
102
RTVSPost2010Prop49
280
     0
102
RTVSPost2010PropOp49
 70
     1
102
RTVSPost2010Prop50
 90
       50
102
RTVSPost2010PropOp50
 70
     1
102
RTVSPost2010Prop51ColorIndex
 90
      256
102
RTVSPost2010Prop51ColorRGB
 90
-16777216
102
RTVSPost2010PropOp51
 70
     0
102
RTVSPost2010Prop52
140
1.0
102
RTVSPost2010PropOp52
 70
     0
102
RTVSPost2010Prop53
 90
        2
102
RTVSPost2010PropOp53
 70
     1
102
RTVSPost2010Prop54
  1
strokes_ogs.tif
102
RTVSPost2010PropOp54
 70
     1
102
RTVSPost2010Prop55
280
     0
102
RTVSPost2010PropOp55
 70
     1
102
RTVSPost2010Prop56
140
1.0
102
RTVSPost2010PropOp56
 70
     1
102
RTVSPost2010Prop57
140
1.0
102
RTVSPost2010PropOp57
 70
     1
  0
XRECORD
  5
1C3
102
{ACAD_REACTORS
330
1C2
102
}
330
1C2
100
AcDbXrecord
280
     1
102
RTVSPost2010Prop28
280
     0
102
RTVSPost2010PropOp28
 70
     0
102
RTVSPost2010Prop29
280
     1
102
RTVSPost2010PropOp29
 70
     0
102
RTVSPost2010Prop30
280
     1
102
RTVSPost2010PropOp30
 70
     0
102
RTVSPost2010Prop31
280
     0
102
RTVSPost2010PropOp31
 70
     0
102
RTVSPost2010Prop32
280
     0
102
RTVSPost2010PropOp32
 70
     0
102
RTVSPost2010Prop33
280
     0
102
RTVSPost2010PropOp33
 70
     0
102
RTVSPost2010Prop34
280
     0
102
RTVSPost2010PropOp34
 70
     0
102
RTVSPost2010Prop35
280
     0
102
RTVSPost2010PropOp35
 70
     0
102
RTVSPost2010Prop36
280
     0
102
RTVSPost2010PropOp36
 70
     0
102
RTVSPost2010Prop37
 90
       50
102
RTVSPost2010PropOp37
 70
     0
102
RTVSPost2010Prop38
140
0.0
102
RTVSPost2010PropOp38
 70
     0
102
RTVSPost2010Prop39
140
1.0
102
RTVSPost2010PropOp39
 70
     0
102
RTVSPost2010Prop40
 90
        0
102
RTVSPost2010PropOp40
 70
     0
102
RTVSPost2010Prop41ColorIndex
 90
       18
102
RTVSPost2010Prop41ColorRGB
 90
        0
102
RTVSPost2010PropOp41
 70
     0
102
RTVSPost2010Prop42
 90
       50
102
RTVSPost2010PropOp42
 70
     0
102
RTVSPost2010Prop43
 90
        3
102
RTVSPost2010PropOp43
 70
     0
102
RTVSPost2010Prop44ColorIndex
 90
        5
102
RTVSPost2010Prop44ColorRGB
 90
      255
102
RTVSPost2010PropOp44
 70
     0
102
RTVSPost2010Prop45
280
     0
102
RTVSPost2010PropOp45
 70
     0
102
RTVSPost2010Prop46
 90
       50
102
RTVSPost2010PropOp46
 70
     0
102
RTVSPost2010Prop47
 90
       50
102
RTVSPost2010PropOp47
 70
     0
102
RTVSPost2010Prop48
 90
       50
102
RTVSPost2010PropOp48
 70
     0
102
RTVSPost2010Prop49
280
     0
102
RTVSPost2010PropOp49
 70
     0
102
RTVSPost2010Prop50
 90
       50
102
RTVSPost2010PropOp50
 70
     0
102
RTVSPost2010Prop51ColorIndex
 90
      256
102
RTVSPost2010Prop51ColorRGB
 90
-16777216
102
RTVSPost2010PropOp51
 70
     0
102
RTVSPost2010Prop52
140
1.0
102
RTVSPost2010PropOp52
 70
     0
102
RTVSPost2010Prop53
 90
        2
102
RTVSPost2010PropOp53
 70
     0
102
RTVSPost2010Prop54
  1
strokes_ogs.tif
102
RTVSPost2010PropOp54
 70
     0
102
RTVSPost2010Prop55
280
     0
102
RTVSPost2010PropOp55
 70
     0
102
RTVSPost2010Prop56
140
1.0
102
RTVSPost2010PropOp56
 70
     0
102
RTVSPost2010Prop57
140
1.0
102
RTVSPost2010PropOp57
 70
     0
  0
XRECORD
  5
1BB
102
{ACAD_REACTORS
330
1BA
102
}
330
1BA
100
AcDbXrecord
280
     1
102
RTVSPost2010Prop28
280
     0
102
RTVSPost2010PropOp28
 70
     1
102
RTVSPost2010Prop29
280
     1
102
RTVSPost2010PropOp29
 70
     1
102
RTVSPost2010Prop30
280
     1
102
RTVSPost2010PropOp30
 70
     1
102
RTVSPost2010Prop31
280
     0
102
RTVSPost2010PropOp31
 70
     1
102
RTVSPost2010Prop32
280
     0
102
RTVSPost2010PropOp32
 70
     1
102
RTVSPost2010Prop33
280
     0
102
RTVSPost2010PropOp33
 70
     1
102
RTVSPost2010Prop34
280
     0
102
RTVSPost2010PropOp34
 70
     1
102
RTVSPost2010Prop35
280
     0
102
RTVSPost2010PropOp35
 70
     1
102
RTVSPost2010Prop36
280
     0
102
RTVSPost2010PropOp36
 70
     1
102
RTVSPost2010Prop37
 90
       50
102
RTVSPost2010PropOp37
 70
     1
102
RTVSPost2010Prop38
140
0.0
102
RTVSPost2010PropOp38
 70
     1
102
RTVSPost2010Prop39
140
1.0
102
RTVSPost2010PropOp39
 70
     1
102
RTVSPost2010Prop40
 90
        0
102
RTVSPost2010PropOp40
 70
     1
102
RTVSPost2010Prop41ColorIndex
 90
       18
102
RTVSPost2010Prop41ColorRGB
 90
        0
102
RTVSPost2010PropOp41
 70
     1
102
RTVSPost2010Prop42
 90
       50
102
RTVSPost2010PropOp42
 70
     1
102
RTVSPost2010Prop43
 90
        3
102
RTVSPost2010PropOp43
 70
     1
102
RTVSPost2010Prop44ColorIndex
 90
        5
102
RTVSPost2010Prop44ColorRGB
 90
      255
102
RTVSPost2010PropOp44
 70
     1
102
RTVSPost2010Prop45
280
     0
102
RTVSPost2010PropOp45
 70
     1
102
RTVSPost2010Prop46
 90
       50
102
RTVSPost2010PropOp46
 70
     1
102
RTVSPost2010Prop47
 90
       50
102
RTVSPost2010PropOp47
 70
     1
102
RTVSPost2010Prop48
 90
       50
102
RTVSPost2010PropOp48
 70
     1
102
RTVSPost2010Prop49
280
     0
102
RTVSPost2010PropOp49
 70
     1
102
RTVSPost2010Prop50
 90
       50
102
RTVSPost2010PropOp50
 70
     1
102
RTVSPost2010Prop51ColorIndex
 90
      256
102
RTVSPost2010Prop51ColorRGB
 90
-16777216
102
RTVSPost2010PropOp51
 70
     0
102
RTVSPost2010Prop52
140
1.0
102
RTVSPost2010PropOp52
 70
     0
102
RTVSPost2010Prop53
 90
        2
102
RTVSPost2010PropOp53
 70
     1
102
RTVSPost2010Prop54
  1
strokes_ogs.tif
102
RTVSPost2010PropOp54
 70
     1
102
RTVSPost2010Prop55
280
     0
102
RTVSPost2010PropOp55
 70
     1
102
RTVSPost2010Prop56
140
1.0
102
RTVSPost2010PropOp56
 70
     1
102
RTVSPost2010Prop57
140
1.0
102
RTVSPost2010PropOp57
 70
     1
  0
XRECORD
  5
19F
102
{ACAD_REACTORS
330
19E
102
}
330
19E
100
AcDbXrecord
280
     1
102
RTVSPost2010Prop28
280
     0
102
RTVSPost2010PropOp28
 70
     1
102
RTVSPost2010Prop29
280
     1
102
RTVSPost2010PropOp29
 70
     1
102
RTVSPost2010Prop30
280
     1
102
RTVSPost2010PropOp30
 70
     1
102
RTVSPost2010Prop31
280
     0
102
RTVSPost2010PropOp31
 70
     1
102
RTVSPost2010Prop32
280
     0
102
RTVSPost2010PropOp32
 70
     1
102
RTVSPost2010Prop33
280
     0
102
RTVSPost2010PropOp33
 70
     1
102
RTVSPost2010Prop34
280
     0
102
RTVSPost2010PropOp34
 70
     1
102
RTVSPost2010Prop35
280
     0
102
RTVSPost2010PropOp35
 70
     1
102
RTVSPost2010Prop36
280
     0
102
RTVSPost2010PropOp36
 70
     1
102
RTVSPost2010Prop37
 90
       50
102
RTVSPost2010PropOp37
 70
     1
102
RTVSPost2010Prop38
140
0.0
102
RTVSPost2010PropOp38
 70
     1
102
RTVSPost2010Prop39
140
1.0
102
RTVSPost2010PropOp39
 70
     1
102
RTVSPost2010Prop40
 90
        0
102
RTVSPost2010PropOp40
 70
     1
102
RTVSPost2010Prop41ColorIndex
 90
       18
102
RTVSPost2010Prop41ColorRGB
 90
        0
102
RTVSPost2010PropOp41
 70
     1
102
RTVSPost2010Prop42
 90
       50
102
RTVSPost2010PropOp42
 70
     1
102
RTVSPost2010Prop43
 90
        3
102
RTVSPost2010PropOp43
 70
     1
102
RTVSPost2010Prop44ColorIndex
 90
        5
102
RTVSPost2010Prop44ColorRGB
 90
      255
102
RTVSPost2010PropOp44
 70
     1
102
RTVSPost2010Prop45
280
     0
102
RTVSPost2010PropOp45
 70
     1
102
RTVSPost2010Prop46
 90
       50
102
RTVSPost2010PropOp46
 70
     1
102
RTVSPost2010Prop47
 90
       50
102
RTVSPost2010PropOp47
 70
     1
102
RTVSPost2010Prop48
 90
       50
102
RTVSPost2010PropOp48
 70
     1
102
RTVSPost2010Prop49
280
     0
102
RTVSPost2010PropOp49
 70
     1
102
RTVSPost2010Prop50
 90
       50
102
RTVSPost2010PropOp50
 70
     1
102
RTVSPost2010Prop51ColorIndex
 90
      256
102
RTVSPost2010Prop51ColorRGB
 90
-16777216
102
RTVSPost2010PropOp51
 70
     0
102
RTVSPost2010Prop52
140
1.0
102
RTVSPost2010PropOp52
 70
     0
102
RTVSPost2010Prop53
 90
        2
102
RTVSPost2010PropOp53
 70
     1
102
RTVSPost2010Prop54
  1
strokes_ogs.tif
102
RTVSPost2010PropOp54
 70
     1
102
RTVSPost2010Prop55
280
     0
102
RTVSPost2010PropOp55
 70
     1
102
RTVSPost2010Prop56
140
1.0
102
RTVSPost2010PropOp56
 70
     1
102
RTVSPost2010Prop57
140
1.0
102
RTVSPost2010PropOp57
 70
     1
  0
XRECORD
  5
1A1
102
{ACAD_REACTORS
330
1A0
102
}
330
1A0
100
AcDbXrecord
280
     1
102
RTVSPost2010Prop28
280
     0
102
RTVSPost2010PropOp28
 70
     1
102
RTVSPost2010Prop29
280
     1
102
RTVSPost2010PropOp29
 70
     1
102
RTVSPost2010Prop30
280
     1
102
RTVSPost2010PropOp30
 70
     1
102
RTVSPost2010Prop31
280
     0
102
RTVSPost2010PropOp31
 70
     1
102
RTVSPost2010Prop32
280
     0
102
RTVSPost2010PropOp32
 70
     1
102
RTVSPost2010Prop33
280
     0
102
RTVSPost2010PropOp33
 70
     1
102
RTVSPost2010Prop34
280
     0
102
RTVSPost2010PropOp34
 70
     1
102
RTVSPost2010Prop35
280
     0
102
RTVSPost2010PropOp35
 70
     1
102
RTVSPost2010Prop36
280
     0
102
RTVSPost2010PropOp36
 70
     1
102
RTVSPost2010Prop37
 90
       50
102
RTVSPost2010PropOp37
 70
     1
102
RTVSPost2010Prop38
140
0.0
102
RTVSPost2010PropOp38
 70
     1
102
RTVSPost2010Prop39
140
1.0
102
RTVSPost2010PropOp39
 70
     1
102
RTVSPost2010Prop40
 90
        0
102
RTVSPost2010PropOp40
 70
     1
102
RTVSPost2010Prop41ColorIndex
 90
       18
102
RTVSPost2010Prop41ColorRGB
 90
        0
102
RTVSPost2010PropOp41
 70
     1
102
RTVSPost2010Prop42
 90
       50
102
RTVSPost2010PropOp42
 70
     1
102
RTVSPost2010Prop43
 90
        3
102
RTVSPost2010PropOp43
 70
     1
102
RTVSPost2010Prop44ColorIndex
 90
        5
102
RTVSPost2010Prop44ColorRGB
 90
      255
102
RTVSPost2010PropOp44
 70
     1
102
RTVSPost2010Prop45
280
     0
102
RTVSPost2010PropOp45
 70
     1
102
RTVSPost2010Prop46
 90
       50
102
RTVSPost2010PropOp46
 70
     1
102
RTVSPost2010Prop47
 90
       50
102
RTVSPost2010PropOp47
 70
     1
102
RTVSPost2010Prop48
 90
       50
102
RTVSPost2010PropOp48
 70
     1
102
RTVSPost2010Prop49
280
     0
102
RTVSPost2010PropOp49
 70
     1
102
RTVSPost2010Prop50
 90
       50
102
RTVSPost2010PropOp50
 70
     1
102
RTVSPost2010Prop51ColorIndex
 90
      256
102
RTVSPost2010Prop51ColorRGB
 90
-16777216
102
RTVSPost2010PropOp51
 70
     0
102
RTVSPost2010Prop52
140
1.0
102
RTVSPost2010PropOp52
 70
     0
102
RTVSPost2010Prop53
 90
        2
102
RTVSPost2010PropOp53
 70
     1
102
RTVSPost2010Prop54
  1
strokes_ogs.tif
102
RTVSPost2010PropOp54
 70
     1
102
RTVSPost2010Prop55
280
     0
102
RTVSPost2010PropOp55
 70
     1
102
RTVSPost2010Prop56
140
1.0
102
RTVSPost2010PropOp56
 70
     1
102
RTVSPost2010Prop57
140
1.0
102
RTVSPost2010PropOp57
 70
     1
  0
XRECORD
  5
1A3
102
{ACAD_REACTORS
330
1A2
102
}
330
1A2
100
AcDbXrecord
280
     1
102
RTVSPost2010Prop28
280
     0
102
RTVSPost2010PropOp28
 70
     1
102
RTVSPost2010Prop29
280
     1
102
RTVSPost2010PropOp29
 70
     1
102
RTVSPost2010Prop30
280
     1
102
RTVSPost2010PropOp30
 70
     1
102
RTVSPost2010Prop31
280
     0
102
RTVSPost2010PropOp31
 70
     1
102
RTVSPost2010Prop32
280
     0
102
RTVSPost2010PropOp32
 70
     1
102
RTVSPost2010Prop33
280
     0
102
RTVSPost2010PropOp33
 70
     1
102
RTVSPost2010Prop34
280
     0
102
RTVSPost2010PropOp34
 70
     1
102
RTVSPost2010Prop35
280
     0
102
RTVSPost2010PropOp35
 70
     1
102
RTVSPost2010Prop36
280
     0
102
RTVSPost2010PropOp36
 70
     1
102
RTVSPost2010Prop37
 90
       50
102
RTVSPost2010PropOp37
 70
     1
102
RTVSPost2010Prop38
140
0.0
102
RTVSPost2010PropOp38
 70
     1
102
RTVSPost2010Prop39
140
1.0
102
RTVSPost2010PropOp39
 70
     1
102
RTVSPost2010Prop40
 90
        0
102
RTVSPost2010PropOp40
 70
     1
102
RTVSPost2010Prop41ColorIndex
 90
       18
102
RTVSPost2010Prop41ColorRGB
 90
        0
102
RTVSPost2010PropOp41
 70
     1
102
RTVSPost2010Prop42
 90
       50
102
RTVSPost2010PropOp42
 70
     1
102
RTVSPost2010Prop43
 90
        3
102
RTVSPost2010PropOp43
 70
     1
102
RTVSPost2010Prop44ColorIndex
 90
        5
102
RTVSPost2010Prop44ColorRGB
 90
      255
102
RTVSPost2010PropOp44
 70
     1
102
RTVSPost2010Prop45
280
     0
102
RTVSPost2010PropOp45
 70
     1
102
RTVSPost2010Prop46
 90
       50
102
RTVSPost2010PropOp46
 70
     1
102
RTVSPost2010Prop47
 90
       50
102
RTVSPost2010PropOp47
 70
     1
102
RTVSPost2010Prop48
 90
       50
102
RTVSPost2010PropOp48
 70
     1
102
RTVSPost2010Prop49
280
     0
102
RTVSPost2010PropOp49
 70
     1
102
RTVSPost2010Prop50
 90
       50
102
RTVSPost2010PropOp50
 70
     1
102
RTVSPost2010Prop51ColorIndex
 90
      256
102
RTVSPost2010Prop51ColorRGB
 90
-16777216
102
RTVSPost2010PropOp51
 70
     0
102
RTVSPost2010Prop52
140
1.0
102
RTVSPost2010PropOp52
 70
     0
102
RTVSPost2010Prop53
 90
        2
102
RTVSPost2010PropOp53
 70
     1
102
RTVSPost2010Prop54
  1
strokes_ogs.tif
102
RTVSPost2010PropOp54
 70
     1
102
RTVSPost2010Prop55
280
     0
102
RTVSPost2010PropOp55
 70
     1
102
RTVSPost2010Prop56
140
1.0
102
RTVSPost2010PropOp56
 70
     1
102
RTVSPost2010Prop57
140
1.0
102
RTVSPost2010PropOp57
 70
     1
  0
XRECORD
  5
1A5
102
{ACAD_REACTORS
330
1A4
102
}
330
1A4
100
AcDbXrecord
280
     1
102
RTVSPost2010Prop28
280
     0
102
RTVSPost2010PropOp28
 70
     1
102
RTVSPost2010Prop29
280
     1
102
RTVSPost2010PropOp29
 70
     1
102
RTVSPost2010Prop30
280
     1
102
RTVSPost2010PropOp30
 70
     1
102
RTVSPost2010Prop31
280
     0
102
RTVSPost2010PropOp31
 70
     1
102
RTVSPost2010Prop32
280
     0
102
RTVSPost2010PropOp32
 70
     1
102
RTVSPost2010Prop33
280
     0
102
RTVSPost2010PropOp33
 70
     1
102
RTVSPost2010Prop34
280
     0
102
RTVSPost2010PropOp34
 70
     1
102
RTVSPost2010Prop35
280
     0
102
RTVSPost2010PropOp35
 70
     1
102
RTVSPost2010Prop36
280
     0
102
RTVSPost2010PropOp36
 70
     1
102
RTVSPost2010Prop37
 90
       50
102
RTVSPost2010PropOp37
 70
     1
102
RTVSPost2010Prop38
140
0.0
102
RTVSPost2010PropOp38
 70
     1
102
RTVSPost2010Prop39
140
1.0
102
RTVSPost2010PropOp39
 70
     1
102
RTVSPost2010Prop40
 90
        0
102
RTVSPost2010PropOp40
 70
     1
102
RTVSPost2010Prop41ColorIndex
 90
       18
102
RTVSPost2010Prop41ColorRGB
 90
        0
102
RTVSPost2010PropOp41
 70
     1
102
RTVSPost2010Prop42
 90
       50
102
RTVSPost2010PropOp42
 70
     1
102
RTVSPost2010Prop43
 90
        3
102
RTVSPost2010PropOp43
 70
     1
102
RTVSPost2010Prop44ColorIndex
 90
        5
102
RTVSPost2010Prop44ColorRGB
 90
      255
102
RTVSPost2010PropOp44
 70
     1
102
RTVSPost2010Prop45
280
     0
102
RTVSPost2010PropOp45
 70
     1
102
RTVSPost2010Prop46
 90
       50
102
RTVSPost2010PropOp46
 70
     1
102
RTVSPost2010Prop47
 90
       50
102
RTVSPost2010PropOp47
 70
     1
102
RTVSPost2010Prop48
 90
       50
102
RTVSPost2010PropOp48
 70
     1
102
RTVSPost2010Prop49
280
     0
102
RTVSPost2010PropOp49
 70
     1
102
RTVSPost2010Prop50
 90
       50
102
RTVSPost2010PropOp50
 70
     1
102
RTVSPost2010Prop51ColorIndex
 90
      256
102
RTVSPost2010Prop51ColorRGB
 90
-16777216
102
RTVSPost2010PropOp51
 70
     0
102
RTVSPost2010Prop52
140
1.0
102
RTVSPost2010PropOp52
 70
     0
102
RTVSPost2010Prop53
 90
        2
102
RTVSPost2010PropOp53
 70
     1
102
RTVSPost2010Prop54
  1
strokes_ogs.tif
102
RTVSPost2010PropOp54
 70
     1
102
RTVSPost2010Prop55
280
     0
102
RTVSPost2010PropOp55
 70
     1
102
RTVSPost2010Prop56
140
1.0
102
RTVSPost2010PropOp56
 70
     1
102
RTVSPost2010Prop57
140
1.0
102
RTVSPost2010PropOp57
 70
     1
  0
XRECORD
  5
1AB
102
{ACAD_REACTORS
330
1AA
102
}
330
1AA
100
AcDbXrecord
280
     1
102
RTVSPost2010Prop28
280
     0
102
RTVSPost2010PropOp28
 70
     1
102
RTVSPost2010Prop29
280
     1
102
RTVSPost2010PropOp29
 70
     1
102
RTVSPost2010Prop30
280
     1
102
RTVSPost2010PropOp30
 70
     1
102
RTVSPost2010Prop31
280
     0
102
RTVSPost2010PropOp31
 70
     1
102
RTVSPost2010Prop32
280
     0
102
RTVSPost2010PropOp32
 70
     1
102
RTVSPost2010Prop33
280
     0
102
RTVSPost2010PropOp33
 70
     1
102
RTVSPost2010Prop34
280
     0
102
RTVSPost2010PropOp34
 70
     1
102
RTVSPost2010Prop35
280
     0
102
RTVSPost2010PropOp35
 70
     1
102
RTVSPost2010Prop36
280
     0
102
RTVSPost2010PropOp36
 70
     1
102
RTVSPost2010Prop37
 90
       50
102
RTVSPost2010PropOp37
 70
     1
102
RTVSPost2010Prop38
140
0.0
102
RTVSPost2010PropOp38
 70
     1
102
RTVSPost2010Prop39
140
1.0
102
RTVSPost2010PropOp39
 70
     1
102
RTVSPost2010Prop40
 90
        0
102
RTVSPost2010PropOp40
 70
     1
102
RTVSPost2010Prop41ColorIndex
 90
       18
102
RTVSPost2010Prop41ColorRGB
 90
        0
102
RTVSPost2010PropOp41
 70
     1
102
RTVSPost2010Prop42
 90
       50
102
RTVSPost2010PropOp42
 70
     1
102
RTVSPost2010Prop43
 90
        3
102
RTVSPost2010PropOp43
 70
     1
102
RTVSPost2010Prop44ColorIndex
 90
        5
102
RTVSPost2010Prop44ColorRGB
 90
      255
102
RTVSPost2010PropOp44
 70
     1
102
RTVSPost2010Prop45
280
     0
102
RTVSPost2010PropOp45
 70
     1
102
RTVSPost2010Prop46
 90
       50
102
RTVSPost2010PropOp46
 70
     1
102
RTVSPost2010Prop47
 90
       50
102
RTVSPost2010PropOp47
 70
     1
102
RTVSPost2010Prop48
 90
       50
102
RTVSPost2010PropOp48
 70
     1
102
RTVSPost2010Prop49
280
     0
102
RTVSPost2010PropOp49
 70
     1
102
RTVSPost2010Prop50
 90
       50
102
RTVSPost2010PropOp50
 70
     1
102
RTVSPost2010Prop51ColorIndex
 90
      256
102
RTVSPost2010Prop51ColorRGB
 90
-16777216
102
RTVSPost2010PropOp51
 70
     0
102
RTVSPost2010Prop52
140
1.0
102
RTVSPost2010PropOp52
 70
     0
102
RTVSPost2010Prop53
 90
        2
102
RTVSPost2010PropOp53
 70
     1
102
RTVSPost2010Prop54
  1
strokes_ogs.tif
102
RTVSPost2010PropOp54
 70
     1
102
RTVSPost2010Prop55
280
     0
102
RTVSPost2010PropOp55
 70
     1
102
RTVSPost2010Prop56
140
1.0
102
RTVSPost2010PropOp56
 70
     1
102
RTVSPost2010Prop57
140
1.0
102
RTVSPost2010PropOp57
 70
     1
  0
XRECORD
  5
1BF
102
{ACAD_REACTORS
330
1BE
102
}
330
1BE
100
AcDbXrecord
280
     1
102
RTVSPost2010Prop28
280
     0
102
RTVSPost2010PropOp28
 70
     0
102
RTVSPost2010Prop29
280
     1
102
RTVSPost2010PropOp29
 70
     0
102
RTVSPost2010Prop30
280
     1
102
RTVSPost2010PropOp30
 70
     0
102
RTVSPost2010Prop31
280
     0
102
RTVSPost2010PropOp31
 70
     0
102
RTVSPost2010Prop32
280
     0
102
RTVSPost2010PropOp32
 70
     0
102
RTVSPost2010Prop33
280
     0
102
RTVSPost2010PropOp33
 70
     0
102
RTVSPost2010Prop34
280
     0
102
RTVSPost2010PropOp34
 70
     0
102
RTVSPost2010Prop35
280
     0
102
RTVSPost2010PropOp35
 70
     0
102
RTVSPost2010Prop36
280
     0
102
RTVSPost2010PropOp36
 70
     0
102
RTVSPost2010Prop37
 90
       50
102
RTVSPost2010PropOp37
 70
     0
102
RTVSPost2010Prop38
140
0.0
102
RTVSPost2010PropOp38
 70
     0
102
RTVSPost2010Prop39
140
1.0
102
RTVSPost2010PropOp39
 70
     0
102
RTVSPost2010Prop40
 90
        0
102
RTVSPost2010PropOp40
 70
     0
102
RTVSPost2010Prop41ColorIndex
 90
       18
102
RTVSPost2010Prop41ColorRGB
 90
        0
102
RTVSPost2010PropOp41
 70
     0
102
RTVSPost2010Prop42
 90
       50
102
RTVSPost2010PropOp42
 70
     0
102
RTVSPost2010Prop43
 90
        3
102
RTVSPost2010PropOp43
 70
     0
102
RTVSPost2010Prop44ColorIndex
 90
        5
102
RTVSPost2010Prop44ColorRGB
 90
      255
102
RTVSPost2010PropOp44
 70
     0
102
RTVSPost2010Prop45
280
     0
102
RTVSPost2010PropOp45
 70
     0
102
RTVSPost2010Prop46
 90
       50
102
RTVSPost2010PropOp46
 70
     0
102
RTVSPost2010Prop47
 90
       50
102
RTVSPost2010PropOp47
 70
     0
102
RTVSPost2010Prop48
 90
       50
102
RTVSPost2010PropOp48
 70
     0
102
RTVSPost2010Prop49
280
     0
102
RTVSPost2010PropOp49
 70
     0
102
RTVSPost2010Prop50
 90
       50
102
RTVSPost2010PropOp50
 70
     0
102
RTVSPost2010Prop51ColorIndex
 90
      256
102
RTVSPost2010Prop51ColorRGB
 90
-16777216
102
RTVSPost2010PropOp51
 70
     0
102
RTVSPost2010Prop52
140
1.0
102
RTVSPost2010PropOp52
 70
     0
102
RTVSPost2010Prop53
 90
        2
102
RTVSPost2010PropOp53
 70
     0
102
RTVSPost2010Prop54
  1
strokes_ogs.tif
102
RTVSPost2010PropOp54
 70
     0
102
RTVSPost2010Prop55
280
     0
102
RTVSPost2010PropOp55
 70
     0
102
RTVSPost2010Prop56
140
1.0
102
RTVSPost2010PropOp56
 70
     0
102
RTVSPost2010Prop57
140
1.0
102
RTVSPost2010PropOp57
 70
     0
  0
XRECORD
  5
1B9
102
{ACAD_REACTORS
330
1B8
102
}
330
1B8
100
AcDbXrecord
280
     1
102
RTVSPost2010Prop28
280
     0
102
RTVSPost2010PropOp28
 70
     1
102
RTVSPost2010Prop29
280
     1
102
RTVSPost2010PropOp29
 70
     1
102
RTVSPost2010Prop30
280
     1
102
RTVSPost2010PropOp30
 70
     1
102
RTVSPost2010Prop31
280
     0
102
RTVSPost2010PropOp31
 70
     1
102
RTVSPost2010Prop32
280
     0
102
RTVSPost2010PropOp32
 70
     1
102
RTVSPost2010Prop33
280
     0
102
RTVSPost2010PropOp33
 70
     1
102
RTVSPost2010Prop34
280
     0
102
RTVSPost2010PropOp34
 70
     1
102
RTVSPost2010Prop35
280
     0
102
RTVSPost2010PropOp35
 70
     1
102
RTVSPost2010Prop36
280
     0
102
RTVSPost2010PropOp36
 70
     1
102
RTVSPost2010Prop37
 90
       50
102
RTVSPost2010PropOp37
 70
     1
102
RTVSPost2010Prop38
140
0.0
102
RTVSPost2010PropOp38
 70
     1
102
RTVSPost2010Prop39
140
1.0
102
RTVSPost2010PropOp39
 70
     1
102
RTVSPost2010Prop40
 90
        0
102
RTVSPost2010PropOp40
 70
     1
102
RTVSPost2010Prop41ColorIndex
 90
       18
102
RTVSPost2010Prop41ColorRGB
 90
        0
102
RTVSPost2010PropOp41
 70
     1
102
RTVSPost2010Prop42
 90
       50
102
RTVSPost2010PropOp42
 70
     1
102
RTVSPost2010Prop43
 90
        3
102
RTVSPost2010PropOp43
 70
     1
102
RTVSPost2010Prop44ColorIndex
 90
        5
102
RTVSPost2010Prop44ColorRGB
 90
      255
102
RTVSPost2010PropOp44
 70
     1
102
RTVSPost2010Prop45
280
     0
102
RTVSPost2010PropOp45
 70
     1
102
RTVSPost2010Prop46
 90
       50
102
RTVSPost2010PropOp46
 70
     1
102
RTVSPost2010Prop47
 90
       50
102
RTVSPost2010PropOp47
 70
     1
102
RTVSPost2010Prop48
 90
       50
102
RTVSPost2010PropOp48
 70
     1
102
RTVSPost2010Prop49
280
     0
102
RTVSPost2010PropOp49
 70
     1
102
RTVSPost2010Prop50
 90
       50
102
RTVSPost2010PropOp50
 70
     1
102
RTVSPost2010Prop51ColorIndex
 90
      256
102
RTVSPost2010Prop51ColorRGB
 90
-16777216
102
RTVSPost2010PropOp51
 70
     0
102
RTVSPost2010Prop52
140
1.0
102
RTVSPost2010PropOp52
 70
     0
102
RTVSPost2010Prop53
 90
        2
102
RTVSPost2010PropOp53
 70
     1
102
RTVSPost2010Prop54
  1
strokes_ogs.tif
102
RTVSPost2010PropOp54
 70
     1
102
RTVSPost2010Prop55
280
     0
102
RTVSPost2010PropOp55
 70
     1
102
RTVSPost2010Prop56
140
1.0
102
RTVSPost2010PropOp56
 70
     1
102
RTVSPost2010Prop57
140
1.0
102
RTVSPost2010PropOp57
 70
     1
  0
XRECORD
  5
1C1
102
{ACAD_REACTORS
330
1C0
102
}
330
1C0
100
AcDbXrecord
280
     1
102
RTVSPost2010Prop28
280
     0
102
RTVSPost2010PropOp28
 70
     0
102
RTVSPost2010Prop29
280
     1
102
RTVSPost2010PropOp29
 70
     0
102
RTVSPost2010Prop30
280
     1
102
RTVSPost2010PropOp30
 70
     0
102
RTVSPost2010Prop31
280
     0
102
RTVSPost2010PropOp31
 70
     0
102
RTVSPost2010Prop32
280
     0
102
RTVSPost2010PropOp32
 70
     0
102
RTVSPost2010Prop33
280
     0
102
RTVSPost2010PropOp33
 70
     0
102
RTVSPost2010Prop34
280
     0
102
RTVSPost2010PropOp34
 70
     0
102
RTVSPost2010Prop35
280
     0
102
RTVSPost2010PropOp35
 70
     0
102
RTVSPost2010Prop36
280
     0
102
RTVSPost2010PropOp36
 70
     0
102
RTVSPost2010Prop37
 90
       50
102
RTVSPost2010PropOp37
 70
     0
102
RTVSPost2010Prop38
140
0.0
102
RTVSPost2010PropOp38
 70
     0
102
RTVSPost2010Prop39
140
1.0
102
RTVSPost2010PropOp39
 70
     0
102
RTVSPost2010Prop40
 90
        0
102
RTVSPost2010PropOp40
 70
     0
102
RTVSPost2010Prop41ColorIndex
 90
       18
102
RTVSPost2010Prop41ColorRGB
 90
        0
102
RTVSPost2010PropOp41
 70
     0
102
RTVSPost2010Prop42
 90
       50
102
RTVSPost2010PropOp42
 70
     0
102
RTVSPost2010Prop43
 90
        3
102
RTVSPost2010PropOp43
 70
     0
102
RTVSPost2010Prop44ColorIndex
 90
        5
102
RTVSPost2010Prop44ColorRGB
 90
      255
102
RTVSPost2010PropOp44
 70
     0
102
RTVSPost2010Prop45
280
     0
102
RTVSPost2010PropOp45
 70
     0
102
RTVSPost2010Prop46
 90
       50
102
RTVSPost2010PropOp46
 70
     0
102
RTVSPost2010Prop47
 90
       50
102
RTVSPost2010PropOp47
 70
     0
102
RTVSPost2010Prop48
 90
       50
102
RTVSPost2010PropOp48
 70
     0
102
RTVSPost2010Prop49
280
     0
102
RTVSPost2010PropOp49
 70
     0
102
RTVSPost2010Prop50
 90
       50
102
RTVSPost2010PropOp50
 70
     0
102
RTVSPost2010Prop51ColorIndex
 90
      256
102
RTVSPost2010Prop51ColorRGB
 90
-16777216
102
RTVSPost2010PropOp51
 70
     0
102
RTVSPost2010Prop52
140
1.0
102
RTVSPost2010PropOp52
 70
     0
102
RTVSPost2010Prop53
 90
        2
102
RTVSPost2010PropOp53
 70
     0
102
RTVSPost2010Prop54
  1
strokes_ogs.tif
102
RTVSPost2010PropOp54
 70
     0
102
RTVSPost2010Prop55
280
     0
102
RTVSPost2010PropOp55
 70
     0
102
RTVSPost2010Prop56
140
1.0
102
RTVSPost2010PropOp56
 70
     0
102
RTVSPost2010Prop57
140
1.0
102
RTVSPost2010PropOp57
 70
     0
  0
XRECORD
  5
1AF
102
{ACAD_REACTORS
330
1AE
102
}
330
1AE
100
AcDbXrecord
280
     1
102
RTVSPost2010Prop28
280
     0
102
RTVSPost2010PropOp28
 70
     1
102
RTVSPost2010Prop29
280
     1
102
RTVSPost2010PropOp29
 70
     1
102
RTVSPost2010Prop30
280
     1
102
RTVSPost2010PropOp30
 70
     1
102
RTVSPost2010Prop31
280
     0
102
RTVSPost2010PropOp31
 70
     1
102
RTVSPost2010Prop32
280
     0
102
RTVSPost2010PropOp32
 70
     1
102
RTVSPost2010Prop33
280
     0
102
RTVSPost2010PropOp33
 70
     1
102
RTVSPost2010Prop34
280
     0
102
RTVSPost2010PropOp34
 70
     1
102
RTVSPost2010Prop35
280
     0
102
RTVSPost2010PropOp35
 70
     1
102
RTVSPost2010Prop36
280
     0
102
RTVSPost2010PropOp36
 70
     1
102
RTVSPost2010Prop37
 90
       50
102
RTVSPost2010PropOp37
 70
     1
102
RTVSPost2010Prop38
140
0.0
102
RTVSPost2010PropOp38
 70
     1
102
RTVSPost2010Prop39
140
1.0
102
RTVSPost2010PropOp39
 70
     1
102
RTVSPost2010Prop40
 90
        0
102
RTVSPost2010PropOp40
 70
     1
102
RTVSPost2010Prop41ColorIndex
 90
       18
102
RTVSPost2010Prop41ColorRGB
 90
        0
102
RTVSPost2010PropOp41
 70
     1
102
RTVSPost2010Prop42
 90
       50
102
RTVSPost2010PropOp42
 70
     1
102
RTVSPost2010Prop43
 90
        3
102
RTVSPost2010PropOp43
 70
     1
102
RTVSPost2010Prop44ColorIndex
 90
        5
102
RTVSPost2010Prop44ColorRGB
 90
      255
102
RTVSPost2010PropOp44
 70
     1
102
RTVSPost2010Prop45
280
     0
102
RTVSPost2010PropOp45
 70
     1
102
RTVSPost2010Prop46
 90
       50
102
RTVSPost2010PropOp46
 70
     1
102
RTVSPost2010Prop47
 90
       50
102
RTVSPost2010PropOp47
 70
     1
102
RTVSPost2010Prop48
 90
       50
102
RTVSPost2010PropOp48
 70
     1
102
RTVSPost2010Prop49
280
     0
102
RTVSPost2010PropOp49
 70
     1
102
RTVSPost2010Prop50
 90
       50
102
RTVSPost2010PropOp50
 70
     1
102
RTVSPost2010Prop51ColorIndex
 90
      256
102
RTVSPost2010Prop51ColorRGB
 90
-16777216
102
RTVSPost2010PropOp51
 70
     0
102
RTVSPost2010Prop52
140
1.0
102
RTVSPost2010PropOp52
 70
     0
102
RTVSPost2010Prop53
 90
        2
102
RTVSPost2010PropOp53
 70
     1
102
RTVSPost2010Prop54
  1
strokes_ogs.tif
102
RTVSPost2010PropOp54
 70
     1
102
RTVSPost2010Prop55
280
     0
102
RTVSPost2010PropOp55
 70
     1
102
RTVSPost2010Prop56
140
1.0
102
RTVSPost2010PropOp56
 70
     1
102
RTVSPost2010Prop57
140
1.0
102
RTVSPost2010PropOp57
 70
     1
  0
XRECORD
  5
1CD
102
{ACAD_REACTORS
330
1CC
102
}
330
1CC
100
AcDbXrecord
280
     1
102
RTVSPost2010Prop28
280
     0
102
RTVSPost2010PropOp28
 70
     1
102
RTVSPost2010Prop29
280
     1
102
RTVSPost2010PropOp29
 70
     1
102
RTVSPost2010Prop30
280
     1
102
RTVSPost2010PropOp30
 70
     1
102
RTVSPost2010Prop31
280
     0
102
RTVSPost2010PropOp31
 70
     1
102
RTVSPost2010Prop32
280
     0
102
RTVSPost2010PropOp32
 70
     1
102
RTVSPost2010Prop33
280
     0
102
RTVSPost2010PropOp33
 70
     1
102
RTVSPost2010Prop34
280
     0
102
RTVSPost2010PropOp34
 70
     1
102
RTVSPost2010Prop35
280
     0
102
RTVSPost2010PropOp35
 70
     1
102
RTVSPost2010Prop36
280
     0
102
RTVSPost2010PropOp36
 70
     1
102
RTVSPost2010Prop37
 90
       50
102
RTVSPost2010PropOp37
 70
     1
102
RTVSPost2010Prop38
140
0.0
102
RTVSPost2010PropOp38
 70
     1
102
RTVSPost2010Prop39
140
1.0
102
RTVSPost2010PropOp39
 70
     1
102
RTVSPost2010Prop40
 90
        0
102
RTVSPost2010PropOp40
 70
     1
102
RTVSPost2010Prop41ColorIndex
 90
       18
102
RTVSPost2010Prop41ColorRGB
 90
        0
102
RTVSPost2010PropOp41
 70
     1
102
RTVSPost2010Prop42
 90
       50
102
RTVSPost2010PropOp42
 70
     1
102
RTVSPost2010Prop43
 90
        3
102
RTVSPost2010PropOp43
 70
     1
102
RTVSPost2010Prop44ColorIndex
 90
        5
102
RTVSPost2010Prop44ColorRGB
 90
      255
102
RTVSPost2010PropOp44
 70
     1
102
RTVSPost2010Prop45
280
     0
102
RTVSPost2010PropOp45
 70
     1
102
RTVSPost2010Prop46
 90
       50
102
RTVSPost2010PropOp46
 70
     1
102
RTVSPost2010Prop47
 90
       50
102
RTVSPost2010PropOp47
 70
     1
102
RTVSPost2010Prop48
 90
       50
102
RTVSPost2010PropOp48
 70
     1
102
RTVSPost2010Prop49
280
     0
102
RTVSPost2010PropOp49
 70
     1
102
RTVSPost2010Prop50
 90
       50
102
RTVSPost2010PropOp50
 70
     1
102
RTVSPost2010Prop51ColorIndex
 90
      256
102
RTVSPost2010Prop51ColorRGB
 90
-16777216
102
RTVSPost2010PropOp51
 70
     0
102
RTVSPost2010Prop52
140
1.0
102
RTVSPost2010PropOp52
 70
     0
102
RTVSPost2010Prop53
 90
        2
102
RTVSPost2010PropOp53
 70
     1
102
RTVSPost2010Prop54
  1
strokes_ogs.tif
102
RTVSPost2010PropOp54
 70
     1
102
RTVSPost2010Prop55
280
     0
102
RTVSPost2010PropOp55
 70
     1
102
RTVSPost2010Prop56
140
1.0
102
RTVSPost2010PropOp56
 70
     1
102
RTVSPost2010Prop57
140
1.0
102
RTVSPost2010PropOp57
 70
     1
  0
XRECORD
  5
1CB
102
{ACAD_REACTORS
330
1CA
102
}
330
1CA
100
AcDbXrecord
280
     1
102
RTVSPost2010Prop28
280
     0
102
RTVSPost2010PropOp28
 70
     1
102
RTVSPost2010Prop29
280
     1
102
RTVSPost2010PropOp29
 70
     1
102
RTVSPost2010Prop30
280
     1
102
RTVSPost2010PropOp30
 70
     1
102
RTVSPost2010Prop31
280
     0
102
RTVSPost2010PropOp31
 70
     1
102
RTVSPost2010Prop32
280
     0
102
RTVSPost2010PropOp32
 70
     1
102
RTVSPost2010Prop33
280
     0
102
RTVSPost2010PropOp33
 70
     1
102
RTVSPost2010Prop34
280
     0
102
RTVSPost2010PropOp34
 70
     1
102
RTVSPost2010Prop35
280
     0
102
RTVSPost2010PropOp35
 70
     1
102
RTVSPost2010Prop36
280
     0
102
RTVSPost2010PropOp36
 70
     1
102
RTVSPost2010Prop37
 90
       50
102
RTVSPost2010PropOp37
 70
     1
102
RTVSPost2010Prop38
140
0.0
102
RTVSPost2010PropOp38
 70
     1
102
RTVSPost2010Prop39
140
1.0
102
RTVSPost2010PropOp39
 70
     1
102
RTVSPost2010Prop40
 90
        0
102
RTVSPost2010PropOp40
 70
     1
102
RTVSPost2010Prop41ColorIndex
 90
       18
102
RTVSPost2010Prop41ColorRGB
 90
        0
102
RTVSPost2010PropOp41
 70
     1
102
RTVSPost2010Prop42
 90
       50
102
RTVSPost2010PropOp42
 70
     1
102
RTVSPost2010Prop43
 90
        3
102
RTVSPost2010PropOp43
 70
     1
102
RTVSPost2010Prop44ColorIndex
 90
        5
102
RTVSPost2010Prop44ColorRGB
 90
      255
102
RTVSPost2010PropOp44
 70
     1
102
RTVSPost2010Prop45
280
     0
102
RTVSPost2010PropOp45
 70
     1
102
RTVSPost2010Prop46
 90
       50
102
RTVSPost2010PropOp46
 70
     1
102
RTVSPost2010Prop47
 90
       50
102
RTVSPost2010PropOp47
 70
     1
102
RTVSPost2010Prop48
 90
       50
102
RTVSPost2010PropOp48
 70
     1
102
RTVSPost2010Prop49
280
     0
102
RTVSPost2010PropOp49
 70
     1
102
RTVSPost2010Prop50
 90
       50
102
RTVSPost2010PropOp50
 70
     1
102
RTVSPost2010Prop51ColorIndex
 90
      256
102
RTVSPost2010Prop51ColorRGB
 90
-16777216
102
RTVSPost2010PropOp51
 70
     0
102
RTVSPost2010Prop52
140
1.0
102
RTVSPost2010PropOp52
 70
     0
102
RTVSPost2010Prop53
 90
        2
102
RTVSPost2010PropOp53
 70
     1
102
RTVSPost2010Prop54
  1
strokes_ogs.tif
102
RTVSPost2010PropOp54
 70
     1
102
RTVSPost2010Prop55
280
     0
102
RTVSPost2010PropOp55
 70
     1
102
RTVSPost2010Prop56
140
1.0
102
RTVSPost2010PropOp56
 70
     1
102
RTVSPost2010Prop57
140
1.0
102
RTVSPost2010PropOp57
 70
     1
  0
XRECORD
  5
1C5
102
{ACAD_REACTORS
330
1C4
102
}
330
1C4
100
AcDbXrecord
280
     1
102
RTVSPost2010Prop28
280
     0
102
RTVSPost2010PropOp28
 70
     1
102
RTVSPost2010Prop29
280
     1
102
RTVSPost2010PropOp29
 70
     1
102
RTVSPost2010Prop30
280
     1
102
RTVSPost2010PropOp30
 70
     1
102
RTVSPost2010Prop31
280
     0
102
RTVSPost2010PropOp31
 70
     1
102
RTVSPost2010Prop32
280
     0
102
RTVSPost2010PropOp32
 70
     1
102
RTVSPost2010Prop33
280
     0
102
RTVSPost2010PropOp33
 70
     1
102
RTVSPost2010Prop34
280
     0
102
RTVSPost2010PropOp34
 70
     1
102
RTVSPost2010Prop35
280
     0
102
RTVSPost2010PropOp35
 70
     1
102
RTVSPost2010Prop36
280
     0
102
RTVSPost2010PropOp36
 70
     1
102
RTVSPost2010Prop37
 90
       50
102
RTVSPost2010PropOp37
 70
     1
102
RTVSPost2010Prop38
140
0.0
102
RTVSPost2010PropOp38
 70
     1
102
RTVSPost2010Prop39
140
1.0
102
RTVSPost2010PropOp39
 70
     1
102
RTVSPost2010Prop40
 90
        0
102
RTVSPost2010PropOp40
 70
     1
102
RTVSPost2010Prop41ColorIndex
 90
       18
102
RTVSPost2010Prop41ColorRGB
 90
        0
102
RTVSPost2010PropOp41
 70
     1
102
RTVSPost2010Prop42
 90
       50
102
RTVSPost2010PropOp42
 70
     1
102
RTVSPost2010Prop43
 90
        3
102
RTVSPost2010PropOp43
 70
     1
102
RTVSPost2010Prop44ColorIndex
 90
        5
102
RTVSPost2010Prop44ColorRGB
 90
      255
102
RTVSPost2010PropOp44
 70
     1
102
RTVSPost2010Prop45
280
     0
102
RTVSPost2010PropOp45
 70
     1
102
RTVSPost2010Prop46
 90
       50
102
RTVSPost2010PropOp46
 70
     1
102
RTVSPost2010Prop47
 90
       50
102
RTVSPost2010PropOp47
 70
     1
102
RTVSPost2010Prop48
 90
       50
102
RTVSPost2010PropOp48
 70
     1
102
RTVSPost2010Prop49
280
     0
102
RTVSPost2010PropOp49
 70
     1
102
RTVSPost2010Prop50
 90
       50
102
RTVSPost2010PropOp50
 70
     1
102
RTVSPost2010Prop51ColorIndex
 90
      256
102
RTVSPost2010Prop51ColorRGB
 90
-16777216
102
RTVSPost2010PropOp51
 70
     0
102
RTVSPost2010Prop52
140
1.0
102
RTVSPost2010PropOp52
 70
     0
102
RTVSPost2010Prop53
 90
        2
102
RTVSPost2010PropOp53
 70
     1
102
RTVSPost2010Prop54
  1
strokes_ogs.tif
102
RTVSPost2010PropOp54
 70
     1
102
RTVSPost2010Prop55
280
     0
102
RTVSPost2010PropOp55
 70
     1
102
RTVSPost2010Prop56
140
1.0
102
RTVSPost2010PropOp56
 70
     1
102
RTVSPost2010Prop57
140
1.0
102
RTVSPost2010PropOp57
 70
     1
  0
XRECORD
  5
1C7
102
{ACAD_REACTORS
330
1C6
102
}
330
1C6
100
AcDbXrecord
280
     1
102
RTVSPost2010Prop28
280
     0
102
RTVSPost2010PropOp28
 70
     1
102
RTVSPost2010Prop29
280
     1
102
RTVSPost2010PropOp29
 70
     1
102
RTVSPost2010Prop30
280
     1
102
RTVSPost2010PropOp30
 70
     1
102
RTVSPost2010Prop31
280
     0
102
RTVSPost2010PropOp31
 70
     1
102
RTVSPost2010Prop32
280
     0
102
RTVSPost2010PropOp32
 70
     1
102
RTVSPost2010Prop33
280
     0
102
RTVSPost2010PropOp33
 70
     1
102
RTVSPost2010Prop34
280
     0
102
RTVSPost2010PropOp34
 70
     1
102
RTVSPost2010Prop35
280
     0
102
RTVSPost2010PropOp35
 70
     1
102
RTVSPost2010Prop36
280
     0
102
RTVSPost2010PropOp36
 70
     1
102
RTVSPost2010Prop37
 90
       50
102
RTVSPost2010PropOp37
 70
     1
102
RTVSPost2010Prop38
140
0.0
102
RTVSPost2010PropOp38
 70
     1
102
RTVSPost2010Prop39
140
1.0
102
RTVSPost2010PropOp39
 70
     1
102
RTVSPost2010Prop40
 90
        0
102
RTVSPost2010PropOp40
 70
     1
102
RTVSPost2010Prop41ColorIndex
 90
       18
102
RTVSPost2010Prop41ColorRGB
 90
        0
102
RTVSPost2010PropOp41
 70
     1
102
RTVSPost2010Prop42
 90
       50
102
RTVSPost2010PropOp42
 70
     1
102
RTVSPost2010Prop43
 90
        3
102
RTVSPost2010PropOp43
 70
     1
102
RTVSPost2010Prop44ColorIndex
 90
        5
102
RTVSPost2010Prop44ColorRGB
 90
      255
102
RTVSPost2010PropOp44
 70
     1
102
RTVSPost2010Prop45
280
     0
102
RTVSPost2010PropOp45
 70
     1
102
RTVSPost2010Prop46
 90
       50
102
RTVSPost2010PropOp46
 70
     1
102
RTVSPost2010Prop47
 90
       50
102
RTVSPost2010PropOp47
 70
     1
102
RTVSPost2010Prop48
 90
       50
102
RTVSPost2010PropOp48
 70
     1
102
RTVSPost2010Prop49
280
     0
102
RTVSPost2010PropOp49
 70
     1
102
RTVSPost2010Prop50
 90
       50
102
RTVSPost2010PropOp50
 70
     1
102
RTVSPost2010Prop51ColorIndex
 90
      256
102
RTVSPost2010Prop51ColorRGB
 90
-16777216
102
RTVSPost2010PropOp51
 70
     0
102
RTVSPost2010Prop52
140
1.0
102
RTVSPost2010PropOp52
 70
     0
102
RTVSPost2010Prop53
 90
        2
102
RTVSPost2010PropOp53
 70
     1
102
RTVSPost2010Prop54
  1
strokes_ogs.tif
102
RTVSPost2010PropOp54
 70
     1
102
RTVSPost2010Prop55
280
     0
102
RTVSPost2010PropOp55
 70
     1
102
RTVSPost2010Prop56
140
1.0
102
RTVSPost2010PropOp56
 70
     1
102
RTVSPost2010Prop57
140
1.0
102
RTVSPost2010PropOp57
 70
     1
  0
XRECORD
  5
1B7
102
{ACAD_REACTORS
330
1B6
102
}
330
1B6
100
AcDbXrecord
280
     1
102
RTVSPost2010Prop28
280
     0
102
RTVSPost2010PropOp28
 70
     1
102
RTVSPost2010Prop29
280
     1
102
RTVSPost2010PropOp29
 70
     1
102
RTVSPost2010Prop30
280
     1
102
RTVSPost2010PropOp30
 70
     1
102
RTVSPost2010Prop31
280
     0
102
RTVSPost2010PropOp31
 70
     1
102
RTVSPost2010Prop32
280
     0
102
RTVSPost2010PropOp32
 70
     1
102
RTVSPost2010Prop33
280
     0
102
RTVSPost2010PropOp33
 70
     1
102
RTVSPost2010Prop34
280
     0
102
RTVSPost2010PropOp34
 70
     1
102
RTVSPost2010Prop35
280
     0
102
RTVSPost2010PropOp35
 70
     1
102
RTVSPost2010Prop36
280
     0
102
RTVSPost2010PropOp36
 70
     1
102
RTVSPost2010Prop37
 90
       50
102
RTVSPost2010PropOp37
 70
     1
102
RTVSPost2010Prop38
140
0.0
102
RTVSPost2010PropOp38
 70
     1
102
RTVSPost2010Prop39
140
1.0
102
RTVSPost2010PropOp39
 70
     1
102
RTVSPost2010Prop40
 90
        0
102
RTVSPost2010PropOp40
 70
     1
102
RTVSPost2010Prop41ColorIndex
 90
       18
102
RTVSPost2010Prop41ColorRGB
 90
        0
102
RTVSPost2010PropOp41
 70
     1
102
RTVSPost2010Prop42
 90
       50
102
RTVSPost2010PropOp42
 70
     1
102
RTVSPost2010Prop43
 90
        3
102
RTVSPost2010PropOp43
 70
     1
102
RTVSPost2010Prop44ColorIndex
 90
        5
102
RTVSPost2010Prop44ColorRGB
 90
      255
102
RTVSPost2010PropOp44
 70
     1
102
RTVSPost2010Prop45
280
     0
102
RTVSPost2010PropOp45
 70
     1
102
RTVSPost2010Prop46
 90
       50
102
RTVSPost2010PropOp46
 70
     1
102
RTVSPost2010Prop47
 90
       50
102
RTVSPost2010PropOp47
 70
     1
102
RTVSPost2010Prop48
 90
       50
102
RTVSPost2010PropOp48
 70
     1
102
RTVSPost2010Prop49
280
     0
102
RTVSPost2010PropOp49
 70
     1
102
RTVSPost2010Prop50
 90
       50
102
RTVSPost2010PropOp50
 70
     1
102
RTVSPost2010Prop51ColorIndex
 90
      256
102
RTVSPost2010Prop51ColorRGB
 90
-16777216
102
RTVSPost2010PropOp51
 70
     0
102
RTVSPost2010Prop52
140
1.0
102
RTVSPost2010PropOp52
 70
     0
102
RTVSPost2010Prop53
 90
        2
102
RTVSPost2010PropOp53
 70
     1
102
RTVSPost2010Prop54
  1
strokes_ogs.tif
102
RTVSPost2010PropOp54
 70
     1
102
RTVSPost2010Prop55
280
     0
102
RTVSPost2010PropOp55
 70
     1
102
RTVSPost2010Prop56
140
1.0
102
RTVSPost2010PropOp56
 70
     1
102
RTVSPost2010Prop57
140
1.0
102
RTVSPost2010PropOp57
 70
     1
  0
XRECORD
  5
1A9
102
{ACAD_REACTORS
330
1A8
102
}
330
1A8
100
AcDbXrecord
280
     1
102
RTVSPost2010Prop28
280
     0
102
RTVSPost2010PropOp28
 70
     1
102
RTVSPost2010Prop29
280
     1
102
RTVSPost2010PropOp29
 70
     1
102
RTVSPost2010Prop30
280
     1
102
RTVSPost2010PropOp30
 70
     1
102
RTVSPost2010Prop31
280
     0
102
RTVSPost2010PropOp31
 70
     1
102
RTVSPost2010Prop32
280
     0
102
RTVSPost2010PropOp32
 70
     1
102
RTVSPost2010Prop33
280
     0
102
RTVSPost2010PropOp33
 70
     1
102
RTVSPost2010Prop34
280
     0
102
RTVSPost2010PropOp34
 70
     1
102
RTVSPost2010Prop35
280
     0
102
RTVSPost2010PropOp35
 70
     1
102
RTVSPost2010Prop36
280
     0
102
RTVSPost2010PropOp36
 70
     1
102
RTVSPost2010Prop37
 90
       50
102
RTVSPost2010PropOp37
 70
     1
102
RTVSPost2010Prop38
140
0.0
102
RTVSPost2010PropOp38
 70
     1
102
RTVSPost2010Prop39
140
1.0
102
RTVSPost2010PropOp39
 70
     1
102
RTVSPost2010Prop40
 90
        0
102
RTVSPost2010PropOp40
 70
     1
102
RTVSPost2010Prop41ColorIndex
 90
       18
102
RTVSPost2010Prop41ColorRGB
 90
        0
102
RTVSPost2010PropOp41
 70
     1
102
RTVSPost2010Prop42
 90
       50
102
RTVSPost2010PropOp42
 70
     1
102
RTVSPost2010Prop43
 90
        3
102
RTVSPost2010PropOp43
 70
     1
102
RTVSPost2010Prop44ColorIndex
 90
        5
102
RTVSPost2010Prop44ColorRGB
 90
      255
102
RTVSPost2010PropOp44
 70
     1
102
RTVSPost2010Prop45
280
     0
102
RTVSPost2010PropOp45
 70
     1
102
RTVSPost2010Prop46
 90
       50
102
RTVSPost2010PropOp46
 70
     1
102
RTVSPost2010Prop47
 90
       50
102
RTVSPost2010PropOp47
 70
     1
102
RTVSPost2010Prop48
 90
       50
102
RTVSPost2010PropOp48
 70
     1
102
RTVSPost2010Prop49
280
     0
102
RTVSPost2010PropOp49
 70
     1
102
RTVSPost2010Prop50
 90
       50
102
RTVSPost2010PropOp50
 70
     1
102
RTVSPost2010Prop51ColorIndex
 90
      256
102
RTVSPost2010Prop51ColorRGB
 90
-16777216
102
RTVSPost2010PropOp51
 70
     0
102
RTVSPost2010Prop52
140
1.0
102
RTVSPost2010PropOp52
 70
     0
102
RTVSPost2010Prop53
 90
        2
102
RTVSPost2010PropOp53
 70
     1
102
RTVSPost2010Prop54
  1
strokes_ogs.tif
102
RTVSPost2010PropOp54
 70
     1
102
RTVSPost2010Prop55
280
     0
102
RTVSPost2010PropOp55
 70
     1
102
RTVSPost2010Prop56
140
1.0
102
RTVSPost2010PropOp56
 70
     1
102
RTVSPost2010Prop57
140
1.0
102
RTVSPost2010PropOp57
 70
     1
  0
XRECORD
  5
1C9
102
{ACAD_REACTORS
330
1C8
102
}
330
1C8
100
AcDbXrecord
280
     1
102
RTVSPost2010Prop28
280
     0
102
RTVSPost2010PropOp28
 70
     1
102
RTVSPost2010Prop29
280
     1
102
RTVSPost2010PropOp29
 70
     1
102
RTVSPost2010Prop30
280
     1
102
RTVSPost2010PropOp30
 70
     1
102
RTVSPost2010Prop31
280
     0
102
RTVSPost2010PropOp31
 70
     1
102
RTVSPost2010Prop32
280
     0
102
RTVSPost2010PropOp32
 70
     1
102
RTVSPost2010Prop33
280
     0
102
RTVSPost2010PropOp33
 70
     1
102
RTVSPost2010Prop34
280
     0
102
RTVSPost2010PropOp34
 70
     1
102
RTVSPost2010Prop35
280
     0
102
RTVSPost2010PropOp35
 70
     1
102
RTVSPost2010Prop36
280
     0
102
RTVSPost2010PropOp36
 70
     1
102
RTVSPost2010Prop37
 90
       50
102
RTVSPost2010PropOp37
 70
     1
102
RTVSPost2010Prop38
140
0.0
102
RTVSPost2010PropOp38
 70
     1
102
RTVSPost2010Prop39
140
1.0
102
RTVSPost2010PropOp39
 70
     1
102
RTVSPost2010Prop40
 90
        0
102
RTVSPost2010PropOp40
 70
     1
102
RTVSPost2010Prop41ColorIndex
 90
       18
102
RTVSPost2010Prop41ColorRGB
 90
        0
102
RTVSPost2010PropOp41
 70
     1
102
RTVSPost2010Prop42
 90
       50
102
RTVSPost2010PropOp42
 70
     1
102
RTVSPost2010Prop43
 90
        3
102
RTVSPost2010PropOp43
 70
     1
102
RTVSPost2010Prop44ColorIndex
 90
        5
102
RTVSPost2010Prop44ColorRGB
 90
      255
102
RTVSPost2010PropOp44
 70
     1
102
RTVSPost2010Prop45
280
     0
102
RTVSPost2010PropOp45
 70
     1
102
RTVSPost2010Prop46
 90
       50
102
RTVSPost2010PropOp46
 70
     1
102
RTVSPost2010Prop47
 90
       50
102
RTVSPost2010PropOp47
 70
     1
102
RTVSPost2010Prop48
 90
       50
102
RTVSPost2010PropOp48
 70
     1
102
RTVSPost2010Prop49
280
     0
102
RTVSPost2010PropOp49
 70
     1
102
RTVSPost2010Prop50
 90
       50
102
RTVSPost2010PropOp50
 70
     1
102
RTVSPost2010Prop51ColorIndex
 90
      256
102
RTVSPost2010Prop51ColorRGB
 90
-16777216
102
RTVSPost2010PropOp51
 70
     0
102
RTVSPost2010Prop52
140
1.0
102
RTVSPost2010PropOp52
 70
     0
102
RTVSPost2010Prop53
 90
        2
102
RTVSPost2010PropOp53
 70
     1
102
RTVSPost2010Prop54
  1
strokes_ogs.tif
102
RTVSPost2010PropOp54
 70
     1
102
RTVSPost2010Prop55
280
     0
102
RTVSPost2010PropOp55
 70
     1
102
RTVSPost2010Prop56
140
1.0
102
RTVSPost2010PropOp56
 70
     1
102
RTVSPost2010Prop57
140
1.0
102
RTVSPost2010PropOp57
 70
     1
  0
ENDSEC
  0
EOF
