  0
SECTION
  2
HEADER
  9
$ACADVER
  1
AC1024
  9
$ACADMAINTVER
 70
     6
  9
$DWGCODEPAGE
  3
ANSI_1252
  9
$LASTSAVEDBY
  1
BirnerR
  9
$INSBASE
 10
0.0
 20
0.0
 30
0.0
  9
$EXTMIN
 10
7.284505
 20
-0.939177
 30
7.284505
  9
$EXTMAX
 10
8.334536
 20
0.545823
 30
8.334536
  9
$LIMMIN
 10
7.284505
 20
-0.939177
  9
$LIMMAX
 10
8.334536
 20
0.545823
  9
$ORTHOMODE
 70
     0
  9
$REGENMODE
 70
     1
  9
$FILLMODE
 70
     1
  9
$QTEXTMODE
 70
     0
  9
$MIRRTEXT
 70
     1
  9
$LTSCALE
 40
1.0
  9
$ATTMODE
 70
     1
  9
$TEXTSIZE
 40
0.2
  9
$TRACEWID
 40
0.05
  9
$TEXTSTYLE
  7
Standard
  9
$CLAYER
  8
0
  9
$CELTYPE
  6
ByLayer
  9
$CECOLOR
 62
   256
  9
$CELTSCALE
 40
1.0
  9
$DISPSILH
 70
     0
  9
$DIMSCALE
 40
1.0
  9
$DIMASZ
 40
0.18
  9
$DIMEXO
 40
0.0625
  9
$DIMDLI
 40
0.38
  9
$DIMRND
 40
0.0
  9
$DIMDLE
 40
0.0
  9
$DIMEXE
 40
0.18
  9
$DIMTP
 40
0.0
  9
$DIMTM
 40
0.0
  9
$DIMTXT
 40
0.18
  9
$DIMCEN
 40
0.09
  9
$DIMTSZ
 40
0.0
  9
$DIMTOL
 70
     0
  9
$DIMLIM
 70
     0
  9
$DIMTIH
 70
     1
  9
$DIMTOH
 70
     1
  9
$DIMSE1
 70
     0
  9
$DIMSE2
 70
     0
  9
$DIMTAD
 70
     0
  9
$DIMZIN
 70
     0
  9
$DIMBLK
  1

  9
$DIMASO
 70
     1
  9
$DIMSHO
 70
     1
  9
$DIMPOST
  1

  9
$DIMAPOST
  1

  9
$DIMALT
 70
     0
  9
$DIMALTD
 70
     2
  9
$DIMALTF
 40
25.4
  9
$DIMLFAC
 40
1.0
  9
$DIMTOFL
 70
     0
  9
$DIMTVP
 40
0.0
  9
$DIMTIX
 70
     0
  9
$DIMSOXD
 70
     0
  9
$DIMSAH
 70
     0
  9
$DIMBLK1
  1

  9
$DIMBLK2
  1

  9
$DIMSTYLE
  2
Standard
  9
$DIMCLRD
 70
     0
  9
$DIMCLRE
 70
     0
  9
$DIMCLRT
 70
     0
  9
$DIMTFAC
 40
1.0
  9
$DIMGAP
 40
0.09
  9
$DIMJUST
 70
     0
  9
$DIMSD1
 70
     0
  9
$DIMSD2
 70
     0
  9
$DIMTOLJ
 70
     1
  9
$DIMTZIN
 70
     0
  9
$DIMALTZ
 70
     0
  9
$DIMALTTZ
 70
     0
  9
$DIMUPT
 70
     0
  9
$DIMDEC
 70
     4
  9
$DIMTDEC
 70
     4
  9
$DIMALTU
 70
     2
  9
$DIMALTTD
 70
     2
  9
$DIMTXSTY
  7
Standard
  9
$DIMAUNIT
 70
     0
  9
$DIMADEC
 70
     0
  9
$DIMALTRND
 40
0.0
  9
$DIMAZIN
 70
     0
  9
$DIMDSEP
 70
    46
  9
$DIMATFIT
 70
     3
  9
$DIMFRAC
 70
     0
  9
$DIMLDRBLK
  1

  9
$DIMLUNIT
 70
     2
  9
$DIMLWD
 70
    -2
  9
$DIMLWE
 70
    -2
  9
$DIMTMOVE
 70
     0
  9
$DIMFXL
 40
1.0
  9
$DIMFXLON
 70
     0
  9
$DIMJOGANG
 40
0.785398
  9
$DIMTFILL
 70
     0
  9
$DIMTFILLCLR
 70
     0
  9
$DIMARCSYM
 70
     0
  9
$DIMLTYPE
  6

  9
$DIMLTEX1
  6

  9
$DIMLTEX2
  6

  9
$DIMTXTDIRECTION
 70
     0
  9
$LUNITS
 70
     2
  9
$LUPREC
 70
     4
  9
$SKETCHINC
 40
0.1
  9
$FILLETRAD
 40
0.5
  9
$AUNITS
 70
     0
  9
$AUPREC
 70
     0
  9
$MENU
  1
.
  9
$ELEVATION
 40
0.0
  9
$PELEVATION
 40
0.0
  9
$THICKNESS
 40
0.0
  9
$LIMCHECK
 70
     0
  9
$CHAMFERA
 40
0.0
  9
$CHAMFERB
 40
0.0
  9
$CHAMFERC
 40
0.0
  9
$CHAMFERD
 40
0.0
  9
$SKPOLY
 70
     0
  9
$TDCREATE
 40
2459143.703963773
  9
$TDUCREATE
 40
2459143.62063044
  9
$TDUPDATE
 40
2459143.703971551
  9
$TDUUPDATE
 40
2459143.620638218
  9
$TDINDWG
 40
0.0000000116
  9
$TDUSRTIMER
 40
0.0000000116
  9
$USRTIMER
 70
     1
  9
$ANGBASE
 50
0.0
  9
$ANGDIR
 70
     0
  9
$PDMODE
 70
    65
  9
$PDSIZE
 40
0.0
  9
$PLINEWID
 40
0.0
  9
$SPLFRAME
 70
     0
  9
$SPLINETYPE
 70
     6
  9
$SPLINESEGS
 70
     8
  9
$HANDSEED
  5
201
  9
$SURFTAB1
 70
     6
  9
$SURFTAB2
 70
     6
  9
$SURFTYPE
 70
     6
  9
$SURFU
 70
     6
  9
$SURFV
 70
     6
  9
$UCSBASE
  2

  9
$UCSNAME
  2

  9
$UCSORG
 10
0.0
 20
0.0
 30
0.0
  9
$UCSXDIR
 10
1.0
 20
0.0
 30
0.0
  9
$UCSYDIR
 10
0.0
 20
1.0
 30
0.0
  9
$UCSORTHOREF
  2

  9
$UCSORTHOVIEW
 70
     0
  9
$UCSORGTOP
 10
0.0
 20
0.0
 30
0.0
  9
$UCSORGBOTTOM
 10
0.0
 20
0.0
 30
0.0
  9
$UCSORGLEFT
 10
0.0
 20
0.0
 30
0.0
  9
$UCSORGRIGHT
 10
0.0
 20
0.0
 30
0.0
  9
$UCSORGFRONT
 10
0.0
 20
0.0
 30
0.0
  9
$UCSORGBACK
 10
0.0
 20
0.0
 30
0.0
  9
$PUCSBASE
  2

  9
$PUCSNAME
  2

  9
$PUCSORG
 10
0.0
 20
0.0
 30
0.0
  9
$PUCSXDIR
 10
1.0
 20
0.0
 30
0.0
  9
$PUCSYDIR
 10
0.0
 20
1.0
 30
0.0
  9
$PUCSORTHOREF
  2

  9
$PUCSORTHOVIEW
 70
     0
  9
$PUCSORGTOP
 10
0.0
 20
0.0
 30
0.0
  9
$PUCSORGBOTTOM
 10
0.0
 20
0.0
 30
0.0
  9
$PUCSORGLEFT
 10
0.0
 20
0.0
 30
0.0
  9
$PUCSORGRIGHT
 10
0.0
 20
0.0
 30
0.0
  9
$PUCSORGFRONT
 10
0.0
 20
0.0
 30
0.0
  9
$PUCSORGBACK
 10
0.0
 20
0.0
 30
0.0
  9
$USERI1
 70
     0
  9
$USERI2
 70
     0
  9
$USERI3
 70
     0
  9
$USERI4
 70
     0
  9
$USERI5
 70
     0
  9
$USERR1
 40
0.0
  9
$USERR2
 40
0.0
  9
$USERR3
 40
0.0
  9
$USERR4
 40
0.0
  9
$USERR5
 40
0.0
  9
$WORLDVIEW
 70
     1
  9
$SHADEDGE
 70
     3
  9
$SHADEDIF
 70
    70
  9
$TILEMODE
 70
     0
  9
$MAXACTVP
 70
    64
  9
$PINSBASE
 10
0.0
 20
0.0
 30
0.0
  9
$PLIMCHECK
 70
     0
  9
$PEXTMIN
 10
-0.0001
 20
-0.0001
 30
0.0
  9
$PEXTMAX
 10
0.210106
 20
0.2971
 30
0.0
  9
$PLIMMIN
 10
-0.0001
 20
-0.0001
  9
$PLIMMAX
 10
0.210106
 20
0.2971
  9
$UNITMODE
 70
     0
  9
$VISRETAIN
 70
     1
  9
$PLINEGEN
 70
     0
  9
$PSLTSCALE
 70
     0
  9
$TREEDEPTH
 70
  3020
  9
$CMLSTYLE
  2
Standard
  9
$CMLJUST
 70
     0
  9
$CMLSCALE
 40
1.0
  9
$PROXYGRAPHICS
 70
     1
  9
$MEASUREMENT
 70
     1
  9
$CELWEIGHT
370
    -1
  9
$ENDCAPS
280
     0
  9
$JOINSTYLE
280
     0
  9
$LWDISPLAY
290
     0
  9
$INSUNITS
 70
     6
  9
$HYPERLINKBASE
  1

  9
$STYLESHEET
  1

  9
$XEDIT
290
     1
  9
$CEPSNTYPE
380
     0
  9
$PSTYLEMODE
290
     1
  9
$FINGERPRINTGUID
  2
{196b015b-28a3-49f3-a137-e95baf7806a6}
  9
$VERSIONGUID
  2
{FAEB1C32-E019-11D5-929B-00C0DF256EC4}
  9
$EXTNAMES
290
     1
  9
$PSVPSCALE
 40
0.0
  9
$OLESTARTUP
290
     0
  9
$SORTENTS
280
   127
  9
$INDEXCTL
280
     0
  9
$HIDETEXT
280
     1
  9
$XCLIPFRAME
280
     2
  9
$HALOGAP
280
     0
  9
$OBSCOLOR
 70
   257
  9
$OBSLTYPE
280
     0
  9
$INTERSECTIONDISPLAY
280
     0
  9
$INTERSECTIONCOLOR
 70
   257
  9
$DIMASSOC
280
     2
  9
$PROJECTNAME
  1

  9
$CAMERADISPLAY
290
     0
  9
$LENSLENGTH
 40
50.0
  9
$CAMERAHEIGHT
 40
0.0
  9
$STEPSPERSEC
 40
2.0
  9
$STEPSIZE
 40
6.0
  9
$3DDWFPREC
 40
2.0
  9
$PSOLWIDTH
 40
0.25
  9
$PSOLHEIGHT
 40
4.0
  9
$LOFTANG1
 40
1.570796
  9
$LOFTANG2
 40
1.570796
  9
$LOFTMAG1
 40
0.0
  9
$LOFTMAG2
 40
0.0
  9
$LOFTPARAM
 70
     7
  9
$LOFTNORMALS
280
     1
  9
$LATITUDE
 40
37.795
  9
$LONGITUDE
 40
-122.394
  9
$NORTHDIRECTION
 40
0.0
  9
$TIMEZONE
 70
 -8000
  9
$LIGHTGLYPHDISPLAY
280
     1
  9
$TILEMODELIGHTSYNCH
280
     1
  9
$CMATERIAL
347
44
  9
$SOLIDHIST
280
     0
  9
$SHOWHIST
280
     1
  9
$DWFFRAME
280
     2
  9
$DGNFRAME
280
     2
  9
$REALWORLDSCALE
290
     1
  9
$INTERFERECOLOR
 62
   256
  9
$CSHADOW
280
     0
  9
$SHADOWPLANELOCATION
 40
0.0
  0
ENDSEC
  0
SECTION
  2
CLASSES
  0
CLASS
  1
ACDBDICTIONARYWDFLT
  2
AcDbDictionaryWithDefault
  3
ObjectDBX Classes
 90
        0
 91
        3
280
     0
281
     0
  0
CLASS
  1
VISUALSTYLE
  2
AcDbVisualStyle
  3
ObjectDBX Classes
 90
     4095
 91
        3
280
     0
281
     0
  0
CLASS
  1
MATERIAL
  2
AcDbMaterial
  3
ObjectDBX Classes
 90
     1153
 91
        3
280
     0
281
     0
  0
CLASS
  1
SCALE
  2
AcDbScale
  3
ObjectDBX Classes
 90
     1153
 91
        3
280
     0
281
     0
  0
CLASS
  1
TABLESTYLE
  2
AcDbTableStyle
  3
ObjectDBX Classes
 90
     4095
 91
        3
280
     0
281
     0
  0
CLASS
  1
MLEADERSTYLE
  2
AcDbMLeaderStyle
  3
ACDB_MLEADERSTYLE_CLASS
 90
     4095
 91
        3
280
     0
281
     0
  0
CLASS
  1
SUN
  2
AcDbSun
  3
SCENEOE
 90
     1153
 91
        3
280
     0
281
     0
  0
CLASS
  1
SORTENTSTABLE
  2
AcDbSortentsTable
  3
ObjectDBX Classes
 90
        0
 91
        3
280
     0
281
     0
  0
CLASS
  1
DICTIONARYVAR
  2
AcDbDictionaryVar
  3
ObjectDBX Classes
 90
        0
 91
        3
280
     0
281
     0
  0
CLASS
  1
CELLSTYLEMAP
  2
AcDbCellStyleMap
  3
ObjectDBX Classes
 90
     1152
 91
        3
280
     0
281
     0
  0
ENDSEC
  0
SECTION
  2
TABLES
  0
TABLE
  2
VPORT
  5
8
330
0
100
AcDbSymbolTable
 70
     1
  0
VPORT
  5
29
330
8
100
AcDbSymbolTableRecord
100
AcDbViewportTableRecord
  2
*Active
 70
     0
 10
0.0
 20
0.0
 11
1.0
 21
1.0
 12
7.809521
 22
-0.196677
 13
0.0
 23
0.0
 14
0.5
 24
0.5
 15
0.5
 25
0.5
 16
0.0
 26
0.0
 36
1.0
 17
0.0
 27
0.0
 37
0.0
 40
1.782
 41
0.84851
 42
50.0
 43
0.0
 44
0.0
 50
0.0
 51
0.0
 71
     0
 72
   100
 73
     1
 74
     3
 75
     0
 76
     0
 77
     0
 78
     0
281
     0
 65
     1
110
0.0
120
0.0
130
0.0
111
1.0
121
0.0
131
0.0
112
0.0
122
1.0
132
0.0
 79
     0
146
0.0
348
2F
 60
     3
 61
     5
292
     1
282
     1
141
0.0
142
0.0
 63
   250
361
6D
  0
ENDTAB
  0
TABLE
  2
LTYPE
  5
5
330
0
100
AcDbSymbolTable
 70
     4
  0
LTYPE
  5
14
330
5
100
AcDbSymbolTableRecord
100
AcDbLinetypeTableRecord
  2
ByBlock
 70
     0
  3

 72
    65
 73
     0
 40
0.0
  0
LTYPE
  5
15
330
5
100
AcDbSymbolTableRecord
100
AcDbLinetypeTableRecord
  2
ByLayer
 70
     0
  3

 72
    65
 73
     0
 40
0.0
  0
LTYPE
  5
16
330
5
100
AcDbSymbolTableRecord
100
AcDbLinetypeTableRecord
  2
Continuous
 70
     0
  3
Solid line
 72
    65
 73
     0
 40
0.0
  0
LTYPE
  5
74
330
5
100
AcDbSymbolTableRecord
100
AcDbLinetypeTableRecord
  2
AUSGEZOGEN
 70
     0
  3
durchgezogene Linie
 72
    65
 73
     0
 40
0.0
  0
LTYPE
  5
7A
330
5
100
AcDbSymbolTableRecord
100
AcDbLinetypeTableRecord
  2
STRICHPUNKT2_S5
 70
     0
  3
Lang eng gestrichelt bzw. punktiert
 72
    65
 73
     4
 40
0.05
 49
0.035
 74
     0
 49
-0.005
 74
     0
 49
0.005
 74
     0
 49
-0.005
 74
     0
  0
LTYPE
  5
7B
330
5
100
AcDbSymbolTableRecord
100
AcDbLinetypeTableRecord
  2
VERDECKT2_S2
 70
     0
  3
Kurzgestrichelt
 72
    65
 73
     2
 40
0.015
 49
0.01
 74
     0
 49
-0.005
 74
     0
  0
ENDTAB
  0
TABLE
  2
LAYER
  5
2
330
0
100
AcDbSymbolTable
 70
     4
  0
LAYER
  5
10
330
2
100
AcDbSymbolTableRecord
100
AcDbLayerTableRecord
  2
0
 70
     0
 62
     7
  6
Continuous
370
    -3
390
F
347
46
  0
LAYER
  5
76
330
2
100
AcDbSymbolTableRecord
100
AcDbLayerTableRecord
  2
PLAN_711
 70
     0
 62
     7
  6
AUSGEZOGEN
370
    -3
390
F
347
46
1001
AcCmTransparency
1071
 33554687
1001
AcAecLayerStandard
1000

1000
Dokument-Layer
  0
LAYER
  5
78
330
2
100
AcDbSymbolTableRecord
100
AcDbLayerTableRecord
  2
TB_711
 70
     0
 62
     7
  6
AUSGEZOGEN
370
    -3
390
F
347
46
1001
AcCmTransparency
1071
 33554687
1001
AcAecLayerStandard
1000

1000
Dokument-Layer
  0
LAYER
  5
7C
330
2
100
AcDbSymbolTableRecord
100
AcDbLayerTableRecord
  2
XR$1$TB_711_1
 70
     0
 62
     7
  6
AUSGEZOGEN
370
    -3
390
F
347
46
1001
AcCmTransparency
1071
 33554687
1001
AcAecLayerStandard
1000

1000
Dokument-Layer
  0
ENDTAB
  0
TABLE
  2
STYLE
  5
3
330
0
100
AcDbSymbolTable
 70
     2
  0
STYLE
  5
11
330
3
100
AcDbSymbolTableRecord
100
AcDbTextStyleTableRecord
  2
Standard
 70
     0
 40
0.0
 41
1.0
 50
0.0
 71
     0
 42
0.2
  3
txt
  4

  0
STYLE
  5
79
330
3
100
AcDbSymbolTableRecord
100
AcDbTextStyleTableRecord
  2
ARIAL
 70
     0
 40
0.0
 41
1.0
 50
0.0
 71
     0
 42
0.2
  3
ARIAL.TTF
  4

1001
ACAD
1000
Arial
1071
       34
  0
ENDTAB
  0
TABLE
  2
VIEW
  5
6
330
0
100
AcDbSymbolTable
 70
     0
  0
ENDTAB
  0
TABLE
  2
UCS
  5
7
330
0
100
AcDbSymbolTable
 70
     0
  0
ENDTAB
  0
TABLE
  2
APPID
  5
9
330
0
100
AcDbSymbolTable
 70
     4
  0
APPID
  5
12
330
9
100
AcDbSymbolTableRecord
100
AcDbRegAppTableRecord
  2
ACAD
 70
     0
  0
APPID
  5
75
330
9
100
AcDbSymbolTableRecord
100
AcDbRegAppTableRecord
  2
AcCmTransparency
 70
     0
  0
APPID
  5
77
330
9
100
AcDbSymbolTableRecord
100
AcDbRegAppTableRecord
  2
AcAecLayerStandard
 70
     0
  0
APPID
  5
7D
330
9
100
AcDbSymbolTableRecord
100
AcDbRegAppTableRecord
  2
NEM_ODX
 70
     0
  0
ENDTAB
  0
TABLE
  2
DIMSTYLE
  5
A
330
0
100
AcDbSymbolTable
 70
     1
100
AcDbDimStyleTable
  0
DIMSTYLE
105
27
330
A
100
AcDbSymbolTableRecord
100
AcDbDimStyleTableRecord
  2
Standard
 70
     0
178
     0
340
11
  0
ENDTAB
  0
TABLE
  2
BLOCK_RECORD
  5
1
330
0
100
AcDbSymbolTable
 70
     0
  0
BLOCK_RECORD
  5
1F
102
{ACAD_XDICTIONARY
360
1C4
102
}
330
1
100
AcDbSymbolTableRecord
100
AcDbBlockTableRecord
  2
*Model_Space
340
22
 70
     0
280
     1
281
     0
  0
BLOCK_RECORD
  5
6E
330
1
100
AcDbSymbolTableRecord
100
AcDbBlockTableRecord
  2
*Paper_Space
340
6F
 70
     0
280
     1
281
     0
  0
ENDTAB
  0
ENDSEC
  0
SECTION
  2
BLOCKS
  0
BLOCK
  5
20
330
1F
100
AcDbEntity
  8
0
100
AcDbBlockBegin
  2
*Model_Space
 70
     0
 10
0.0
 20
0.0
 30
0.0
  3
*Model_Space
  1

  0
ENDBLK
  5
21
330
1F
100
AcDbEntity
  8
0
100
AcDbBlockEnd
  0
BLOCK
  5
70
330
6E
100
AcDbEntity
 67
     1
  8
0
100
AcDbBlockBegin
  2
*Paper_Space
 70
     0
 10
0.0
 20
0.0
 30
0.0
  3
*Paper_Space
  1

  0
ENDBLK
  5
71
330
6E
100
AcDbEntity
 67
     1
  8
0
100
AcDbBlockEnd
  0
ENDSEC
  0
SECTION
  2
ENTITIES
  0
HATCH
  5
7E
330
1F
100
AcDbEntity
  8
XR$1$TB_711_1
  6
AUSGEZOGEN
 62
     7
440
 33554687
370
    -3
100
AcDbHatch
 10
0.0
 20
0.0
 30
0.0
210
0.0
220
0.0
230
1.0
  2
SCHRAFFUR_3
 70
     0
 71
     0
 91
        1
 92
        0
 93
        4
 72
     1
 10
7.426483134297976
 20
-0.2185146515141629
 11
7.968980867003159
 21
-0.2185146515141629
 72
     1
 10
7.968980867003159
 20
-0.2185146515141629
 11
7.968980867003159
 21
0.080485347985826
 72
     1
 10
7.968980867003159
 20
0.080485347985826
 11
7.426483134297976
 21
0.080485347985826
 72
     1
 10
7.426483134297976
 20
0.080485347985826
 11
7.426483134297976
 21
-0.2185146515141629
 97
        0
 75
     0
 76
     2
 52
315.0
 41
0.005
 77
     0
 78
     2
 53
44.99999999999999
 43
0.0
 44
0.0
 45
-0.0353553390593274
 46
0.0353553390593274
 79
     0
 53
44.99999999999999
 43
-0.0176776695296637
 44
0.0176776695296637
 45
-0.0353553390593274
 46
0.0353553390593274
 79
     0
 98
        0
1001
ACAD
1010
0.0
1020
0.0
1030
0.0
1001
NEM_ODX
1002
{
1000
BZM_DEPEND
1070
     1
1000
BZM_SCALE
1040
5.0
1000
SCHRAFFUR_3
1002
}
  0
LWPOLYLINE
  5
7F
330
1F
100
AcDbEntity
  8
XR$1$TB_711_1
  6
AUSGEZOGEN
 62
     7
440
 33554687
370
    -3
100
AcDbPolyline
 90
        2
 70
     1
 43
0.0
 10
8.007981
 20
-0.378714
 10
8.007981
 20
-0.378714
  0
HATCH
  5
80
330
1F
100
AcDbEntity
  8
XR$1$TB_711_1
  6
AUSGEZOGEN
 62
    18
420
        0
440
 33554687
370
    -3
100
AcDbHatch
 10
0.0
 20
0.0
 30
0.0
210
0.0
220
0.0
230
1.0
  2
SOLID
 70
     1
 71
     0
 91
        1
 92
        3
 72
     0
 73
     1
 93
       14
 10
8.01698086700316
 20
-0.1155146520141739
 10
7.980980867003159
 20
-0.1155146520141739
 10
7.980980867003159
 20
-0.1185146520141739
 10
8.00398086700316
 20
-0.1185146520141739
 10
8.00398086700316
 20
-0.1455146520141739
 10
8.00698086700316
 20
-0.1455146520141739
 10
8.008980867003158
 20
-0.1425146520141739
 10
8.00698086700316
 20
-0.1425146520141739
 10
8.00698086700316
 20
-0.1185146520141739
 10
8.01398086700316
 20
-0.1185146520141739
 10
8.01398086700316
 20
-0.1425146520141739
 10
8.011980867003158
 20
-0.1425146520141739
 10
8.01398086700316
 20
-0.1455146520141739
 10
8.01698086700316
 20
-0.1455146520141739
 97
        0
 75
     0
 76
     1
 98
        0
  0
HATCH
  5
81
330
1F
100
AcDbEntity
  8
XR$1$TB_711_1
  6
AUSGEZOGEN
 62
    18
420
        0
440
 33554687
370
    35
100
AcDbHatch
 10
0.0
 20
0.0
 30
0.0
210
0.0
220
0.0
230
1.0
  2
SOLID
 70
     1
 71
     0
 91
       18
 92
        3
 72
     0
 73
     1
 93
       27
 10
7.403792552424436
 20
-0.8011757733743978
 10
7.407786295885377
 20
-0.8011757733743978
 10
7.408363422275929
 20
-0.8011483769935859
 10
7.408894407393539
 20
-0.8010658273724508
 10
7.409389344641652
 20
-0.800937496957064
 10
7.409838140616817
 20
-0.8007543737800439
 10
7.410250167765103
 20
-0.8005344817761448
 10
7.410616414119134
 20
-0.8002597970106239
 10
7.411248693750008
 20
-0.7996094934450089
 10
7.411495982134723
 20
-0.7992338746449059
 10
7.41171587413861
 20
-0.7988218474966239
 10
7.41205472411183
 20
-0.7979238950675969
 10
7.41224685925622
 20
-0.7969257295613769
 10
7.412311024463911
 20
-0.7958540264014068
 10
7.41224685925622
 20
-0.7947087855876669
 10
7.41205472411183
 20
-0.7936738512545749
 10
7.411898997315633
 20
-0.7932066708659699
 10
7.41171587413861
 20
-0.7927672473368679
 10
7.411495982134723
 20
-0.7923638716772619
 10
7.411248693750008
 20
-0.7919976253232348
 10
7.410616414119134
 20
-0.7913747181384239
 10
7.410250167765103
 20
-0.791127429753717
 10
7.409838140616817
 20
-0.7909169101958938
 10
7.409389344641652
 20
-0.7907518109536138
 10
7.408894407393539
 20
-0.7906328529842919
 10
7.407786295885377
 20
-0.7905319189497149
 10
7.403792552424436
 20
-0.7905319189497149
 97
        0
 92
        3
 72
     0
 73
     1
 93
       12
 10
7.415498737563027
 20
-0.8011757733743978
 10
7.42322055168674
 20
-0.8011757733743978
 10
7.42322055168674
 20
-0.7998474093836448
 10
7.417101786319298
 20
-0.7998474093836448
 10
7.417101786319298
 20
-0.7963850115190109
 10
7.422148848526766
 20
-0.7963850115190109
 10
7.422148848526766
 20
-0.7950570080069539
 10
7.417101786319298
 20
-0.7950570080069539
 10
7.417101786319298
 20
-0.791860282940474
 10
7.422954878888588
 20
-0.791860282940474
 10
7.422954878888588
 20
-0.7905319189497149
 10
7.415498737563027
 20
-0.7905319189497149
 97
        0
 92
        3
 72
     0
 73
     1
 93
       38
 10
7.432792342472753
 20
-0.7905319189497149
 10
7.432792342472753
 20
-0.7974477027116159
 10
7.432755573645868
 20
-0.7980980062772329
 10
7.432645988122623
 20
-0.7986477362869768
 10
7.432444120053472
 20
-0.7991149166755839
 10
7.432160423320567
 20
-0.7994811630296209
 10
7.431793816487844
 20
-0.7997558477951429
 10
7.431336008545303
 20
-0.7999573553855949
 10
7.430786278535566
 20
-0.8000766738336149
 10
7.430135974969945
 20
-0.8001130821817968
 10
7.429485671404321
 20
-0.8000766738336149
 10
7.428935941394584
 20
-0.7999573553855949
 10
7.428478133452039
 20
-0.7997558477951429
 10
7.428102514651943
 20
-0.7994811630296209
 10
7.427827829886414
 20
-0.7991149166755839
 10
7.427626322295962
 20
-0.7986477362869768
 10
7.427516376294014
 20
-0.7980980062772329
 10
7.42747059549976
 20
-0.7974477027116159
 10
7.42747059549976
 20
-0.7905319189497149
 10
7.426142231509014
 20
-0.7905319189497149
 10
7.426142231509014
 20
-0.7977133755097618
 10
7.426215769162781
 20
-0.7985651866658409
 10
7.426426288720603
 20
-0.7993070518199689
 10
7.426774511139881
 20
-0.7999483434182189
 10
7.427241691528489
 20
-0.8004796890145259
 10
7.427818457440347
 20
-0.8008917161628049
 10
7.428505529832853
 20
-0.801194157787835
 10
7.429275151846495
 20
-0.8013772809648549
 10
7.430135974969945
 20
-0.8014414461725499
 10
7.430997158572094
 20
-0.8013772809648549
 10
7.431766420107027
 20
-0.801194157787835
 10
7.432453492499536
 20
-0.8008917161628049
 10
7.433030618890088
 20
-0.8004796890145259
 10
7.4334977992787
 20
-0.7999483434182189
 10
7.433836649251921
 20
-0.7993070518199689
 10
7.434056541255811
 20
-0.7985651866658409
 10
7.434129718430876
 20
-0.7977133755097618
 10
7.434129718430876
 20
-0.7905319189497149
 97
        0
 92
        3
 72
     0
 73
     1
 93
        8
 10
7.436786085933688
 20
-0.7905319189497149
 10
7.436786085933688
 20
-0.791860282940474
 10
7.43998281100017
 20
-0.791860282940474
 10
7.43998281100017
 20
-0.8011757733743978
 10
7.441310814512225
 20
-0.8011757733743978
 10
7.441310814512225
 20
-0.791860282940474
 10
7.444498527611338
 20
-0.791860282940474
 10
7.444498527611338
 20
-0.7905319189497149
 97
        0
 92
        3
 72
     0
 73
     1
 93
       96
 10
7.447503117533431
 20
-0.7940952508489229
 10
7.447713637091253
 20
-0.7946172239991609
 10
7.448043475097101
 20
-0.7950296116261438
 10
7.448464874691462
 20
-0.7953684615993589
 10
7.44896846342825
 20
-0.7956341343975039
 10
7.449536577851436
 20
-0.795835641987966
 10
7.450754635361548
 20
-0.7961561075477439
 10
7.451973053350343
 20
-0.7964311527919529
 10
7.452540807294831
 20
-0.7965865191094709
 10
7.453044756510325
 20
-0.796788026699926
 10
7.453465795625977
 20
-0.7970356755633259
 10
7.453795633631825
 20
-0.7973561411231038
 10
7.454006513668349
 20
-0.7977501443366489
 10
7.454079690843418
 20
-0.7982447211060679
 10
7.454024537603088
 20
-0.7987119014946729
 10
7.453850786872147
 20
-0.799096532262143
 10
7.453585114073988
 20
-0.7994263702679889
 10
7.453246264100781
 20
-0.7996826706200699
 10
7.452843248919865
 20
-0.7998751662431569
 10
7.452394092466006
 20
-0.8000031361798499
 10
7.451917900110025
 20
-0.8000856858009808
 10
7.45142332334061
 20
-0.8001130821817968
 10
7.450754635361548
 20
-0.8000766738336149
 10
7.450168497003616
 20
-0.7999573553855949
 10
7.44966454778813
 20
-0.7997558477951429
 10
7.449225124259029
 20
-0.7994811630296209
 10
7.448867889872371
 20
-0.7991149166755839
 10
7.448574460214714
 20
-0.7986477362869768
 10
7.448363940656884
 20
-0.7980980062772329
 10
7.44822659827412
 20
-0.7974477027116159
 10
7.44689823428337
 20
-0.7977133755097618
 10
7.446990156350571
 20
-0.7986383638409119
 10
7.447109114319902
 20
-0.7990507514678868
 10
7.4472648411161
 20
-0.7994169978219219
 10
7.447466348706553
 20
-0.7997558477951429
 10
7.44769525267782
 20
-0.8000673013875439
 10
7.448263367101005
 20
-0.8005802625704059
 10
7.448931694601376
 20
-0.8009648933378719
 10
7.449701316615014
 20
-0.8012305661360238
 10
7.450534743357651
 20
-0.8013862929322279
 10
7.45142332334061
 20
-0.8014414461725499
 10
7.452201957321615
 20
-0.8013862929322279
 10
7.452943822475752
 20
-0.8012399385820919
 10
7.453621522422186
 20
-0.8009742657839448
 10
7.454217033226179
 20
-0.8006076589512179
 10
7.454711609995594
 20
-0.8001314665952378
 10
7.455087228795697
 20
-0.7995359557912438
 10
7.455224571178465
 20
-0.7991880938506508
 10
7.455325505213027
 20
-0.7988218474966239
 10
7.455407694355476
 20
-0.7979790483079139
 10
7.455334517180411
 20
-0.7972552070885318
 10
7.455123997622581
 20
-0.7966600567632308
 10
7.454794159616734
 20
-0.7961835039285509
 10
7.454372760022373
 20
-0.7958082456071499
 10
7.453868810806894
 20
-0.7955151764281859
 10
7.453310068829779
 20
-0.7952859119782298
 10
7.452082999352291
 20
-0.7949560739723769
 10
7.450864581363492
 20
-0.794690761652923
 10
7.450305839386384
 20
-0.7945350348567228
 10
7.449801890170894
 20
-0.7943515512010089
 10
7.449371478609167
 20
-0.7941136352623649
 10
7.449041640603326
 20
-0.7938111936373369
 10
7.448831121045489
 20
-0.7934175509024939
 10
7.448757943870428
 20
-0.7929226136543789
 10
7.44882210907812
 20
-0.792565379267721
 10
7.448986847841687
 20
-0.7922723100887559
 10
7.449234136226402
 20
-0.7920343941501139
 10
7.449554601786179
 20
-0.791860282940474
 10
7.449930220586282
 20
-0.7917413249711459
 10
7.450333235767187
 20
-0.7916587753500139
 10
7.451157650542457
 20
-0.7915946101423199
 10
7.45172576496564
 20
-0.7916220065231319
 10
7.452238365669805
 20
-0.7917045561442669
 10
7.45269653409104
 20
-0.7918512709730928
 10
7.453081164858501
 20
-0.79206179053093
 10
7.453392618450912
 20
-0.7923548597098928
 10
7.453621522422186
 20
-0.7927211060639219
 10
7.453768237251007
 20
-0.7931792744851569
 10
7.453814018045266
 20
-0.7937290044948949
 10
7.455407694355476
 20
-0.7937290044948949
 10
7.455160405970762
 20
-0.7928862053061898
 10
7.454821555997548
 20
-0.7921717365328729
 10
7.454391144435814
 20
-0.7915762257288809
 10
7.453878183252958
 20
-0.7911000333728989
 10
7.453292044895033
 20
-0.7907334265401729
 10
7.452641741329408
 20
-0.7904681142207189
 10
7.451927272556096
 20
-0.7903213993918948
 10
7.451157650542457
 20
-0.7902666066302648
 10
7.450461566182586
 20
-0.7903123874245139
 10
7.449783866236144
 20
-0.7904681142207189
 10
7.449160959051333
 20
-0.7907154026054319
 10
7.448592844628152
 20
-0.7910632645460189
 10
7.448116652272177
 20
-0.7915120605211868
 10
7.447750405918138
 20
-0.79206179053093
 10
7.447512129500808
 20
-0.792712094096556
 10
7.447429579879667
 20
-0.7934633316967489
 97
        0
 92
        3
 72
     0
 73
     1
 93
       78
 10
7.459731275822255
 20
-0.794983830831885
 10
7.459914398999267
 20
-0.7941778004700628
 10
7.460225852591674
 20
-0.7934539592506759
 10
7.460665636599465
 20
-0.7928310520658669
 10
7.461224378576583
 20
-0.792309078915638
 10
7.461911090490387
 20
-0.7919244481481689
 10
7.462726493298285
 20
-0.7916861717308259
 10
7.463660854075495
 20
-0.7915946101423199
 10
7.464164442812283
 20
-0.7916313789692029
 10
7.46467740399515
 20
-0.7917503369385248
 10
7.465181353210636
 20
-0.7919334601155349
 10
7.465657545566607
 20
-0.7921991329136948
 10
7.466078945160969
 20
-0.7925289709195349
 10
7.466427167580257
 20
-0.7929409980678208
 10
7.466692479899711
 20
-0.7934265628698669
 10
7.466848206695916
 20
-0.7939943168143578
 10
7.468185582654032
 20
-0.7937290044948949
 10
7.467919909855883
 20
-0.7928862053061898
 10
7.467553663501851
 20
-0.7921717365328729
 10
7.46707747114587
 20
-0.7915762257288809
 10
7.466518729168755
 20
-0.7911000333728989
 10
7.465886449537881
 20
-0.7907334265401729
 10
7.465190365178002
 20
-0.7904681142207189
 10
7.464439488056499
 20
-0.7903213993918948
 10
7.463660854075495
 20
-0.7902666066302648
 10
7.463028574444624
 20
-0.7902940030110709
 10
7.462433424119322
 20
-0.790376192153514
 10
7.461883694109577
 20
-0.7905045225688989
 10
7.46137073292671
 20
-0.7906876457459189
 10
7.460894540570743
 20
-0.7909169101958938
 10
7.46045475656293
 20
-0.7911915949614119
 10
7.460061113828096
 20
-0.7915120605211868
 10
7.459703879441445
 20
-0.791860282940474
 10
7.459383053402971
 20
-0.7922542861540129
 10
7.459108368637446
 20
-0.7926846977157329
 10
7.458879464666174
 20
-0.7931425056582778
 10
7.458686969043091
 20
-0.7936370824276948
 10
7.45842129624495
 20
-0.7946997736203009
 10
7.458339107102504
 20
-0.7958540264014068
 10
7.45842129624495
 20
-0.7970079187038168
 10
7.458686969043091
 20
-0.7980706098964259
 10
7.458879464666174
 20
-0.7985651866658409
 10
7.459108368637446
 20
-0.7990233550870729
 10
7.459383053402971
 20
-0.7994537666488049
 10
7.459703879441445
 20
-0.7998474093836448
 10
7.460061113828096
 20
-0.800195631802924
 10
7.46045475656293
 20
-0.8005160973627138
 10
7.460894540570743
 20
-0.8007911426069239
 10
7.46137073292671
 20
-0.8010200465781969
 10
7.461883694109577
 20
-0.8012031697552119
 10
7.462433424119322
 20
-0.801331500170598
 10
7.463028574444624
 20
-0.8014140497917339
 10
7.463660854075495
 20
-0.8014414461725499
 10
7.464457511991245
 20
-0.8013679085187908
 10
7.465227134004888
 20
-0.8011483769935859
 10
7.465968999159018
 20
-0.8008001545743029
 10
7.466656071551516
 20
-0.8003145897722589
 10
7.467260594322882
 20
-0.799701055033511
 10
7.467773555505749
 20
-0.7989682018467489
 10
7.468176570686662
 20
-0.7981347751041159
 10
7.46845125545218
 20
-0.7971820299134639
 10
7.466848206695916
 20
-0.7971820299134639
 10
7.466701852345775
 20
-0.7978417059251549
 10
7.46646357592844
 20
-0.7984278442830799
 10
7.466143110368664
 20
-0.7989314330198759
 10
7.465758479601195
 20
-0.7993438206468488
 10
7.465300311179953
 20
-0.7996736586527039
 10
7.46479672244316
 20
-0.7999115745913479
 10
7.464246992433423
 20
-0.8000582894201649
 10
7.463660854075495
 20
-0.8001130821817968
 10
7.462726493298285
 20
-0.8000308930393548
 10
7.461911090490387
 20
-0.7997836046546439
 10
7.461224378576583
 20
-0.7993986134084808
 10
7.460665636599465
 20
-0.7988766402582479
 10
7.460225852591674
 20
-0.7982537330734338
 10
7.459914398999267
 20
-0.7975302523327469
 10
7.459731275822255
 20
-0.7967242219709278
 10
7.45966711061456
 20
-0.7958540264014068
 97
        0
 92
        3
 72
     0
 73
     1
 93
       12
 10
7.4716389685513
 20
-0.8011757733743978
 10
7.472966972063358
 20
-0.8011757733743978
 10
7.472966972063358
 20
-0.7963850115190109
 10
7.478554391834496
 20
-0.7963850115190109
 10
7.478554391834496
 20
-0.8011757733743978
 10
7.480157440590775
 20
-0.8011757733743978
 10
7.480157440590775
 20
-0.7905319189497149
 10
7.478554391834496
 20
-0.7905319189497149
 10
7.478554391834496
 20
-0.7950570080069539
 10
7.472966972063358
 20
-0.7950570080069539
 10
7.472966972063358
 20
-0.7905319189497149
 10
7.4716389685513
 20
-0.7905319189497149
 97
        0
 92
        3
 72
     0
 73
     1
 93
       12
 10
7.483610826488036
 20
-0.8011757733743978
 10
7.491066607334907
 20
-0.8011757733743978
 10
7.491066607334907
 20
-0.7998474093836448
 10
7.484948202446148
 20
-0.7998474093836448
 10
7.484948202446148
 20
-0.7963850115190109
 10
7.490260576973077
 20
-0.7963850115190109
 10
7.490260576973077
 20
-0.7950570080069539
 10
7.484948202446148
 20
-0.7950570080069539
 10
7.484948202446148
 20
-0.791860282940474
 10
7.491066607334907
 20
-0.791860282940474
 10
7.491066607334907
 20
-0.7905319189497149
 10
7.483610826488036
 20
-0.7905319189497149
 97
        0
 92
        3
 72
     0
 73
     1
 93
       90
 10
7.406320589511863
 20
-0.8087418607019158
 10
7.406018508365517
 20
-0.8084484310442589
 10
7.405944970711761
 20
-0.808283692280684
 10
7.405926946777011
 20
-0.8080911966576009
 10
7.405972727571266
 20
-0.8078165118920739
 10
7.406100697507966
 20
-0.8075876079208049
 10
7.406284181163669
 20
-0.8074044847437929
 10
7.406522097102313
 20
-0.8072577699149569
 10
7.407044430731244
 20
-0.8070836587053238
 10
7.407520623087218
 20
-0.807028865943685
 10
7.408308269035603
 20
-0.8071204275321909
 10
7.408692899803079
 20
-0.807239385501525
 10
7.409050134189741
 20
-0.8073951122977199
 10
7.40969142578798
 20
-0.8078165118920739
 10
7.410176990590027
 20
-0.8083568694557469
 10
7.412311024463911
 20
-0.807028865943685
 10
7.411798063281055
 20
-0.8065526735877119
 10
7.411267078163449
 20
-0.8061312739933569
 10
7.410717348153708
 20
-0.8057740396067059
 10
7.410149594209224
 20
-0.8054625860142949
 10
7.409563095372594
 20
-0.8052243095969589
 10
7.408976957014672
 20
-0.8050411864199428
 10
7.408381446210679
 20
-0.8049402523853639
 10
7.407786295885377
 20
-0.8049038440371808
 10
7.406916100315864
 20
-0.804949624831439
 10
7.406110069954034
 20
-0.805105351627643
 10
7.40538622873465
 20
-0.8053616519797239
 10
7.404763321549833
 20
-0.8057282588124468
 10
7.40424134839961
 20
-0.8062134631357989
 10
7.403856717632139
 20
-0.8068089739397979
 10
7.403719375249378
 20
-0.80714782391301
 10
7.403609429247424
 20
-0.8075234427131089
 10
7.403526879626298
 20
-0.8083568694557469
 10
7.403582032866614
 20
-0.8089339958463099
 10
7.403737759662815
 20
-0.8094563294752298
 10
7.40398504804753
 20
-0.809923149385144
 10
7.404323898020732
 20
-0.8103355370121209
 10
7.404745297615094
 20
-0.8106833989527129
 10
7.405248886351882
 20
-0.8109584441969289
 10
7.405835024709814
 20
-0.8111689637547638
 10
7.406476316308058
 20
-0.8113063061375229
 10
7.408610710660637
 20
-0.811746090145313
 10
7.409077891049242
 20
-0.8118560361472629
 10
7.409398356609022
 20
-0.8120301473569038
 10
7.409590852232105
 20
-0.8122680632955509
 10
7.409645644993733
 20
-0.8126162857148339
 10
7.409599864199475
 20
-0.8129003429264229
 10
7.409471533784094
 20
-0.8131566432785059
 10
7.409270026193627
 20
-0.8133855472497709
 10
7.409013725841547
 20
-0.8135780428728628
 10
7.408729668629957
 20
-0.8137337696690669
 10
7.408409203070181
 20
-0.8138527276383789
 10
7.407786295885377
 20
-0.8139442892268949
 10
7.406879331488971
 20
-0.8138527276383789
 10
7.406485688754133
 20
-0.8137337696690669
 10
7.406119081921403
 20
-0.8135780428728628
 10
7.40546877835579
 20
-0.8131566432785059
 10
7.404855243617041
 20
-0.8126162857148339
 10
7.402729861231839
 20
-0.8136789769074348
 10
7.403316360068458
 20
-0.8142283464384799
 10
7.403893486459006
 20
-0.8146865148597119
 10
7.404452228436128
 20
-0.8150527612137489
 10
7.405028994347981
 20
-0.8153458303927168
 10
7.405606120738541
 20
-0.8155567104292369
 10
7.40621064350991
 20
-0.8157030647793689
 10
7.406842923140787
 20
-0.8157856144005019
 10
7.407520623087218
 20
-0.8158130107813178
 10
7.408262488241359
 20
-0.8157762419544379
 10
7.409050134189741
 20
-0.8156756683985549
 10
7.409856164551556
 20
-0.8154741608080969
 10
7.410616414119134
 20
-0.8151443228022549
 10
7.410964636538419
 20
-0.8149244307983559
 10
7.411285102098195
 20
-0.8146681304462748
 10
7.411569159309785
 20
-0.8143656888212429
 10
7.411825820140564
 20
-0.8140084544345899
 10
7.412027327731017
 20
-0.8136148116997408
 10
7.412183054527214
 20
-0.8131566432785059
 10
7.412274616115731
 20
-0.8126530545417139
 10
7.412311024463911
 20
-0.8120849401185328
 10
7.412274616115731
 20
-0.811654528556808
 10
7.412173682081151
 20
-0.8112698977893309
 10
7.412017955284941
 20
-0.8109400597834868
 10
7.411816447694492
 20
-0.8106469906045319
 10
7.411560147342404
 20
-0.8103903297737488
 10
7.411276090130822
 20
-0.8101707982485479
 10
7.410598390184387
 20
-0.8098225758292609
 10
7.409838140616817
 20
-0.8095842994119229
 10
7.409032110254984
 20
-0.809410188202277
 10
7.407520623087218
 20
-0.8091538878501958
 10
7.40682453872735
 20
-0.808970764673184
 97
        0
 92
        3
 72
     0
 73
     1
 93
        8
 10
7.418695462629506
 20
-0.8072945387418409
 10
7.421351830132314
 20
-0.8072945387418409
 10
7.421351830132314
 20
-0.8051695168353289
 10
7.41337371565652
 20
-0.8051695168353289
 10
7.41337371565652
 20
-0.8072945387418409
 10
7.41603008315932
 20
-0.8072945387418409
 10
7.41603008315932
 20
-0.8155383260157938
 10
7.418695462629506
 20
-0.8155383260157938
 97
        0
 92
        3
 72
     0
 73
     1
 93
       12
 10
7.42322055168674
 20
-0.8155383260157938
 10
7.431198666162542
 20
-0.8155383260157938
 10
7.431198666162542
 20
-0.8136789769074348
 10
7.425611246391404
 20
-0.8136789769074348
 10
7.425611246391404
 20
-0.8112882822027718
 10
7.430401647768093
 20
-0.8112882822027718
 10
7.430401647768093
 20
-0.8091538878501958
 10
7.425611246391404
 20
-0.8091538878501958
 10
7.425611246391404
 20
-0.8072945387418409
 10
7.430667320566245
 20
-0.8072945387418409
 10
7.430667320566245
 20
-0.8051695168353289
 10
7.42322055168674
 20
-0.8051695168353289
 97
        0
 92
        3
 72
     0
 73
     1
 93
        4
 10
7.433058015270902
 20
-0.8155383260157938
 10
7.435723394741084
 20
-0.8155383260157938
 10
7.435723394741084
 20
-0.8051695168353289
 10
7.433058015270902
 20
-0.8051695168353289
 97
        0
 92
        3
 72
     0
 73
     1
 93
       10
 10
7.440514156596474
 20
-0.8155383260157938
 10
7.440514156596474
 20
-0.8091538878501958
 10
7.444232854813186
 20
-0.8155383260157938
 10
7.44689823428337
 20
-0.8155383260157938
 10
7.44689823428337
 20
-0.8051695168353289
 10
7.444498527611338
 20
-0.8051695168353289
 10
7.444498527611338
 20
-0.8118192673203869
 10
7.440779829394626
 20
-0.8051695168353289
 10
7.438114089445746
 20
-0.8051695168353289
 10
7.438114089445746
 20
-0.8155383260157938
 97
        0
 92
        3
 72
     0
 73
     1
 93
       10
 10
7.457807761506204
 20
-0.8072945387418409
 10
7.457807761506204
 20
-0.8051695168353289
 10
7.449288928988034
 20
-0.8051695168353289
 10
7.449288928988034
 20
-0.8072945387418409
 10
7.454611036439715
 20
-0.8072945387418409
 10
7.449023616668573
 20
-0.8136789769074348
 10
7.449023616668573
 20
-0.8155383260157938
 10
7.457807761506204
 20
-0.8155383260157938
 10
7.457807761506204
 20
-0.8136789769074348
 10
7.452220341735051
 20
-0.8136789769074348
 97
        0
 92
        3
 72
     0
 73
     1
 93
       12
 10
7.459932783412708
 20
-0.8155383260157938
 10
7.467919909855883
 20
-0.8155383260157938
 10
7.467919909855883
 20
-0.8136789769074348
 10
7.462598162882897
 20
-0.8136789769074348
 10
7.462598162882897
 20
-0.8112882822027718
 10
7.467113879494057
 20
-0.8112882822027718
 10
7.467113879494057
 20
-0.8091538878501958
 10
7.462598162882897
 20
-0.8091538878501958
 10
7.462598162882897
 20
-0.8072945387418409
 10
7.467645225090362
 20
-0.8072945387418409
 10
7.467645225090362
 20
-0.8051695168353289
 10
7.459932783412708
 20
-0.8051695168353289
 97
        0
 92
        3
 72
     0
 73
     1
 93
       42
 10
7.472435986945753
 20
-0.8051695168353289
 10
7.469779619442944
 20
-0.8051695168353289
 10
7.469779619442944
 20
-0.8120849401185328
 10
7.469807015823747
 20
-0.8125614929532038
 10
7.46988956544488
 20
-0.8130102889283719
 10
7.47001753538158
 20
-0.8134133041092869
 10
7.470182634623846
 20
-0.8137885624306909
 10
7.470649815012451
 20
-0.8144298540289379
 10
7.47124496533776
 20
-0.8149428152117959
 10
7.471932037730266
 20
-0.8153274459792669
 10
7.472692287297833
 20
-0.8156024912234899
 10
7.473498317659652
 20
-0.8157582180196858
 10
7.474304348021477
 20
-0.8158130107813178
 10
7.475018816794787
 20
-0.8157582180196858
 10
7.475751669981554
 20
-0.8156024912234899
 10
7.47646613875487
 20
-0.8153274459792669
 10
7.477125454287857
 20
-0.8149428152117959
 10
7.477702580678423
 20
-0.8144298540289379
 10
7.478151376653583
 20
-0.8137885624306909
 10
7.47832548786323
 20
-0.8134133041092869
 10
7.47845381827861
 20
-0.8130102889283719
 10
7.47852699545369
 20
-0.8125614929532038
 10
7.478554391834496
 20
-0.8120849401185328
 10
7.478554391834496
 20
-0.8051695168353289
 10
7.476163697129834
 20
-0.8051695168353289
 10
7.476163697129834
 20
-0.8118192673203869
 10
7.476136300749022
 20
-0.8122132705339209
 10
7.476063123573954
 20
-0.8125979013013969
 10
7.475925781191193
 20
-0.8129551356880479
 10
7.475733285568113
 20
-0.8132849736938919
 10
7.475476985216026
 20
-0.8135506464920439
 10
7.475156159177555
 20
-0.8137611660498769
 10
7.474762516442713
 20
-0.8138985084326339
 10
7.474304348021477
 20
-0.8139442892268949
 10
7.473837167632869
 20
-0.8138985084326339
 10
7.473452536865405
 20
-0.8137611660498769
 10
7.473132071305621
 20
-0.8135506464920439
 10
7.472875410474845
 20
-0.8132849736938919
 10
7.472673902884392
 20
-0.8129551356880479
 10
7.472545572468998
 20
-0.8125979013013969
 10
7.472463383326556
 20
-0.8122132705339209
 10
7.472435986945753
 20
-0.8118192673203869
 97
        0
 92
        3
 72
     0
 73
     1
 93
       75
 10
7.48076196336214
 20
-0.8116361441433659
 10
7.480981855366038
 20
-0.8126620665090849
 10
7.481155966575677
 20
-0.8131382588650669
 10
7.481357474166133
 20
-0.8135780428728628
 10
7.481604762550848
 20
-0.8139810580537709
 10
7.481888819762434
 20
-0.8143473044078019
 10
7.482557507741503
 20
-0.8149702115926089
 10
7.482951150476344
 20
-0.8152174999773178
 10
7.483381562038071
 20
-0.8154283800138439
 10
7.483848742426669
 20
-0.8155931187774189
 10
7.484352691642163
 20
-0.8157124372254388
 10
7.485479187563758
 20
-0.8158130107813178
 10
7.486422920787039
 20
-0.8157582180196858
 10
7.487237963116234
 20
-0.8155747343639759
 10
7.487595197502903
 20
-0.8154283800138439
 10
7.487906651095303
 20
-0.8152452568368228
 10
7.488181335860828
 20
-0.8150159923868668
 10
7.488401227864729
 20
-0.8147413076213419
 10
7.488401227864729
 20
-0.8155383260157938
 10
7.490535622217297
 20
-0.8155383260157938
 10
7.490535622217297
 20
-0.8099509062446489
 10
7.486010533160066
 20
-0.8099509062446489
 10
7.486010533160066
 20
-0.8118192673203869
 10
7.488135555066569
 20
-0.8118192673203869
 10
7.488080762304945
 20
-0.8122774357416189
 10
7.487915663062676
 20
-0.8126710784764579
 10
7.487677747124025
 20
-0.8129919045149289
 10
7.487375305499006
 20
-0.8132482048670169
 10
7.487036455525785
 20
-0.8134407004900929
 10
7.486679221139134
 20
-0.8135780428728628
 10
7.486010533160066
 20
-0.8136789769074348
 10
7.485360229594438
 20
-0.8136238236671129
 10
7.484810499584697
 20
-0.8134407004900929
 10
7.484343679674793
 20
-0.8131566432785059
 10
7.483977072842067
 20
-0.8127810244784108
 10
7.483702388076542
 20
-0.8123138440897999
 10
7.483500880486078
 20
-0.8117734865261299
 10
7.483381562038071
 20
-0.8111599517873839
 10
7.48334515368988
 20
-0.8104912638083279
 10
7.483399946451509
 20
-0.8096484646196188
 10
7.483537288834269
 20
-0.8089339958463099
 10
7.483766553284245
 20
-0.808338845521004
 10
7.484078006876637
 20
-0.8078622926863248
 10
7.48446263764411
 20
-0.8074960463322989
 10
7.484920445586646
 20
-0.807230373534147
 10
7.485433406769503
 20
-0.8070746467379448
 10
7.486010533160066
 20
-0.807028865943685
 10
7.486752398314192
 20
-0.8071204275321909
 10
7.487091608766111
 20
-0.807239385501525
 10
7.487402701879816
 20
-0.8073951122977199
 10
7.487952431889554
 20
-0.8078165118920739
 10
7.488401227864729
 20
-0.8083568694557469
 10
7.490535622217297
 20
-0.8075602115399929
 10
7.490104850176883
 20
-0.8069099079743699
 10
7.489628657820898
 20
-0.8063601779646249
 10
7.489106684670665
 20
-0.8059020095433939
 10
7.488538570247479
 20
-0.8055357631893638
 10
7.487915663062676
 20
-0.805251705977779
 10
7.487237963116234
 20
-0.805050198387318
 10
7.48651448237556
 20
-0.8049402523853639
 10
7.485744860361917
 20
-0.8049038440371808
 10
7.48511294120973
 20
-0.8049312404179968
 10
7.484535814819175
 20
-0.8050137900391369
 10
7.483995457255505
 20
-0.8051417599758239
 10
7.483491508040014
 20
-0.8053252436315289
 10
7.483033700097473
 20
-0.8055541476028069
 10
7.482621312470497
 20
-0.8058288323683248
 10
7.482246054149099
 20
-0.8061402859607368
 10
7.481916216143259
 20
-0.8064975203473879
 10
7.481623146964285
 20
-0.806891523560928
 10
7.481375858579571
 20
-0.8073129231552779
 10
7.48116497854305
 20
-0.8077797430651958
 10
7.480990867333408
 20
-0.8082653078672408
 10
7.48076196336214
 20
-0.8093279990598419
 10
7.480688786187072
 20
-0.8104912638083279
 97
        0
 92
       18
 72
     0
 73
     1
 93
       19
 10
7.407520623087218
 20
-0.791860282940474
 10
7.408354049829859
 20
-0.7919334601155349
 10
7.409068518603178
 20
-0.7921533521194359
 10
7.409664029407177
 20
-0.7924922020926539
 10
7.410149594209224
 20
-0.7929593824812619
 10
7.410515840563255
 20
-0.7935365088718098
 10
7.410772140915328
 20
-0.7942235812643198
 10
7.410927867711534
 20
-0.7949928427992569
 10
7.410973648505792
 20
-0.7958540264014068
 10
7.410927867711534
 20
-0.7967148495248508
 10
7.410772140915328
 20
-0.7974844715385009
 10
7.410515840563255
 20
-0.7981711834523089
 10
7.410149594209224
 20
-0.7987483098428569
 10
7.409664029407177
 20
-0.7992154902314629
 10
7.409068518603178
 20
-0.7995543402046829
 10
7.408354049829859
 20
-0.7997742322085759
 10
7.407520623087218
 20
-0.7998474093836448
 10
7.405120555936501
 20
-0.7998474093836448
 10
7.405120555936501
 20
-0.791860282940474
 97
        0
 75
     0
 76
     1
 98
        0
  0
HATCH
  5
82
330
1F
100
AcDbEntity
  8
XR$1$TB_711_1
  6
AUSGEZOGEN
 62
    18
420
        0
440
 33554687
370
    35
100
AcDbHatch
 10
0.0
 20
0.0
 30
0.0
210
0.0
220
0.0
230
1.0
  2
SOLID
 70
     1
 71
     0
 91
       20
 92
        3
 72
     0
 73
     1
 93
        8
 10
7.536829017175345
 20
-0.7907975917478729
 10
7.526982181145113
 20
-0.8155383260157938
 10
7.529372875849768
 20
-0.8155383260157938
 10
7.532303928118106
 20
-0.8080911966576009
 10
7.543213455340935
 20
-0.8080911966576009
 10
7.545869822843743
 20
-0.8155383260157938
 10
7.548535202313928
 20
-0.8155383260157938
 10
7.538954039081848
 20
-0.7907975917478729
 97
        0
 92
        3
 72
     0
 73
     1
 93
      116
 10
7.551457242614893
 20
-0.8033007952809019
 10
7.551493650963076
 20
-0.8023480500902519
 10
7.551585212551586
 20
-0.8013862929322279
 10
7.551740939347784
 20
-0.8004155238068239
 10
7.551970203797745
 20
-0.7994627786161709
 10
7.552263272976711
 20
-0.7985377902850269
 10
7.552620507363369
 20
-0.7976308258886279
 10
7.553050918925096
 20
-0.796770002765174
 10
7.55355486814059
 20
-0.7959545999572839
 10
7.55413163405244
 20
-0.7952037228357899
 10
7.554772925650691
 20
-0.7945166504432839
 10
7.555487394424
 20
-0.7939027552258489
 10
7.556284412818464
 20
-0.7933897940429889
 10
7.557154608387981
 20
-0.7929687549273299
 10
7.558106993099941
 20
-0.792657301334925
 10
7.559132915465657
 20
-0.7924648057118409
 10
7.560241387452517
 20
-0.7923916285367719
 10
7.561560378997195
 20
-0.7924738176792149
 10
7.56274202815912
 20
-0.7927030821291808
 10
7.563282385722797
 20
-0.7928768328601219
 10
7.563785974459592
 20
-0.7930967248640229
 10
7.56425315484819
 20
-0.793353385694798
 10
7.564692938855988
 20
-0.7936554668411339
 10
7.565480584804377
 20
-0.7943973319952639
 10
7.566149272783427
 20
-0.7953133083590349
 10
7.566708014760549
 20
-0.796421780345889
 10
7.567156810735714
 20
-0.7977133755097618
 10
7.56954750544037
 20
-0.7963850115190109
 10
7.568805640286246
 20
-0.7949744583858179
 10
7.56794481716279
 20
-0.793747028429643
 10
7.566983060004765
 20
-0.7926937096831059
 10
7.566451714408461
 20
-0.7922359017405689
 10
7.565892972431343
 20
-0.7918328865596519
 10
7.56530683407343
 20
-0.79146627972693
 10
7.564683926888608
 20
-0.7911548261345339
 10
7.56402425087692
 20
-0.7908801413690019
 10
7.563337178484418
 20
-0.7906602493651079
 10
7.561862460143534
 20
-0.7903671801861459
 10
7.560241387452517
 20
-0.7902666066302648
 10
7.558839846286691
 20
-0.7903397838053319
 10
7.557548251122823
 20
-0.7905503033631578
 10
7.556339205580084
 20
-0.7908985257824438
 10
7.555240106039303
 20
-0.7913657061710508
 10
7.554232568087021
 20
-0.7919518445289818
 10
7.553316591723244
 20
-0.7926389169214818
 10
7.552492176947985
 20
-0.7934175509024939
 10
7.551759323761225
 20
-0.794287746472012
 10
7.55111803216297
 20
-0.795240131183971
 10
7.550568662631931
 20
-0.7962570415823209
 10
7.550101482243321
 20
-0.7973287447422939
 10
7.549725863443227
 20
-0.7984646131099579
 10
7.549432794264272
 20
-0.7996278778584418
 10
7.549231286673804
 20
-0.800836923401185
 10
7.549102956258424
 20
-0.8020643533573599
 10
7.549066547910229
 20
-0.8033007952809019
 10
7.549102956258424
 20
-0.8046381712390289
 10
7.549231286673804
 20
-0.8059297664028969
 10
7.549432794264272
 20
-0.8071752202938259
 10
7.549716851475846
 20
-0.8083752538691878
 10
7.550083097829877
 20
-0.809511122236858
 10
7.550541266251116
 20
-0.8105828253968339
 10
7.551072251368716
 20
-0.811590363349109
 10
7.551695158553533
 20
-0.8125153516802599
 10
7.552391242913408
 20
-0.8133581508689679
 10
7.55317924934048
 20
-0.8141093884691619
 10
7.554058456877375
 20
-0.8147596920347859
 10
7.555011202068026
 20
-0.815318434011893
 10
7.556055148368491
 20
-0.8157488455736238
 10
7.557191016736165
 20
-0.8160786835794638
 10
7.5584000622789
 20
-0.8162711792025499
 10
7.55971004185622
 20
-0.8163443563776169
 10
7.560809141397004
 20
-0.8162801911699209
 10
7.561917613383857
 20
-0.8160876955468409
 10
7.562998328511204
 20
-0.8157672299870609
 10
7.564033623322987
 20
-0.8153094220445308
 10
7.564986008034947
 20
-0.8147139112405308
 10
7.565847191637099
 20
-0.8139810580537709
 10
7.566580044823856
 20
-0.8131108624842599
 10
7.566882125970196
 20
-0.8126162857148339
 10
7.567156810735714
 20
-0.8120849401185328
 10
7.567156810735714
 20
-0.8155383260157938
 10
7.569281832642228
 20
-0.8155383260157938
 10
7.569281832642228
 20
-0.8027694496846048
 10
7.558106993099941
 20
-0.8027694496846048
 10
7.558106993099941
 20
-0.8049038440371808
 10
7.567156810735714
 20
-0.8049038440371808
 10
7.567156810735714
 20
-0.8062318475492359
 10
7.567056237179834
 20
-0.8075692235073659
 10
7.566744783587428
 20
-0.8089339958463099
 10
7.566497495202716
 20
-0.8096116957927388
 10
7.566204426023758
 20
-0.8102713718044289
 10
7.565847191637099
 20
-0.8109126634026759
 10
7.565425792042745
 20
-0.8115171861740419
 10
7.56494959968676
 20
-0.8120849401185328
 10
7.564399869677026
 20
-0.8125979013013969
 10
7.563795346905653
 20
-0.8130560697226279
 10
7.563117646959222
 20
-0.8134497124574699
 10
7.562375421326394
 20
-0.8137705384959408
 10
7.561551006551127
 20
-0.8140084544345899
 10
7.560671799014236
 20
-0.8141641812307858
 10
7.55971004185622
 20
-0.8142099620250409
 10
7.558647350663615
 20
-0.8141457968173488
 10
7.557676581538214
 20
-0.8139536616729589
 10
7.556769617141804
 20
-0.8136422080805529
 10
7.555945562845243
 20
-0.8132208084862049
 10
7.555203337212426
 20
-0.812698835335967
 10
7.554525637265976
 20
-0.8120943125645969
 10
7.553921114494618
 20
-0.811407240172099
 10
7.553389768898318
 20
-0.8106560025719028
 10
7.552922588509708
 20
-0.8098409602427018
 10
7.552528945774863
 20
-0.8089797766405539
 10
7.552189735322944
 20
-0.8080731727228468
 10
7.551924423003491
 20
-0.8071388119456349
 10
7.551722915413045
 20
-0.8061860667549919
 10
7.551576200584213
 20
-0.8052243095969589
 10
7.551484638995696
 20
-0.8042625524389329
 97
        0
 92
        3
 72
     0
 73
     1
 93
       37
 10
7.572744230506856
 20
-0.8155383260157938
 10
7.575134925211519
 20
-0.8155383260157938
 10
7.575134925211519
 20
-0.8046381712390289
 10
7.580722705461355
 20
-0.8046381712390289
 10
7.588709831904523
 20
-0.8155383260157938
 10
7.591631872205494
 20
-0.8155383260157938
 10
7.583653757729689
 20
-0.8046381712390289
 10
7.58525680648596
 20
-0.8044366636485738
 10
7.585998671640094
 20
-0.8042625524389329
 10
7.586685383553902
 20
-0.8040426604350358
 10
7.587326675152148
 20
-0.8037679756695109
 10
7.587912813510084
 20
-0.8034475101097339
 10
7.58845353155245
 20
-0.8030809032770099
 10
7.588938735875793
 20
-0.8026688761287258
 10
7.589378519883588
 20
-0.8022107077074928
 10
7.58975413868369
 20
-0.8017071189706989
 10
7.590083976689538
 20
-0.8011573889609558
 10
7.590349289008993
 20
-0.800552866189588
 10
7.590560169045513
 20
-0.7999115745913479
 10
7.590715895841714
 20
-0.7992248626775309
 10
7.59080745743022
 20
-0.7984920094907739
 10
7.590834853811031
 20
-0.7977133755097618
 10
7.590734280255151
 20
-0.796421780345889
 10
7.590422826662752
 20
-0.7951759659762758
 10
7.590184550245417
 20
-0.7945808156509698
 10
7.589900493033821
 20
-0.7940036892604219
 10
7.589543258647166
 20
-0.7934633316967489
 10
7.589140243466257
 20
-0.7929593824812619
 10
7.588673063077652
 20
-0.7924922020926539
 10
7.588151089927412
 20
-0.7920801749443669
 10
7.587555579123419
 20
-0.7917045561442669
 10
7.586905275557795
 20
-0.7913931025518669
 10
7.586190806784479
 20
-0.7911368021997809
 10
7.585412172803471
 20
-0.7909533185440729
 10
7.584569734093465
 20
-0.7908343605747539
 10
7.583653757729689
 20
-0.7907975917478729
 10
7.572744230506856
 20
-0.7907975917478729
 97
        0
 92
        3
 72
     0
 73
     1
 93
       64
 10
7.592593629363518
 20
-0.8057740396067059
 10
7.59280414892134
 20
-0.8069737127033678
 10
7.593088206132941
 20
-0.8081463498979209
 10
7.593463824933028
 20
-0.8092728458195179
 10
7.59392163287557
 20
-0.8103539214255638
 10
7.594462350917941
 20
-0.8113704713452189
 10
7.595094270070117
 20
-0.8123138440897999
 10
7.595808738843437
 20
-0.8131840396593178
 10
7.596614769205263
 20
-0.813972046086399
 10
7.597512361155591
 20
-0.8146587580002068
 10
7.598492502727063
 20
-0.8152358843907608
 10
7.599573217854418
 20
-0.8157030647793689
 10
7.60073648260289
 20
-0.8160512871986499
 10
7.601991669418575
 20
-0.8162711792025499
 10
7.603328324419313
 20
-0.8163443563776169
 10
7.604638303996621
 20
-0.8162711792025499
 10
7.605856721985425
 20
-0.8160512871986499
 10
7.60698321790703
 20
-0.8157030647793689
 10
7.608027524686187
 20
-0.8152358843907608
 10
7.608979909398154
 20
-0.8146587580002068
 10
7.609859477413732
 20
-0.813972046086399
 10
7.610647123362121
 20
-0.8131840396593178
 10
7.611343207721996
 20
-0.8123138440897999
 10
7.611966114906795
 20
-0.8113704713452189
 10
7.612497460503107
 20
-0.8103539214255638
 10
7.612955268445644
 20
-0.8092728458195179
 10
7.61332187527837
 20
-0.8081463498979209
 10
7.613605572011265
 20
-0.8069737127033678
 10
7.613816452047785
 20
-0.8057740396067059
 10
7.613935410017105
 20
-0.8045466096505298
 10
7.613972178843986
 20
-0.8033007952809019
 10
7.613935410017105
 20
-0.8020643533573599
 10
7.613816452047785
 20
-0.800836923401185
 10
7.613605572011265
 20
-0.7996278778584418
 10
7.61332187527837
 20
-0.7984646131099579
 10
7.612955268445644
 20
-0.7973287447422939
 10
7.612497460503107
 20
-0.7962570415823209
 10
7.611966114906795
 20
-0.795240131183971
 10
7.611343207721996
 20
-0.794287746472012
 10
7.610647123362121
 20
-0.7934175509024939
 10
7.609859477413732
 20
-0.7926389169214818
 10
7.608979909398154
 20
-0.7919518445289818
 10
7.608027524686187
 20
-0.7913657061710508
 10
7.60698321790703
 20
-0.7908985257824438
 10
7.605856721985425
 20
-0.7905503033631578
 10
7.604638303996621
 20
-0.7903397838053319
 10
7.603328324419313
 20
-0.7902666066302648
 10
7.601991669418575
 20
-0.7903397838053319
 10
7.60073648260289
 20
-0.7905503033631578
 10
7.599573217854418
 20
-0.7908985257824438
 10
7.598492502727063
 20
-0.7913657061710508
 10
7.597512361155591
 20
-0.7919518445289818
 10
7.596614769205263
 20
-0.7926389169214818
 10
7.595808738843437
 20
-0.7934175509024939
 10
7.595094270070117
 20
-0.794287746472012
 10
7.594462350917941
 20
-0.795240131183971
 10
7.59392163287557
 20
-0.7962570415823209
 10
7.593463824933028
 20
-0.7973287447422939
 10
7.593088206132941
 20
-0.7984646131099579
 10
7.59280414892134
 20
-0.7996278778584418
 10
7.592593629363518
 20
-0.800836923401185
 10
7.592474671394195
 20
-0.8020643533573599
 10
7.592437902567309
 20
-0.8033007952809019
 10
7.592474671394195
 20
-0.8045466096505298
 97
        0
 92
        3
 72
     0
 73
     1
 93
       57
 10
7.627812397856456
 20
-0.8155383260157938
 10
7.628819935808735
 20
-0.8155015571889129
 10
7.629754296585948
 20
-0.8154009836330339
 10
7.630624492155469
 20
-0.8152268724233869
 10
7.631412498582556
 20
-0.8149885960060489
 10
7.632135979323234
 20
-0.8146955268270869
 10
7.632795294856235
 20
-0.8143473044078019
 10
7.633381793692851
 20
-0.8139536616729589
 10
7.633894754875718
 20
-0.8135138776651679
 10
7.634352562818255
 20
-0.8130283128631198
 10
7.634737193585731
 20
-0.8125153516802599
 10
7.635067031591571
 20
-0.8119659821492098
 10
7.635332704389727
 20
-0.8113888557586598
 10
7.635534211980176
 20
-0.8107933449546618
 10
7.635680926809004
 20
-0.8101707982485479
 10
7.635763115951439
 20
-0.8095385186176739
 10
7.635790512332265
 20
-0.8088882150520509
 10
7.635717335157192
 20
-0.8076333887150579
 10
7.635488431185921
 20
-0.8064701239665778
 10
7.635305308008913
 20
-0.8059203939568308
 10
7.635094427972378
 20
-0.8054074327739709
 10
7.63482875517423
 20
-0.8049222284506249
 10
7.634526674027898
 20
-0.8044640600293899
 10
7.634178451608617
 20
-0.8040520328811059
 10
7.633793820841144
 20
-0.803667041634941
 10
7.633354036833346
 20
-0.8033191796943469
 10
7.632877844477368
 20
-0.8030167380693128
 10
7.63234649888106
 20
-0.8027510652711678
 10
7.631769372490509
 20
-0.8025405457133309
 10
7.6311468257844
 20
-0.8023664345036978
 10
7.630468765359264
 20
-0.8022381040883009
 10
7.631586249313493
 20
-0.8019818037362199
 10
7.632071814115538
 20
-0.8017986805592029
 10
7.632520610090706
 20
-0.8015878005226769
 10
7.633308256039088
 20
-0.8010842117858918
 10
7.633931163223902
 20
-0.8004429201876389
 10
7.63440771605857
 20
-0.7996826706200699
 10
7.63459083923559
 20
-0.7992522590583429
 10
7.634737193585731
 20
-0.7987940906371149
 10
7.634929689208814
 20
-0.7977865526848309
 10
7.634993854416506
 20
-0.7966506843171609
 10
7.634948073622251
 20
-0.7960187651649809
 10
7.63476495044524
 20
-0.7951759659762758
 10
7.63460922364903
 20
-0.7947087855876669
 10
7.63438933164513
 20
-0.7942142088182449
 10
7.634114286400921
 20
-0.7937196320488308
 10
7.63376642446032
 20
-0.7932250552794069
 10
7.633336012898599
 20
-0.7927488629234289
 10
7.63282305171574
 20
-0.7923000669482609
 10
7.632218528944378
 20
-0.7918876793212838
 10
7.631513072138428
 20
-0.7915304449346259
 10
7.630698029809236
 20
-0.7912283637882869
 10
7.629772680999392
 20
-0.7909990993383219
 10
7.628728374220228
 20
-0.7908527449881949
 10
7.627546725058311
 20
-0.7907975917478729
 10
7.616903231112324
 20
-0.7907975917478729
 10
7.616903231112324
 20
-0.8155383260157938
 97
        0
 92
        3
 72
     0
 73
     1
 93
       56
 10
7.64377799925413
 20
-0.8155383260157938
 10
7.65495283879641
 20
-0.8155383260157938
 10
7.657215203085686
 20
-0.8154557763946599
 10
7.65825049789748
 20
-0.8153368184253339
 10
7.659221267022863
 20
-0.8151717191830689
 10
7.660118858973202
 20
-0.8149521876578659
 10
7.660952646194536
 20
-0.8146865148597119
 10
7.661712895762103
 20
-0.8143656888212429
 10
7.662399968154606
 20
-0.8139810580537709
 10
7.663013502893352
 20
-0.8135412740459799
 10
7.663544848489653
 20
-0.8130376853091839
 10
7.664002656432189
 20
-0.8124695708860019
 10
7.664378275232289
 20
-0.8118376517338189
 10
7.664671344411251
 20
-0.8111415673739449
 10
7.664882224447783
 20
-0.8103723058390009
 10
7.66501956683054
 20
-0.8095385186176739
 10
7.66505597517872
 20
-0.8086225422538958
 10
7.66502857879791
 20
-0.8079538542748359
 10
7.664937017209403
 20
-0.8073219351226509
 10
7.664790662859262
 20
-0.806744808732103
 10
7.664589155268817
 20
-0.8062134631357989
 10
7.664341506405411
 20
-0.8057282588124468
 10
7.664048437226441
 20
-0.8052884748046579
 10
7.663709587253227
 20
-0.8048944715911168
 10
7.663333968453125
 20
-0.8045372372044549
 10
7.662912568858771
 20
-0.8042167716446839
 10
7.662463772883615
 20
-0.8039420868791528
 10
7.66197856856026
 20
-0.8037038104618209
 10
7.661465607377396
 20
-0.8035023028713618
 10
7.660375519803981
 20
-0.8031998612463359
 10
7.659202882609426
 20
-0.8030351224827539
 10
7.659202882609426
 20
-0.8027694496846048
 10
7.660338750977099
 20
-0.802430599711388
 10
7.661346288929382
 20
-0.8020092001170399
 10
7.662207472531526
 20
-0.8014962389341759
 10
7.662930953272208
 20
-0.8008733317493659
 10
7.663499067695394
 20
-0.800140839041302
 10
7.663727971666664
 20
-0.7997378238603938
 10
7.663920467289747
 20
-0.7992886674065338
 10
7.664176767641836
 20
-0.7983088863137568
 10
7.664259317262969
 20
-0.7971820299134639
 10
7.664222548436094
 20
-0.7963669875842659
 10
7.664103590466767
 20
-0.7956157499840699
 10
7.663911094843684
 20
-0.7949196656241909
 10
7.663645422045532
 20
-0.7942783740259439
 10
7.663315944518382
 20
-0.79370124763539
 10
7.662912568858771
 20
-0.7931792744851569
 10
7.662454760916233
 20
-0.792712094096556
 10
7.661932787766008
 20
-0.7923000669482609
 10
7.661355661375445
 20
-0.7919334601155349
 10
7.660723742223269
 20
-0.7916220065231319
 10
7.660045681798133
 20
-0.7913657061710508
 10
7.659322201057451
 20
-0.791164198580597
 10
7.65774654868199
 20
-0.790889153336377
 10
7.656015529989011
 20
-0.7907975917478729
 10
7.64377799925413
 20
-0.7907975917478729
 97
        0
 92
        3
 72
     0
 73
     1
 93
       58
 10
7.669315391437807
 20
-0.807028865943685
 10
7.669379556645502
 20
-0.808228899519058
 10
7.669562679822521
 20
-0.8093370110272159
 10
7.669865121447548
 20
-0.8103539214255638
 10
7.670268136628468
 20
-0.8112882822027718
 10
7.670762713397883
 20
-0.812140093358852
 10
7.671339839788438
 20
-0.8129003429264229
 10
7.671990143354063
 20
-0.8135780428728628
 10
7.672704612127375
 20
-0.8141825656442239
 10
7.673483246108387
 20
-0.8147045387944638
 10
7.67430766088365
 20
-0.8151443228022549
 10
7.67515947203972
 20
-0.8155199416023569
 10
7.676047691543991
 20
-0.8158220227486839
 10
7.676954655940398
 20
-0.8160512871986499
 10
7.67787063230417
 20
-0.8162160259622289
 10
7.67878660866794
 20
-0.8163075875507348
 10
7.679693573064339
 20
-0.8163443563776169
 10
7.680600176982041
 20
-0.8163075875507348
 10
7.681516153345817
 20
-0.8162160259622289
 10
7.682432129709586
 20
-0.8160512871986499
 10
7.683329721659918
 20
-0.8158220227486839
 10
7.684218301642876
 20
-0.8155199416023569
 10
7.685079485245028
 20
-0.8151443228022549
 10
7.685903900020299
 20
-0.8147045387944638
 10
7.686673161555229
 20
-0.8141825656442239
 10
7.687396642295925
 20
-0.8135780428728628
 10
7.688047306340243
 20
-0.8129003429264229
 10
7.688624072252098
 20
-0.812140093358852
 10
7.68911900950021
 20
-0.8112882822027718
 10
7.689522024681127
 20
-0.8103539214255638
 10
7.689824105827467
 20
-0.8093370110272159
 10
7.690007229004478
 20
-0.808228899519058
 10
7.69007139421217
 20
-0.807028865943685
 10
7.69007139421217
 20
-0.7907975917478729
 10
7.683952628844732
 20
-0.7907975917478729
 10
7.683952628844732
 20
-0.8064975203473879
 10
7.6838978360831
 20
-0.8074686499514788
 10
7.683732736840835
 20
-0.8083662419018178
 10
7.683449040107928
 20
-0.8091812842310159
 10
7.683018268067515
 20
-0.8098867410369619
 10
7.682441502155654
 20
-0.8104728793948819
 10
7.682093279736365
 20
-0.8107111558122179
 10
7.681708648968904
 20
-0.8109126634026759
 10
7.681268864961109
 20
-0.8110683901988779
 10
7.680792672605124
 20
-0.8111873481682019
 10
7.679693573064339
 20
-0.8112882822027718
 10
7.678594113044857
 20
-0.8111873481682019
 10
7.678117920688871
 20
-0.8110683901988779
 10
7.677678136681084
 20
-0.8109126634026759
 10
7.677293505913608
 20
-0.8107111558122179
 10
7.676945643973014
 20
-0.8104728793948819
 10
7.676368517582466
 20
-0.8098867410369619
 10
7.675938106020746
 20
-0.8091812842310159
 10
7.675654048809146
 20
-0.8083662419018178
 10
7.675488949566888
 20
-0.8074686499514788
 10
7.675434156805256
 20
-0.8064975203473879
 10
7.675434156805256
 20
-0.7907975917478729
 10
7.669315391437807
 20
-0.7907975917478729
 97
        0
 92
        3
 72
     0
 73
     1
 93
      105
 10
7.700449575838703
 20
-0.8033007952809019
 10
7.700476972219517
 20
-0.8022932573286249
 10
7.700568533808016
 20
-0.8013588965514168
 10
7.700715248636848
 20
-0.8004887009819
 10
7.700916756227304
 20
-0.799701055033511
 10
7.701164044612019
 20
-0.7989772138141269
 10
7.701466125758358
 20
-0.7983269102485099
 10
7.701814348177644
 20
-0.7977407718905819
 10
7.702207990912489
 20
-0.7972187987403409
 10
7.702638762952914
 20
-0.7967606303191098
 10
7.703105943341511
 20
-0.796375999551636
 10
7.7036095320783
 20
-0.7960461615457899
 10
7.704149889641977
 20
-0.7957804887476418
 10
7.704718004065159
 20
-0.7955789811571828
 10
7.705313154390469
 20
-0.7954326268070548
 10
7.705927049607895
 20
-0.7953500771859179
 10
7.706568341206141
 20
-0.7953226808051008
 10
7.7073649991219
 20
-0.7953958579801749
 10
7.708143633102916
 20
-0.7956067380167009
 10
7.708885498257035
 20
-0.7959362155438449
 10
7.709590955062985
 20
-0.7963850115190109
 10
7.710232246661229
 20
-0.7969347415287519
 10
7.710790988638351
 20
-0.7975666606809388
 10
7.711257808548254
 20
-0.7982721174868749
 10
7.711624415380983
 20
-0.7990507514678868
 10
7.716671477588462
 20
-0.7966506843171609
 10
7.715737116811245
 20
-0.795231119216593
 10
7.714720206412892
 20
-0.7939669204335369
 10
7.71360272245867
 20
-0.7928768328601219
 10
7.713007572133368
 20
-0.7924006405041418
 10
7.712384664948558
 20
-0.791960856496353
 10
7.711734361382933
 20
-0.7915762257288809
 10
7.711056300957801
 20
-0.7912373757556599
 10
7.710341832184481
 20
-0.7909443065766968
 10
7.709599967030366
 20
-0.7907060301593589
 10
7.70883070549541
 20
-0.7905138950149738
 10
7.708024675133585
 20
-0.790376192153514
 10
7.707181875944892
 20
-0.7902940030110709
 10
7.706302668407997
 20
-0.7902666066302648
 10
7.704892115274802
 20
-0.7903397838053319
 10
7.703572763251418
 20
-0.7905412913957859
 10
7.702327309360503
 20
-0.7908801413690019
 10
7.701173056579393
 20
-0.7913289373441659
 10
7.700101353419422
 20
-0.7918970517673519
 10
7.69912121184795
 20
-0.792565379267721
 10
7.698223619897615
 20
-0.7933350012813538
 10
7.697417589535785
 20
-0.7941868124374339
 10
7.696703120762469
 20
-0.7951301851820249
 10
7.696080213577666
 20
-0.7961377231343029
 10
7.695548867981366
 20
-0.7972187987403409
 10
7.695109444452273
 20
-0.7983452946619468
 10
7.694770234000357
 20
-0.7995359557912438
 10
7.694522945615642
 20
-0.8007543737800439
 10
7.694376591265509
 20
-0.8020185725631019
 10
7.694321438025185
 20
-0.8033007952809019
 10
7.694376591265509
 20
-0.8045923904447759
 10
7.69453231806171
 20
-0.8058472167817708
 10
7.694797990859866
 20
-0.8070746467379448
 10
7.695155225246523
 20
-0.8082562958998678
 10
7.695622405635125
 20
-0.8093921642675379
 10
7.696181147612251
 20
-0.8104728793948819
 10
7.696831451177871
 20
-0.8114804173471618
 10
7.697582328299367
 20
-0.8124147781243809
 10
7.698434139455444
 20
-0.8132756012478238
 10
7.699368500232658
 20
-0.8140362112940949
 10
7.700394422598377
 20
-0.8147139112405308
 10
7.701511906552606
 20
-0.8152726532176419
 10
7.702711940127972
 20
-0.8157304611601809
 10
7.704003535291843
 20
-0.8160602991660268
 10
7.705377319598149
 20
-0.8162711792025499
 10
7.706833653525603
 20
-0.8163443563776169
 10
7.707575879158424
 20
-0.8163169599968059
 10
7.708308371866487
 20
-0.8162344103756699
 10
7.70975569382656
 20
-0.8159045723698239
 10
7.710451778186439
 20
-0.8156666564311819
 10
7.711138850578942
 20
-0.8153732267735199
 10
7.711807538557995
 20
-0.8150343768003039
 10
7.71244883015625
 20
-0.8146407340654629
 10
7.713676260112433
 20
-0.8137337696690669
 10
7.714802756034032
 20
-0.8126346701282768
 10
7.715801282018941
 20
-0.8113798437912849
 10
7.716259089961475
 20
-0.8106833989527129
 10
7.716671477588462
 20
-0.8099509062446489
 10
7.711890088179135
 20
-0.8075602115399929
 10
7.711431919757911
 20
-0.8083936382826269
 10
7.710873177780793
 20
-0.8091081070559469
 10
7.710241258628613
 20
-0.8097036178599428
 10
7.7095541862361
 20
-0.8101888221832888
 10
7.708849089908854
 20
-0.8105554290160149
 10
7.708143633102916
 20
-0.8108117293680989
 10
7.707465933156474
 20
-0.8109674561643029
 10
7.706833653525603
 20
-0.8110226094046269
 10
7.705927049607895
 20
-0.8109674561643029
 10
7.705102634832632
 20
-0.8108301137815439
 10
7.704360769678497
 20
-0.810601209810271
 10
7.703701093666814
 20
-0.8102987681852429
 10
7.703105943341511
 20
-0.809923149385144
 10
7.702592982158648
 20
-0.8094927378234169
 10
7.702134813737416
 20
-0.8089981610539949
 10
7.701740810523876
 20
-0.8084578034903238
 10
7.701411332996731
 20
-0.807880677099767
 10
7.701136287752511
 20
-0.8072671423610269
 10
7.700907383781241
 20
-0.8066258507627768
 10
7.700733272571594
 20
-0.8059661747510909
 10
7.700513741046395
 20
-0.8046287987929678
 97
        0
 92
        3
 72
     0
 73
     1
 93
       12
 10
7.720133875453089
 20
-0.8155383260157938
 10
7.726252640820531
 20
-0.8155383260157938
 10
7.726252640820531
 20
-0.8051695168353289
 10
7.73556813125446
 20
-0.8051695168353289
 10
7.73556813125446
 20
-0.8155383260157938
 10
7.741686536143204
 20
-0.8155383260157938
 10
7.741686536143204
 20
-0.7907975917478729
 10
7.73556813125446
 20
-0.7907975917478729
 10
7.73556813125446
 20
-0.7998474093836448
 10
7.726252640820531
 20
-0.7998474093836448
 10
7.726252640820531
 20
-0.7907975917478729
 10
7.720133875453089
 20
-0.7907975917478729
 97
        0
 92
        3
 72
     0
 73
     1
 93
        8
 10
7.757652137540886
 20
-0.7955883536032559
 10
7.764036575706469
 20
-0.7955883536032559
 10
7.764036575706469
 20
-0.7907975917478729
 10
7.74487424924232
 20
-0.7907975917478729
 10
7.74487424924232
 20
-0.7955883536032559
 10
7.751533372173436
 20
-0.7955883536032559
 10
7.751533372173436
 20
-0.8155383260157938
 10
7.757652137540886
 20
-0.8155383260157938
 97
        0
 92
        3
 72
     0
 73
     1
 93
        8
 10
7.762167854152046
 20
-0.8155383260157938
 10
7.768826977083166
 20
-0.8155383260157938
 10
7.770155341073908
 20
-0.8118192673203869
 10
7.779195786263624
 20
-0.8118192673203869
 10
7.780533162221746
 20
-0.8155383260157938
 10
7.787183273185489
 20
-0.8155383260157938
 10
7.777867782751573
 20
-0.7907975917478729
 10
7.771483344585977
 20
-0.7907975917478729
 97
        0
 92
        3
 72
     0
 73
     1
 93
        6
 10
7.789839640688301
 20
-0.8155383260157938
 10
7.805804881607282
 20
-0.8155383260157938
 10
7.805804881607282
 20
-0.8104912638083279
 10
7.7962240788539
 20
-0.8104912638083279
 10
7.7962240788539
 20
-0.7907975917478729
 10
7.789839640688301
 20
-0.7907975917478729
 97
        0
 92
       18
 72
     0
 73
     1
 93
        3
 10
7.537891347889254
 20
-0.7939943168143578
 10
7.542416436946479
 20
-0.8062318475492359
 10
7.533100946512555
 20
-0.8062318475492359
 97
        0
 92
       18
 72
     0
 73
     1
 93
       29
 10
7.58285673933524
 20
-0.793197658898595
 10
7.58433145767612
 20
-0.7932708360736629
 10
7.585567899599669
 20
-0.7934907280775549
 10
7.586099245195969
 20
-0.7936554668411339
 10
7.586575798030646
 20
-0.7938569744315869
 10
7.587006209592372
 20
-0.7940862388815568
 10
7.587381828392472
 20
-0.7943609236470799
 10
7.587702293952248
 20
-0.7946630047934089
 10
7.587976978717766
 20
-0.7950022152453309
 10
7.588206243167734
 20
-0.7953684615993589
 10
7.588389366344749
 20
-0.7957714767802669
 10
7.588627282283397
 20
-0.7966784411766679
 10
7.588709831904523
 20
-0.7977133755097618
 10
7.588645666696838
 20
-0.7986109674600959
 10
7.588425774692937
 20
-0.7994721510622419
 10
7.58825202396199
 20
-0.7998841782105279
 10
7.588032131958095
 20
-0.8002871933914358
 10
7.587766459159943
 20
-0.8006628121915379
 10
7.587445993600163
 20
-0.8010110346108269
 10
7.587070374800075
 20
-0.801331500170598
 10
7.58663059079227
 20
-0.8016245693495618
 10
7.586126641576779
 20
-0.8018808697016429
 10
7.585567899599669
 20
-0.8020917497381669
 10
7.584935980447486
 20
-0.8022658609478128
 10
7.584230884120241
 20
-0.8023938308845069
 10
7.583442877693161
 20
-0.8024763805056429
 10
7.582591066537081
 20
-0.8025037768864609
 10
7.575134925211519
 20
-0.8025037768864609
 10
7.575134925211519
 20
-0.793197658898595
 97
        0
 92
       18
 72
     0
 73
     1
 93
       64
 10
7.594855993652783
 20
-0.8023480500902519
 10
7.594956927687364
 20
-0.8013862929322279
 10
7.595112654483565
 20
-0.8004155238068239
 10
7.595332546487459
 20
-0.7994627786161709
 10
7.595625615666425
 20
-0.7985377902850269
 10
7.595982850053087
 20
-0.7976308258886279
 10
7.596403889168739
 20
-0.796770002765174
 10
7.596889453970781
 20
-0.7959545999572839
 10
7.597448195947899
 20
-0.7952037228357899
 10
7.59808047557878
 20
-0.7945166504432839
 10
7.598776559938648
 20
-0.7939027552258489
 10
7.599545821473593
 20
-0.7933897940429889
 10
7.600379248216233
 20
-0.7929687549273299
 10
7.601295224580006
 20
-0.792657301334925
 10
7.602275005672772
 20
-0.7924648057118409
 10
7.603328324419313
 20
-0.7923916285367719
 10
7.604391015611911
 20
-0.7924648057118409
 10
7.605371157183378
 20
-0.792657301334925
 10
7.606268749133706
 20
-0.7929687549273299
 10
7.607093163908977
 20
-0.7933897940429889
 10
7.607835029063104
 20
-0.7939027552258489
 10
7.608513089488232
 20
-0.7945166504432839
 10
7.609117612259605
 20
-0.7952037228357899
 10
7.609648597377215
 20
-0.7959545999572839
 10
7.610115777765813
 20
-0.796770002765174
 10
7.610509780979353
 20
-0.7976308258886279
 10
7.61084863095257
 20
-0.7985377902850269
 10
7.611114303750729
 20
-0.7994627786161709
 10
7.611324823308552
 20
-0.8004155238068239
 10
7.611462526170007
 20
-0.8013862929322279
 10
7.611554087758517
 20
-0.8023480500902519
 10
7.611581484139331
 20
-0.8033007952809019
 10
7.611554087758517
 20
-0.8042625524389329
 10
7.611462526170007
 20
-0.8052243095969589
 10
7.611324823308552
 20
-0.8061860667549919
 10
7.611114303750729
 20
-0.8071388119456349
 10
7.61084863095257
 20
-0.8080731727228468
 10
7.610509780979353
 20
-0.8089797766405539
 10
7.610115777765813
 20
-0.8098409602427018
 10
7.609648597377215
 20
-0.8106560025719028
 10
7.609117612259605
 20
-0.811407240172099
 10
7.608513089488232
 20
-0.8120943125645969
 10
7.607835029063104
 20
-0.812698835335967
 10
7.607093163908977
 20
-0.8132208084862049
 10
7.606268749133706
 20
-0.8136422080805529
 10
7.605371157183378
 20
-0.8139536616729589
 10
7.604391015611911
 20
-0.8141457968173488
 10
7.603328324419313
 20
-0.8142099620250409
 10
7.602275005672772
 20
-0.8141457968173488
 10
7.601295224580006
 20
-0.8139536616729589
 10
7.600379248216233
 20
-0.8136422080805529
 10
7.599545821473593
 20
-0.8132208084862049
 10
7.598776559938648
 20
-0.812698835335967
 10
7.59808047557878
 20
-0.8120943125645969
 10
7.597448195947899
 20
-0.811407240172099
 10
7.596889453970781
 20
-0.8106560025719028
 10
7.596403889168739
 20
-0.8098409602427018
 10
7.595982850053087
 20
-0.8089797766405539
 10
7.595625615666425
 20
-0.8080731727228468
 10
7.595332546487459
 20
-0.8071388119456349
 10
7.595112654483565
 20
-0.8061860667549919
 10
7.594956927687364
 20
-0.8052243095969589
 10
7.594855993652783
 20
-0.8042625524389329
 10
7.594828597271972
 20
-0.8033007952809019
 97
        0
 92
       18
 72
     0
 73
     1
 93
       26
 10
7.627015739940694
 20
-0.793197658898595
 10
7.628325359039319
 20
-0.7932340672467839
 10
7.629452215439612
 20
-0.7933717701082429
 10
7.630413972597647
 20
-0.7936096860468789
 10
7.630835372192
 20
-0.7937837972565248
 10
7.631201618546024
 20
-0.7939943168143578
 10
7.631531456551873
 20
-0.7942325932316949
 10
7.631815513763454
 20
-0.7945166504432839
 10
7.632053429702101
 20
-0.7948464884491259
 10
7.632245925325181
 20
-0.7952127348031559
 10
7.632401652121386
 20
-0.7956341343975039
 10
7.632511598123344
 20
-0.7960919423400469
 10
7.63260315971185
 20
-0.7971820299134639
 10
7.632502225677266
 20
-0.7981347751041159
 10
7.632383267707949
 20
-0.7985651866658409
 10
7.632209156498299
 20
-0.7989682018467489
 10
7.631998636940473
 20
-0.7993528326142219
 10
7.631741976109694
 20
-0.799701055033511
 10
7.631101044990145
 20
-0.8003145897722589
 10
7.630304026595685
 20
-0.8008001545743029
 10
7.629836846207088
 20
-0.8009926501973859
 10
7.629342269437658
 20
-0.8011483769935859
 10
7.628243169896876
 20
-0.8013679085187908
 10
7.627015739940694
 20
-0.8014414461725499
 10
7.619293925816977
 20
-0.8014414461725499
 10
7.619293925816977
 20
-0.793197658898595
 97
        0
 92
       18
 72
     0
 73
     1
 93
       28
 10
7.627015739940694
 20
-0.803566468079062
 10
7.628508842695033
 20
-0.803667041634941
 10
7.629809449826274
 20
-0.8039510988465298
 10
7.630377203770754
 20
-0.8041619788830539
 10
7.630899537399689
 20
-0.8044092672677639
 10
7.63137572975567
 20
-0.8047023364467238
 10
7.631797129350017
 20
-0.8050318139738759
 10
7.632172748150112
 20
-0.8053984208066028
 10
7.632502225677266
 20
-0.805801435987516
 10
7.632777270921485
 20
-0.806241219995313
 10
7.632996802446688
 20
-0.8067084003839119
 10
7.633170913656334
 20
-0.8072119891207078
 10
7.633299244071722
 20
-0.8077433347170049
 10
7.633399817627594
 20
-0.8088882150520509
 10
7.633317628485162
 20
-0.8096942454138749
 10
7.633088724513892
 20
-0.8104912638083279
 10
7.632685348854277
 20
-0.8112605253432699
 10
7.632099210496357
 20
-0.811947597735769
 10
7.631741976109694
 20
-0.8122590513281759
 10
7.631329948961415
 20
-0.8125431085397649
 10
7.630871780540184
 20
-0.8127903969244779
 10
7.630368191803388
 20
-0.8130102889283719
 10
7.629809449826274
 20
-0.8131750276919468
 10
7.629195554608844
 20
-0.8133033581073329
 10
7.628526866629771
 20
-0.8133855472497709
 10
7.627812397856456
 20
-0.8134133041092869
 10
7.619293925816977
 20
-0.8134133041092869
 10
7.619293925816977
 20
-0.803566468079062
 97
        0
 92
       18
 72
     0
 73
     1
 93
       19
 10
7.65495283879641
 20
-0.7955883536032559
 10
7.655621526775476
 20
-0.7956157499840699
 10
7.656235421992912
 20
-0.7956982996052029
 10
7.656775779556586
 20
-0.7958540264014068
 10
7.657242959945191
 20
-0.7960829303726719
 10
7.657618578745294
 20
-0.7964033959324519
 10
7.657902275478192
 20
-0.796824795526805
 10
7.658076386687834
 20
-0.7973471291557359
 10
7.658140551895526
 20
-0.7979790483079139
 10
7.658076386687834
 20
-0.7986293518735329
 10
7.657902275478192
 20
-0.7991880938506508
 10
7.657618578745294
 20
-0.7996459017931898
 10
7.657242959945191
 20
-0.8000125086259179
 10
7.656775779556586
 20
-0.8002965658375029
 10
7.656235421992912
 20
-0.8004887009819
 10
7.655621526775476
 20
-0.8006076589512179
 10
7.65495283879641
 20
-0.800644427778098
 10
7.649631091823427
 20
-0.800644427778098
 10
7.649631091823427
 20
-0.7955883536032559
 97
        0
 92
       18
 72
     0
 73
     1
 93
       19
 10
7.656015529989011
 20
-0.8051695168353289
 10
7.656748383175772
 20
-0.8052152976295859
 10
7.657370929881877
 20
-0.8053616519797239
 10
7.657874879097371
 20
-0.805599928397056
 10
7.658277894278283
 20
-0.8059297664028969
 10
7.658570963457246
 20
-0.8063511659972559
 10
7.658781843493777
 20
-0.8068457427666729
 10
7.658900801463086
 20
-0.8074318811246048
 10
7.658937570289972
 20
-0.8080911966576009
 10
7.658900801463086
 20
-0.8086776954942159
 10
7.658763459080329
 20
-0.8092270650252689
 10
7.658516170695625
 20
-0.809721641794688
 10
7.658140551895526
 20
-0.8101524138351068
 10
7.657618578745294
 20
-0.8105186601891379
 10
7.656922133906727
 20
-0.8107843329872909
 10
7.656033914402456
 20
-0.8109584441969289
 10
7.65495283879641
 20
-0.8110226094046269
 10
7.649896764621576
 20
-0.8110226094046269
 10
7.649896764621576
 20
-0.8051695168353289
 97
        0
 92
       18
 72
     0
 73
     1
 93
        3
 10
7.774680069652456
 20
-0.796916357115311
 10
7.777602109953417
 20
-0.8072945387418409
 10
7.771483344585977
 20
-0.8072945387418409
 97
        0
 75
     0
 76
     1
 98
        0
  0
HATCH
  5
84
102
{ACAD_REACTORS
330
83
102
}
330
1F
100
AcDbEntity
  8
XR$1$TB_711_1
  6
AUSGEZOGEN
 62
     3
440
 33554687
370
    35
100
AcDbHatch
 10
0.0
 20
0.0
 30
0.0
210
0.0
220
0.0
230
1.0
  2
SOLID
 70
     1
 71
     0
 91
        1
 92
        3
 72
     0
 73
     1
 93
       22
 10
7.497982391096802
 20
-0.8158130107813178
 10
7.51315097410002
 20
-0.8158130107813178
 10
7.511868751382216
 20
-0.8149702115926089
 10
7.510622937012603
 20
-0.8140542352288399
 10
7.509422903437231
 20
-0.8130466972765609
 10
7.508287035069557
 20
-0.811947597735769
 10
7.507233716323038
 20
-0.8107569366064749
 10
7.506262947197634
 20
-0.8094469570291619
 10
7.505392751628119
 20
-0.808027391928598
 10
7.504632502060545
 20
-0.8064975203473879
 10
7.50416532167194
 20
-0.8054989943624858
 10
7.503762306491027
 20
-0.8044914564102079
 10
7.503414084071731
 20
-0.8034839184579219
 10
7.50312101489278
 20
-0.8024763805056429
 10
7.502717999711867
 20
-0.8004519321550179
 10
7.50253487653484
 20
-0.7984462286965208
 10
7.502571284883039
 20
-0.7964675611401459
 10
7.502800549332999
 20
-0.7945256624106498
 10
7.503221948927354
 20
-0.7926295444754138
 10
7.503505645660256
 20
-0.7917045561442669
 10
7.503835483666092
 20
-0.7907975917478729
 10
7.497982391096802
 20
-0.7907975917478729
 97
        0
 75
     0
 76
     1
 98
        0
  0
HATCH
  5
85
102
{ACAD_REACTORS
330
83
102
}
330
1F
100
AcDbEntity
  8
XR$1$TB_711_1
  6
AUSGEZOGEN
 62
     3
440
 33554687
370
    35
100
AcDbHatch
 10
0.0
 20
0.0
 30
0.0
210
0.0
220
0.0
230
1.0
  2
SOLID
 70
     1
 71
     0
 91
        1
 92
        3
 72
     0
 73
     1
 93
       24
 10
7.510549759837527
 20
-0.8120943125645969
 10
7.511758805380262
 20
-0.8132117965188259
 10
7.513086808892324
 20
-0.8142193344711088
 10
7.514524758406334
 20
-0.8150801575945549
 10
7.516073014400984
 20
-0.8158130107813178
 10
7.522988437684188
 20
-0.8158130107813178
 10
7.522988437684188
 20
-0.7907975917478729
 10
7.509422903437231
 20
-0.7907975917478729
 10
7.508864161460119
 20
-0.7914388833461199
 10
7.508387969104145
 20
-0.792162364086809
 10
7.507563554328878
 20
-0.7937290044948949
 10
7.507187935528783
 20
-0.7945256624106498
 10
7.506858097522936
 20
-0.795341065218549
 10
7.506583412757418
 20
-0.7961561075477439
 10
7.506354508786139
 20
-0.7969805223230029
 10
7.506033682747665
 20
-0.7986293518735329
 10
7.505896340364904
 20
-0.8002781814240649
 10
7.50593310919179
 20
-0.8019270109746008
 10
7.506134616782242
 20
-0.8035390716982419
 10
7.506500863136277
 20
-0.8051237360410799
 10
7.507023196765201
 20
-0.8066622591109629
 10
7.507700896711643
 20
-0.808136977451854
 10
7.508516299519528
 20
-0.8095478910637409
 10
7.509468684231485
 20
-0.8108668826084229
 97
        0
 75
     0
 76
     1
 98
        0
  0
HATCH
  5
87
102
{ACAD_REACTORS
330
86
102
}
330
1F
100
AcDbEntity
  8
XR$1$TB_711_1
  6
AUSGEZOGEN
 62
     9
440
 33554687
370
    -3
100
AcDbHatch
 10
0.0
 20
0.0
 30
0.0
210
0.0
220
0.0
230
1.0
  2
SOLID
 70
     1
 71
     0
 91
        1
 92
        3
 72
     0
 73
     1
 93
        4
 10
7.426483134297976
 20
-0.3582591691531938
 10
7.426483134297976
 20
-0.3782591691531239
 10
7.496219120359132
 20
-0.3782591691531239
 10
7.496219120359132
 20
-0.3582591691531938
 97
        0
 75
     0
 76
     1
 98
        0
  0
HATCH
  5
88
102
{ACAD_REACTORS
330
86
102
}
330
1F
100
AcDbEntity
  8
XR$1$TB_711_1
  6
AUSGEZOGEN
 62
     9
440
 33554687
370
    -3
100
AcDbHatch
 10
0.0
 20
0.0
 30
0.0
210
0.0
220
0.0
230
1.0
  2
SOLID
 70
     1
 71
     0
 91
        1
 92
        3
 72
     0
 73
     1
 93
        4
 10
7.996219120359132
 20
-0.3782591691531239
 10
7.996219120359132
 20
-0.3582591691531938
 10
7.504219120359132
 20
-0.3582591691531938
 10
7.504219120359132
 20
-0.3782591691531239
 97
        0
 75
     0
 76
     1
 98
        0
  0
HATCH
  5
89
330
1F
100
AcDbEntity
  8
XR$1$TB_711_1
  6
AUSGEZOGEN
 62
    18
420
        0
440
 33554687
370
    -3
100
AcDbHatch
 10
0.0
 20
0.0
 30
0.0
210
0.0
220
0.0
230
1.0
  2
SOLID
 70
     1
 71
     0
 91
        1
 92
        3
 72
     0
 73
     1
 93
        8
 10
7.455696789301292
 20
-0.3515143631579739
 10
7.555696789301293
 20
-0.3515143631579739
 10
7.555696789301293
 20
-0.3495143631579739
 10
7.506696789301293
 20
-0.3495143631579739
 10
7.506696789301293
 20
-0.3075143631579739
 10
7.504696789301293
 20
-0.3075143631579739
 10
7.504696789301293
 20
-0.3495143631579739
 10
7.455696789301292
 20
-0.3495143631579739
 97
        0
 75
     0
 76
     1
 98
        0
  0
HATCH
  5
8A
330
1F
100
AcDbEntity
  8
XR$1$TB_711_1
  6
AUSGEZOGEN
 62
    18
420
        0
440
 33554687
370
    -3
100
AcDbHatch
 10
0.0
 20
0.0
 30
0.0
210
0.0
220
0.0
230
1.0
  2
SOLID
 70
     1
 71
     0
 91
        1
 92
        3
 72
     0
 73
     1
 93
        8
 10
7.905719120359131
 20
-0.3515146515141639
 10
8.005719120359132
 20
-0.3515146515141639
 10
8.005719120359132
 20
-0.3495146515141639
 10
7.956719120359131
 20
-0.3495146515141639
 10
7.956719120359131
 20
-0.3075143631579739
 10
7.954719120359131
 20
-0.3075143631579739
 10
7.954719120359131
 20
-0.3495146515141639
 10
7.905719120359131
 20
-0.3495146515141639
 97
        0
 75
     0
 76
     1
 98
        0
  0
HATCH
  5
8B
330
1F
100
AcDbEntity
  8
XR$1$TB_711_1
  6
VERDECKT2_S2
 62
     8
440
 33554687
370
    -3
100
AcDbHatch
 10
0.0
 20
0.0
 30
0.0
210
0.0
220
0.0
230
1.0
  2
SOLID
 70
     1
 71
     0
 91
        1
 92
        3
 72
     0
 73
     1
 93
      187
 10
8.008980257830178
 20
-0.3777492631546839
 10
8.00897843105342
 20
-0.3777841201317239
 10
8.008975388898529
 20
-0.3778188921212439
 10
8.0089711350719
 20
-0.3778535367589438
 10
8.00896567475617
 20
-0.3778880118356439
 10
8.008959014603892
 20
-0.3779222753487939
 10
8.008951162729435
 20
-0.3779562855535839
 10
8.008942128699097
 20
-0.3779900010137939
 10
8.008931923519455
 20
-0.3780233806523539
 10
8.008920559623945
 20
-0.3780563838013039
 10
8.008908050857725
 20
-0.3780889702513939
 10
8.008894412460801
 20
-0.3781211003010538
 10
8.008879661049459
 20
-0.3781527348047639
 10
8.008863814596017
 20
-0.3781838352207639
 10
8.008846892406945
 20
-0.3782143636579739
 10
8.008828915099315
 20
-0.3782442829222139
 10
8.008809904575715
 20
-0.3782735565614539
 10
8.008789883997535
 20
-0.3783021489102739
 10
8.008768877756767
 20
-0.3783300251333039
 10
8.008746911446279
 20
-0.3783571512676639
 10
8.008724011828637
 20
-0.3783834942643339
 10
8.0087002068035
 20
-0.3784090220284339
 10
8.008675525373619
 20
-0.3784337034583138
 10
8.008649997609517
 20
-0.3784575084834539
 10
8.008623654612846
 20
-0.3784804081010939
 10
8.008596528478487
 20
-0.3785023744115839
 10
8.008568652255452
 20
-0.3785233806523539
 10
8.00854005990663
 20
-0.3785434012305339
 10
8.008510786267394
 20
-0.3785624117541339
 10
8.00848086700316
 20
-0.3785803890617639
 10
8.008450338565943
 20
-0.3785973112508338
 10
8.008419238149948
 20
-0.3786131577042739
 10
8.008387603646234
 20
-0.3786279091156239
 10
8.008355473596575
 20
-0.3786415475125439
 10
8.008322887146484
 20
-0.3786540562787639
 10
8.008289883997534
 20
-0.3786654201742739
 10
8.008256504358975
 20
-0.3786756253539139
 10
8.008222788898758
 20
-0.3786846593842538
 10
8.008188778693976
 20
-0.3786925112587139
 10
8.008154515180827
 20
-0.3786991714109939
 10
8.008120040104119
 20
-0.3787046317267239
 10
8.008085395466427
 20
-0.3787088855533439
 10
8.008050623476905
 20
-0.3787119277082339
 10
8.008015766499861
 20
-0.3787137544849938
 10
8.007980867003159
 20
-0.3787143636579739
 10
8.007945967506457
 20
-0.3787137544849938
 10
8.007911110529413
 20
-0.3787119277082339
 10
8.007876338539893
 20
-0.3787088855533439
 10
8.007841693902199
 20
-0.3787046317267239
 10
8.00780721882549
 20
-0.3786991714109939
 10
8.007772955312342
 20
-0.3786925112587139
 10
8.007738945107558
 20
-0.3786846593842538
 10
8.007705229647343
 20
-0.3786756253539139
 10
8.007671850008784
 20
-0.3786654201742739
 10
8.007638846859834
 20
-0.3786540562787639
 10
8.00760626040974
 20
-0.3786415475125439
 10
8.007574130360084
 20
-0.3786279091156239
 10
8.00754249585637
 20
-0.3786131577042739
 10
8.007511395440373
 20
-0.3785973112508338
 10
8.007480867003158
 20
-0.3785803890617639
 10
8.007450947738924
 20
-0.3785624117541339
 10
8.007421674099689
 20
-0.3785434012305339
 10
8.007393081750866
 20
-0.3785233806523539
 10
8.007365205527831
 20
-0.3785023744115839
 10
8.007338079393474
 20
-0.3784804081010939
 10
8.007311736396801
 20
-0.3784575084834539
 10
8.0072862086327
 20
-0.3784337034583138
 10
8.00726152720282
 20
-0.3784090220284339
 10
8.007237722177681
 20
-0.3783834942643339
 10
8.007214822560039
 20
-0.3783571512676639
 10
8.007192856249551
 20
-0.3783300251333039
 10
8.007171850008783
 20
-0.3783021489102739
 10
8.007151829430603
 20
-0.3782735565614539
 10
8.007132818907003
 20
-0.3782442829222139
 10
8.007114841599373
 20
-0.3782143636579739
 10
8.0070979194103
 20
-0.3781838352207639
 10
8.007082072956859
 20
-0.3781527348047639
 10
8.007067321545517
 20
-0.3781211003010538
 10
8.007053683148591
 20
-0.3780889702513939
 10
8.007041174382373
 20
-0.3780563838013039
 10
8.007029810486863
 20
-0.3780233806523539
 10
8.007019605307221
 20
-0.3779900010137939
 10
8.007010571276883
 20
-0.3779562855535839
 10
8.007002719402426
 20
-0.3779222753487939
 10
8.006996059250147
 20
-0.3778880118356439
 10
8.006990598934419
 20
-0.3778535367589339
 10
8.00698634510779
 20
-0.3778188921212439
 10
8.0069833029529
 20
-0.3777841201317239
 10
8.00698147617614
 20
-0.3777492631546839
 10
8.00698086700316
 20
-0.3777143636579739
 10
8.006980866889025
 20
-0.3545146515141639
 10
8.003980867053752
 20
-0.3545146515141639
 10
8.003980867171936
 20
-0.3787143622636839
 10
8.003982694522103
 20
-0.3788190621480839
 10
8.00398817485238
 20
-0.3789236330792138
 10
8.003997301317057
 20
-0.3790279490477839
 10
8.004010062796935
 20
-0.3791318829608639
 10
8.004026443744122
 20
-0.3792353081909839
 10
8.004046424200958
 20
-0.3793380987304338
 10
8.004069979824333
 20
-0.3794401293447739
 10
8.004097081915344
 20
-0.3795412757254339
 10
8.004127697454274
 20
-0.3796414146411039
 10
8.004161789140802
 20
-0.3797404240879538
 10
8.004199315439458
 20
-0.3798381834382239
 10
8.00424023063023
 20
-0.3799345735872039
 10
8.004284484864263
 20
-0.3800294770983439
 10
8.004332024224581
 20
-0.3801227783463338
 10
8.004382790791805
 20
-0.3802143636579739
 10
8.00443672271469
 20
-0.3803041214506739
 10
8.004493754285495
 20
-0.3803919423683939
 10
8.004553816020033
 20
-0.3804777194148539
 10
8.00461683474234
 20
-0.3805613480839539
 10
8.004682733673802
 20
-0.3806427264870339
 10
8.004751432526726
 20
-0.3807217554770539
 10
8.004822847602142
 20
-0.3807983387693539
 10
8.00489689189178
 20
-0.3808723830589939
 10
8.004973475184084
 20
-0.3809437981344139
 10
8.005052504174099
 20
-0.3810124969873339
 10
8.005133882577182
 20
-0.3810783959188039
 10
8.005217511246283
 20
-0.3811414146411039
 10
8.005303288292746
 20
-0.3812014763756439
 10
8.00539110921046
 20
-0.3812585079464438
 10
8.00548086700316
 20
-0.3813124398693338
 10
8.005572452314802
 20
-0.3813632064365539
 10
8.005665753562791
 20
-0.3814107457968739
 10
8.005760657073932
 20
-0.3814550000309039
 10
8.00585704722291
 20
-0.3814959152216839
 10
8.005954806573182
 20
-0.3815334415203339
 10
8.006053816020033
 20
-0.3815675332068639
 10
8.006153954935707
 20
-0.3815981487457939
 10
8.006255101316361
 20
-0.3816252508368039
 10
8.006357131930706
 20
-0.3816488064601839
 10
8.006459922470158
 20
-0.3816687869170138
 10
8.00656334770028
 20
-0.3816851678642039
 10
8.006667281613357
 20
-0.3816979293440839
 10
8.006771597581926
 20
-0.3817070558087539
 10
8.00687616851305
 20
-0.3817125361390339
 10
8.00698086700316
 20
-0.3817143636579739
 10
8.008480865376477
 20
-0.3817143634610738
 10
8.008603015241619
 20
-0.3817122315525439
 10
8.008725014661263
 20
-0.3817058378338839
 10
8.008846716624596
 20
-0.3816951902917639
 10
8.008967972856519
 20
-0.3816803018985739
 10
8.009088635624993
 20
-0.3816611907935239
 10
8.00920855792102
 20
-0.3816378802605438
 10
8.009327593637757
 20
-0.3816103986999438
 10
8.009445597748519
 20
-0.3815787795937639
 10
8.009562426483473
 20
-0.3815430614650139
 10
8.009677937504799
 20
-0.3815032878307339
 10
8.009791990080114
 20
-0.3814595071489639
 10
8.009904445253923
 20
-0.3814117727597239
 10
8.01001516601692
 20
-0.3813601428200238
 10
8.01012401747291
 20
-0.3813046802329839
 10
8.010230867003159
 20
-0.3812454525712239
 10
8.010335584427976
 20
-0.3811825319945238
 10
8.010438042165307
 20
-0.3811159951619239
 10
8.010538115386183
 20
-0.3810459231382939
 10
8.010635682166798
 20
-0.3809724012956038
 10
8.010730623637063
 20
-0.3808955192088939
 10
8.010822824125414
 20
-0.3808153705471539
 10
8.010912171299765
 20
-0.3807320529591638
 10
8.010998556304344
 20
-0.3806456679545839
 10
8.01108187389233
 20
-0.3805563207802339
 10
8.011162022554075
 20
-0.3804641202918839
 10
8.011238904640784
 20
-0.3803691788216139
 10
8.011312426483473
 20
-0.3802716120410039
 10
8.011382498507102
 20
-0.3801715388201239
 10
8.011449035339705
 20
-0.3800690810827939
 10
8.011511955916404
 20
-0.3799643636579739
 10
8.011571183578164
 20
-0.3798575141277338
 10
8.011626646165206
 20
-0.3797486626717439
 10
8.011678276104908
 20
-0.3796379419087439
 10
8.011726010494142
 20
-0.3795254867349339
 10
8.011769791175908
 20
-0.3794114341596239
 10
8.011809564810193
 20
-0.3792959231382939
 10
8.011845282938943
 20
-0.3791790944033339
 10
8.011876902045124
 20
-0.3790610902925738
 10
8.011904383605728
 20
-0.3789420545758439
 10
8.011927694138702
 20
-0.3788221322798139
 10
8.011946805243754
 20
-0.3787014695113339
 10
8.011961693636948
 20
-0.3785802132794138
 10
8.011972341179069
 20
-0.3784585113160839
 10
8.011978734897726
 20
-0.3783365118964339
 10
8.011980867003158
 20
-0.3782143636579739
 10
8.011980867003158
 20
-0.1225146520141739
 10
8.008980867003158
 20
-0.1225146520141739
 10
8.008980867003158
 20
-0.3777143636579739
 97
        0
 75
     0
 76
     1
 98
        0
  0
LINE
  5
8C
330
1F
100
AcDbEntity
  8
XR$1$TB_711_1
  6
AUSGEZOGEN
 62
     1
440
 33554687
370
    70
100
AcDbLine
 10
7.284505
 20
-0.939163
 30
0.0
 11
7.284505
 21
0.545823
 31
0.0
  0
MTEXT
  5
8D
330
1F
100
AcDbEntity
  8
XR$1$TB_711_1
  6
AUSGEZOGEN
 62
     7
440
 33554687
370
    -3
100
AcDbMText
 10
7.402671
 20
0.432174
 30
0.0
 40
0.0175
 41
0.374509
 46
0.0
 71
     7
 72
     5
  1
\W1.00;EMBRASURE OF THE WINDOW
  7
ARIAL
 73
     1
 44
1.0
  0
MTEXT
  5
8E
330
1F
100
AcDbEntity
  8
XR$1$TB_711_1
  6
AUSGEZOGEN
 62
     7
440
 33554687
370
    -3
100
AcDbMText
 10
7.402671
 20
0.405924
 30
0.0
 40
0.0175
 41
0.326106
 46
0.0
 71
     7
 72
     5
  1
\W1.00;EMBRASURE DE FENETRE
  7
ARIAL
 73
     1
 44
1.0
  0
MTEXT
  5
8F
330
1F
100
AcDbEntity
  8
XR$1$TB_711_1
  6
AUSGEZOGEN
 62
     7
440
 33554687
370
    -3
100
AcDbMText
 10
7.402671
 20
0.467185
 30
0.0
 40
0.025
 41
0.525859
 46
0.0
 71
     7
 72
     5
  1
\W1.00;FENSTERLEIBUNG MIT BLECH
  7
ARIAL
 73
     1
 44
1.0
  0
LINE
  5
90
330
1F
100
AcDbEntity
  8
XR$1$TB_711_1
  6
AUSGEZOGEN
 62
     7
440
 33554687
370
    -3
100
AcDbLine
 10
7.884219
 20
-0.224515
 30
0.0
 11
7.884219
 21
-0.227515
 31
0.0
  0
LINE
  5
91
330
1F
100
AcDbEntity
  8
XR$1$TB_711_1
  6
STRICHPUNKT2_S5
 62
     6
440
 33554687
370
    35
100
AcDbLine
 10
7.902119
 20
-0.237515
 30
0.0
 11
7.902119
 21
-0.119515
 31
0.0
  0
LINE
  5
92
330
1F
100
AcDbEntity
  8
XR$1$TB_711_1
  6
AUSGEZOGEN
 62
     1
440
 33554687
370
    70
100
AcDbLine
 10
8.334494
 20
-0.939163
 30
0.0
 11
8.334494
 21
0.545823
 31
0.0
  0
LINE
  5
93
330
1F
100
AcDbEntity
  8
XR$1$TB_711_1
  6
AUSGEZOGEN
 62
     1
440
 33554687
370
    70
100
AcDbLine
 10
8.334494
 20
0.545823
 30
0.0
 11
7.284505
 21
0.545823
 31
0.0
  0
LINE
  5
94
330
1F
100
AcDbEntity
  8
XR$1$TB_711_1
  6
AUSGEZOGEN
 62
     7
440
 33554687
370
    -3
100
AcDbLine
 10
7.469197
 20
-0.224515
 30
0.0
 11
7.469197
 21
-0.227515
 31
0.0
  0
LINE
  5
95
330
1F
100
AcDbEntity
  8
XR$1$TB_711_1
  6
AUSGEZOGEN
 62
     7
440
 33554687
370
    -3
100
AcDbLine
 10
7.469197
 20
-0.227515
 30
0.0
 11
7.506697
 21
-0.227515
 31
0.0
  0
LINE
  5
96
330
1F
100
AcDbEntity
  8
XR$1$TB_711_1
  6
AUSGEZOGEN
 62
     7
440
 33554687
370
    -3
100
AcDbLine
 10
7.469197
 20
-0.224515
 30
0.0
 11
7.509197
 21
-0.224515
 31
0.0
  0
LINE
  5
97
330
1F
100
AcDbEntity
  8
XR$1$TB_711_1
  6
AUSGEZOGEN
 62
     7
440
 33554687
370
    -3
100
AcDbLine
 10
7.506697
 20
-0.227515
 30
0.0
 11
7.506697
 21
-0.304515
 31
0.0
  0
LINE
  5
98
330
1F
100
AcDbEntity
  8
XR$1$TB_711_1
  6
STRICHPUNKT2_S5
 62
     6
440
 33554687
370
    35
100
AcDbLine
 10
7.487947
 20
-0.237515
 30
0.0
 11
7.487947
 21
-0.119515
 31
0.0
  0
LINE
  5
99
330
1F
100
AcDbEntity
  8
XR$1$TB_711_1
  6
AUSGEZOGEN
 62
     7
440
 33554687
370
    -3
100
AcDbLine
 10
7.884219
 20
-0.227515
 30
0.0
 11
7.956719
 21
-0.227515
 31
0.0
  0
LINE
  5
9A
330
1F
100
AcDbEntity
  8
XR$1$TB_711_1
  6
AUSGEZOGEN
 62
     7
440
 33554687
370
    -3
100
AcDbLine
 10
7.884219
 20
-0.224515
 30
0.0
 11
7.959219
 21
-0.224515
 31
0.0
  0
MTEXT
  5
9B
330
1F
100
AcDbEntity
  8
XR$1$TB_711_1
  6
AUSGEZOGEN
 62
     7
440
 33554687
370
    -3
100
AcDbMText
 10
7.402671
 20
0.355924
 30
0.0
 40
0.0225
 41
0.381035
 46
0.0
 71
     7
 72
     5
  1
\W1.00;KeraTwin   K20 - Klammer
  7
ARIAL
 73
     1
 44
1.0
  0
MTEXT
  5
9C
330
1F
100
AcDbEntity
  8
XR$1$TB_711_1
  6
AUSGEZOGEN
 62
     7
440
 33554687
370
    -3
100
AcDbMText
 10
7.5368
 20
0.368295
 30
0.0
 40
0.01
 41
0.024254
 46
0.0
 71
     7
 72
     5
  1
\A1;{\fArial|i0|b0;\H0.017500;\W0.911111;\C7;®}\P
  7
ARIAL
 73
     1
 44
1.0
  0
LINE
  5
9D
330
1F
100
AcDbEntity
  8
XR$1$TB_711_1
  6
AUSGEZOGEN
 62
     7
440
 33554687
370
    -3
100
AcDbLine
 10
8.016981
 20
-0.115515
 30
0.0
 11
8.016981
 21
-0.145515
 31
0.0
  0
LINE
  5
9E
330
1F
100
AcDbEntity
  8
XR$1$TB_711_1
  6
AUSGEZOGEN
 62
     7
440
 33554687
370
    -3
100
AcDbLine
 10
8.016981
 20
-0.145515
 30
0.0
 11
8.013981
 21
-0.145515
 31
0.0
  0
LINE
  5
9F
330
1F
100
AcDbEntity
  8
XR$1$TB_711_1
  6
AUSGEZOGEN
 62
     7
440
 33554687
370
    -3
100
AcDbLine
 10
8.011981
 20
-0.142515
 30
0.0
 11
8.013981
 21
-0.145515
 31
0.0
  0
LINE
  5
A0
330
1F
100
AcDbEntity
  8
XR$1$TB_711_1
  6
AUSGEZOGEN
 62
     7
440
 33554687
370
    -3
100
AcDbLine
 10
8.013981
 20
-0.142515
 30
0.0
 11
8.011981
 21
-0.142515
 31
0.0
  0
LINE
  5
A1
330
1F
100
AcDbEntity
  8
XR$1$TB_711_1
  6
AUSGEZOGEN
 62
     7
440
 33554687
370
    -3
100
AcDbLine
 10
8.013981
 20
-0.118515
 30
0.0
 11
8.013981
 21
-0.142515
 31
0.0
  0
LINE
  5
A2
330
1F
100
AcDbEntity
  8
XR$1$TB_711_1
  6
AUSGEZOGEN
 62
     7
440
 33554687
370
    -3
100
AcDbLine
 10
8.003981
 20
-0.118515
 30
0.0
 11
8.003981
 21
-0.145515
 31
0.0
  0
LINE
  5
A3
330
1F
100
AcDbEntity
  8
XR$1$TB_711_1
  6
AUSGEZOGEN
 62
     7
440
 33554687
370
    -3
100
AcDbLine
 10
8.006981
 20
-0.145515
 30
0.0
 11
8.003981
 21
-0.145515
 31
0.0
  0
LINE
  5
A4
330
1F
100
AcDbEntity
  8
XR$1$TB_711_1
  6
AUSGEZOGEN
 62
     7
440
 33554687
370
    -3
100
AcDbLine
 10
8.008981
 20
-0.142515
 30
0.0
 11
8.006981
 21
-0.145515
 31
0.0
  0
LINE
  5
A5
330
1F
100
AcDbEntity
  8
XR$1$TB_711_1
  6
AUSGEZOGEN
 62
     7
440
 33554687
370
    -3
100
AcDbLine
 10
8.006981
 20
-0.142515
 30
0.0
 11
8.008981
 21
-0.142515
 31
0.0
  0
LINE
  5
A6
330
1F
100
AcDbEntity
  8
XR$1$TB_711_1
  6
AUSGEZOGEN
 62
     7
440
 33554687
370
    -3
100
AcDbLine
 10
8.006981
 20
-0.118515
 30
0.0
 11
8.006981
 21
-0.142515
 31
0.0
  0
LINE
  5
A7
330
1F
100
AcDbEntity
  8
XR$1$TB_711_1
  6
AUSGEZOGEN
 62
     7
440
 33554687
370
    -3
100
AcDbLine
 10
8.013981
 20
-0.118515
 30
0.0
 11
8.006981
 21
-0.118515
 31
0.0
  0
LINE
  5
A8
330
1F
100
AcDbEntity
  8
XR$1$TB_711_1
  6
AUSGEZOGEN
 62
     7
440
 33554687
370
    -3
100
AcDbLine
 10
7.968981
 20
-0.115515
 30
0.0
 11
7.968981
 21
-0.119515
 31
0.0
  0
LINE
  5
A9
330
1F
100
AcDbEntity
  8
XR$1$TB_711_1
  6
AUSGEZOGEN
 62
     7
440
 33554687
370
    -3
100
AcDbLine
 10
8.180981
 20
-0.115515
 30
0.0
 11
8.053981
 21
-0.115515
 31
0.0
  0
LINE
  5
AA
330
1F
100
AcDbEntity
  8
XR$1$TB_711_1
  6
AUSGEZOGEN
 62
     7
440
 33554687
370
    -3
100
AcDbLine
 10
7.980981
 20
-0.115515
 30
0.0
 11
7.980981
 21
-0.118515
 31
0.0
  0
LINE
  5
AB
330
1F
100
AcDbEntity
  8
XR$1$TB_711_1
  6
AUSGEZOGEN
 62
     7
440
 33554687
370
    -3
100
AcDbLine
 10
8.003981
 20
-0.118515
 30
0.0
 11
7.980981
 21
-0.118515
 31
0.0
  0
LINE
  5
AC
330
1F
100
AcDbEntity
  8
XR$1$TB_711_1
  6
AUSGEZOGEN
 62
     7
440
 33554687
370
    -3
100
AcDbLine
 10
7.991981
 20
-0.110515
 30
0.0
 11
7.991981
 21
-0.123515
 31
0.0
  0
LINE
  5
AD
330
1F
100
AcDbEntity
  8
XR$1$TB_711_1
  6
AUSGEZOGEN
 62
     7
440
 33554687
370
    -3
100
AcDbLine
 10
8.008981
 20
-0.122515
 30
0.0
 11
8.011981
 21
-0.122515
 31
0.0
  0
LINE
  5
AE
330
1F
100
AcDbEntity
  8
XR$1$TB_711_1
  6
AUSGEZOGEN
 62
    52
440
 33554687
370
    13
100
AcDbLine
 10
8.008981
 20
-0.209515
 30
0.0
 11
7.968981
 21
-0.199515
 31
0.0
  0
LINE
  5
AF
330
1F
100
AcDbEntity
  8
XR$1$TB_711_1
  6
AUSGEZOGEN
 62
    52
440
 33554687
370
    13
100
AcDbLine
 10
7.968981
 20
-0.199515
 30
0.0
 11
8.008981
 21
-0.189515
 31
0.0
  0
LINE
  5
B0
330
1F
100
AcDbEntity
  8
XR$1$TB_711_1
  6
AUSGEZOGEN
 62
    52
440
 33554687
370
    13
100
AcDbLine
 10
8.008981
 20
-0.189515
 30
0.0
 11
7.968981
 21
-0.179515
 31
0.0
  0
LINE
  5
B1
330
1F
100
AcDbEntity
  8
XR$1$TB_711_1
  6
AUSGEZOGEN
 62
    52
440
 33554687
370
    13
100
AcDbLine
 10
7.968981
 20
-0.179515
 30
0.0
 11
8.008981
 21
-0.169515
 31
0.0
  0
LINE
  5
B2
330
1F
100
AcDbEntity
  8
XR$1$TB_711_1
  6
AUSGEZOGEN
 62
    52
440
 33554687
370
    13
100
AcDbLine
 10
8.008981
 20
-0.169515
 30
0.0
 11
7.968981
 21
-0.159515
 31
0.0
  0
LINE
  5
B3
330
1F
100
AcDbEntity
  8
XR$1$TB_711_1
  6
AUSGEZOGEN
 62
    52
440
 33554687
370
    13
100
AcDbLine
 10
7.968981
 20
-0.159515
 30
0.0
 11
8.008981
 21
-0.149515
 31
0.0
  0
LINE
  5
B4
330
1F
100
AcDbEntity
  8
XR$1$TB_711_1
  6
AUSGEZOGEN
 62
    52
440
 33554687
370
    13
100
AcDbLine
 10
8.008981
 20
-0.149515
 30
0.0
 11
7.968981
 21
-0.139515
 31
0.0
  0
LINE
  5
B5
330
1F
100
AcDbEntity
  8
XR$1$TB_711_1
  6
AUSGEZOGEN
 62
    52
440
 33554687
370
    13
100
AcDbLine
 10
8.003981
 20
-0.128265
 30
0.0
 11
7.968981
 21
-0.119515
 31
0.0
  0
LINE
  5
B6
330
1F
100
AcDbEntity
  8
XR$1$TB_711_1
  6
AUSGEZOGEN
 62
    52
440
 33554687
370
    13
100
AcDbLine
 10
7.968981
 20
-0.139515
 30
0.0
 11
8.003981
 21
-0.130765
 31
0.0
  0
LINE
  5
B7
330
1F
100
AcDbEntity
  8
XR$1$TB_711_1
  6
AUSGEZOGEN
 62
    52
440
 33554687
370
    13
100
AcDbLine
 10
7.968981
 20
-0.119515
 30
0.0
 11
7.980981
 21
-0.116515
 31
0.0
  0
LINE
  5
B8
330
1F
100
AcDbEntity
  8
XR$1$TB_711_1
  6
AUSGEZOGEN
 62
    32
440
 33554687
370
    -3
100
AcDbLine
 10
7.968981
 20
0.080485
 30
0.0
 11
7.426483
 21
0.080485
 31
0.0
  0
LINE
  5
B9
330
1F
100
AcDbEntity
  8
XR$1$TB_711_1
  6
AUSGEZOGEN
 62
     1
440
 33554687
370
    70
100
AcDbLine
 10
7.284536
 20
-0.939177
 30
0.0
 11
8.334536
 21
-0.939177
 31
0.0
  0
MTEXT
  5
BA
330
1F
100
AcDbEntity
  8
XR$1$TB_711_1
  6
AUSGEZOGEN
 62
     7
440
 33554687
370
    -3
100
AcDbMText
 10
7.402345
 20
-0.871799
 30
0.0
 40
0.009
 41
0.89646
 46
0.0
 71
     7
 72
     5
  1
\W0.85;THESE ARE NOT BINDING CONSTRUCTION PROPOSALS WHICH HAVE TO BE VERIFIED FOR EACH INDIVIDUAL PROJECT AS REGARDS APPLICABILITY AND CORRECTNESS.
  7
ARIAL
 73
     1
 44
1.0
  0
MTEXT
  5
BB
330
1F
100
AcDbEntity
  8
XR$1$TB_711_1
  6
AUSGEZOGEN
 62
     7
440
 33554687
370
    -3
100
AcDbMText
 10
7.402345
 20
-0.853799
 30
0.0
 40
0.009
 41
0.8975
 46
0.0
 71
     7
 72
     5
  1
\W0.91;DIES SIND UNVERBINDLICHE KONSTRUKTIONSVORSCHLÄGE, DIE FÜR JEDES PROJEKT AUF ANWENDBARKEIT UND RICHTIGKEIT GEPRÜFT WERDEN MÜSSEN.
  7
ARIAL
 73
     1
 44
1.0
  0
MTEXT
  5
BC
330
1F
100
AcDbEntity
  8
XR$1$TB_711_1
  6
AUSGEZOGEN
 62
     7
440
 33554687
370
    -3
100
AcDbMText
 10
7.402345
 20
-0.889799
 30
0.0
 40
0.009
 41
0.895804
 46
0.0
 71
     7
 72
     5
  1
\W0.80;IL S' AGIT DE PROPOSITIONS DE CONSTRUCTION SANS ENGAGEMENT DE NOTRE PART QUI DOIVENT ETRE VERIFIEES POUR CHAQUE PROJET A LEUR EXACTITUDE ET FAISABILITE.
  7
ARIAL
 73
     1
 44
1.0
  0
MTEXT
  5
BD
330
1F
100
AcDbEntity
  8
XR$1$TB_711_1
  6
AUSGEZOGEN
 62
     7
440
 33554687
370
    -3
100
AcDbMText
 10
7.817005
 20
-0.81587
 30
0.0
 40
0.009
 41
0.348436
 46
0.0
 71
     7
 72
     5
  1
\W0.92;Tel. 09435 / 391 3238   e-mail: as.fassade@deutsche-steinzeug.de
  7
ARIAL
 73
     1
 44
1.0
  0
LINE
  5
BE
330
1F
100
AcDbEntity
  8
XR$1$TB_711_1
  6
AUSGEZOGEN
 62
     7
440
 33554687
370
    -3
100
AcDbLine
 10
7.506697
 20
-0.324515
 30
0.0
 11
7.509197
 21
-0.324515
 31
0.0
  0
LINE
  5
BF
330
1F
100
AcDbEntity
  8
XR$1$TB_711_1
  6
AUSGEZOGEN
 62
     7
440
 33554687
370
    -3
100
AcDbLine
 10
7.956719
 20
-0.324515
 30
0.0
 11
7.959219
 21
-0.324515
 31
0.0
  0
LINE
  5
C0
330
1F
100
AcDbEntity
  8
XR$1$TB_711_1
  6
AUSGEZOGEN
 62
     7
440
 33554687
370
    -3
100
AcDbLine
 10
7.509197
 20
-0.324515
 30
0.0
 11
7.509197
 21
-0.224515
 31
0.0
  0
LINE
  5
C1
330
1F
100
AcDbEntity
  8
XR$1$TB_711_1
  6
AUSGEZOGEN
 62
     7
440
 33554687
370
    -3
100
AcDbLine
 10
7.514197
 20
-0.308136
 30
0.0
 11
7.498697
 21
-0.308136
 31
0.0
  0
LINE
  5
C2
330
1F
100
AcDbEntity
  8
XR$1$TB_711_1
  6
AUSGEZOGEN
 62
     7
440
 33554687
370
    -3
100
AcDbLine
 10
7.964219
 20
-0.308136
 30
0.0
 11
7.948719
 21
-0.308136
 31
0.0
  0
LINE
  5
C3
330
1F
100
AcDbEntity
  8
XR$1$TB_711_1
  6
AUSGEZOGEN
 62
     7
440
 33554687
370
    -3
100
AcDbLine
 10
7.956719
 20
-0.227515
 30
0.0
 11
7.956719
 21
-0.324515
 31
0.0
  0
LINE
  5
C4
330
1F
100
AcDbEntity
  8
XR$1$TB_711_1
  6
AUSGEZOGEN
 62
     7
440
 33554687
370
    -3
100
AcDbLine
 10
7.959219
 20
-0.324515
 30
0.0
 11
7.959219
 21
-0.224515
 31
0.0
  0
LINE
  5
C5
330
1F
100
AcDbEntity
  8
XR$1$TB_711_1
  6
AUSGEZOGEN
 62
     7
440
 33554687
370
    -3
100
AcDbLine
 10
7.884219
 20
-0.224515
 30
0.0
 11
7.884219
 21
-0.218515
 31
0.0
  0
LINE
  5
C6
330
1F
100
AcDbEntity
  8
XR$1$TB_711_1
  6
AUSGEZOGEN
 62
     7
440
 33554687
370
    -3
100
AcDbLine
 10
7.509197
 20
-0.224515
 30
0.0
 11
7.509197
 21
-0.218515
 31
0.0
  0
LINE
  5
C7
330
1F
100
AcDbEntity
  8
XR$1$TB_711_1
  6
AUSGEZOGEN
 62
     7
440
 33554687
370
    -3
100
AcDbLine
 10
7.469197
 20
-0.224515
 30
0.0
 11
7.469197
 21
-0.218515
 31
0.0
  0
LINE
  5
C8
330
1F
100
AcDbEntity
  8
XR$1$TB_711_1
  6
AUSGEZOGEN
 62
     7
440
 33554687
370
    -3
100
AcDbLine
 10
7.959219
 20
-0.224515
 30
0.0
 11
7.959219
 21
-0.218515
 31
0.0
  0
LINE
  5
C9
330
1F
100
AcDbEntity
  8
XR$1$TB_711_1
  6
AUSGEZOGEN
 62
    32
440
 33554687
370
    50
100
AcDbLine
 10
7.968981
 20
0.080485
 30
0.0
 11
7.968981
 21
-0.218515
 31
0.0
  0
LINE
  5
CA
330
1F
100
AcDbEntity
  8
XR$1$TB_711_1
  6
AUSGEZOGEN
 62
    52
440
 33554687
370
    13
100
AcDbLine
 10
7.968981
 20
-0.218515
 30
0.0
 11
8.008981
 21
-0.209515
 31
0.0
  0
LINE
  5
CB
330
1F
100
AcDbEntity
  8
XR$1$TB_711_1
  6
AUSGEZOGEN
 62
    32
440
 33554687
370
    50
100
AcDbLine
 10
7.968981
 20
-0.218515
 30
0.0
 11
7.426483
 21
-0.218515
 31
0.0
  0
LINE
  5
CC
330
1F
100
AcDbEntity
  8
XR$1$TB_711_1
  6
AUSGEZOGEN
 62
    52
440
 33554687
370
    13
100
AcDbLine
 10
8.008981
 20
-0.218515
 30
0.0
 11
7.968981
 21
-0.218515
 31
0.0
  0
LINE
  5
CD
330
1F
100
AcDbEntity
  8
XR$1$TB_711_1
  6
AUSGEZOGEN
 62
     7
440
 33554687
370
    -3
100
AcDbLine
 10
7.968981
 20
0.080485
 30
0.0
 11
7.968981
 21
0.080485
 31
0.0
  0
LINE
  5
CE
330
1F
100
AcDbEntity
  8
XR$1$TB_711_1
  6
AUSGEZOGEN
 62
     7
440
 33554687
370
    -3
100
AcDbLine
 10
8.180981
 20
0.080485
 30
0.0
 11
7.968981
 21
0.080485
 31
0.0
  0
LINE
  5
CF
330
1F
100
AcDbEntity
  8
XR$1$TB_711_1
  6
AUSGEZOGEN
 62
    52
440
 33554687
370
    13
100
AcDbLine
 10
7.504697
 20
-0.299515
 30
0.0
 11
7.426483
 21
-0.299515
 31
0.0
  0
LINE
  5
D0
330
1F
100
AcDbEntity
  8
XR$1$TB_711_1
  6
AUSGEZOGEN
 62
     7
440
 33554687
370
    -3
100
AcDbLine
 10
7.504697
 20
-0.299515
 30
0.0
 11
7.506697
 21
-0.299515
 31
0.0
  0
LINE
  5
D1
330
1F
100
AcDbEntity
  8
XR$1$TB_711_1
  6
AUSGEZOGEN
 62
    52
440
 33554687
370
    13
100
AcDbLine
 10
7.954719
 20
-0.299515
 30
0.0
 11
7.509197
 21
-0.299515
 31
0.0
  0
LINE
  5
D2
330
1F
100
AcDbEntity
  8
XR$1$TB_711_1
  6
AUSGEZOGEN
 62
    52
440
 33554687
370
    13
100
AcDbLine
 10
8.008981
 20
-0.299515
 30
0.0
 11
7.959219
 21
-0.299515
 31
0.0
  0
LINE
  5
D3
330
1F
100
AcDbEntity
  8
XR$1$TB_711_1
  6
AUSGEZOGEN
 62
     7
440
 33554687
370
    -3
100
AcDbLine
 10
7.954719
 20
-0.299515
 30
0.0
 11
7.956719
 21
-0.299515
 31
0.0
  0
LINE
  5
D4
330
1F
100
AcDbEntity
  8
XR$1$TB_711_1
  6
AUSGEZOGEN
 62
     7
440
 33554687
370
    13
100
AcDbLine
 10
7.426483
 20
-0.218515
 30
0.0
 11
7.451483
 21
-0.299515
 31
0.0
  0
LINE
  5
D5
330
1F
100
AcDbEntity
  8
XR$1$TB_711_1
  6
AUSGEZOGEN
 62
     7
440
 33554687
370
    13
100
AcDbLine
 10
7.526483
 20
-0.218515
 30
0.0
 11
7.551483
 21
-0.299515
 31
0.0
  0
LINE
  5
D6
330
1F
100
AcDbEntity
  8
XR$1$TB_711_1
  6
AUSGEZOGEN
 62
     7
440
 33554687
370
    13
100
AcDbLine
 10
7.551483
 20
-0.299515
 30
0.0
 11
7.576483
 21
-0.218515
 31
0.0
  0
LINE
  5
D7
330
1F
100
AcDbEntity
  8
XR$1$TB_711_1
  6
AUSGEZOGEN
 62
     7
440
 33554687
370
    13
100
AcDbLine
 10
7.576483
 20
-0.218515
 30
0.0
 11
7.601483
 21
-0.299515
 31
0.0
  0
LINE
  5
D8
330
1F
100
AcDbEntity
  8
XR$1$TB_711_1
  6
AUSGEZOGEN
 62
     7
440
 33554687
370
    13
100
AcDbLine
 10
7.601483
 20
-0.299515
 30
0.0
 11
7.626483
 21
-0.218515
 31
0.0
  0
LINE
  5
D9
330
1F
100
AcDbEntity
  8
XR$1$TB_711_1
  6
AUSGEZOGEN
 62
     7
440
 33554687
370
    13
100
AcDbLine
 10
7.626483
 20
-0.218515
 30
0.0
 11
7.651483
 21
-0.299515
 31
0.0
  0
LINE
  5
DA
330
1F
100
AcDbEntity
  8
XR$1$TB_711_1
  6
AUSGEZOGEN
 62
     7
440
 33554687
370
    13
100
AcDbLine
 10
7.651483
 20
-0.299515
 30
0.0
 11
7.676483
 21
-0.218515
 31
0.0
  0
LINE
  5
DB
330
1F
100
AcDbEntity
  8
XR$1$TB_711_1
  6
AUSGEZOGEN
 62
     7
440
 33554687
370
    13
100
AcDbLine
 10
7.676483
 20
-0.218515
 30
0.0
 11
7.701483
 21
-0.299515
 31
0.0
  0
LINE
  5
DC
330
1F
100
AcDbEntity
  8
XR$1$TB_711_1
  6
AUSGEZOGEN
 62
     7
440
 33554687
370
    13
100
AcDbLine
 10
7.701483
 20
-0.299515
 30
0.0
 11
7.726483
 21
-0.218515
 31
0.0
  0
LINE
  5
DD
330
1F
100
AcDbEntity
  8
XR$1$TB_711_1
  6
AUSGEZOGEN
 62
     7
440
 33554687
370
    13
100
AcDbLine
 10
7.726483
 20
-0.218515
 30
0.0
 11
7.751483
 21
-0.299515
 31
0.0
  0
LINE
  5
DE
330
1F
100
AcDbEntity
  8
XR$1$TB_711_1
  6
AUSGEZOGEN
 62
     7
440
 33554687
370
    13
100
AcDbLine
 10
7.751483
 20
-0.299515
 30
0.0
 11
7.776483
 21
-0.218515
 31
0.0
  0
LINE
  5
DF
330
1F
100
AcDbEntity
  8
XR$1$TB_711_1
  6
AUSGEZOGEN
 62
     7
440
 33554687
370
    13
100
AcDbLine
 10
7.826483
 20
-0.218515
 30
0.0
 11
7.851483
 21
-0.299515
 31
0.0
  0
LINE
  5
E0
330
1F
100
AcDbEntity
  8
XR$1$TB_711_1
  6
AUSGEZOGEN
 62
     7
440
 33554687
370
    13
100
AcDbLine
 10
7.851483
 20
-0.299515
 30
0.0
 11
7.876483
 21
-0.218515
 31
0.0
  0
LINE
  5
E1
330
1F
100
AcDbEntity
  8
XR$1$TB_711_1
  6
AUSGEZOGEN
 62
     7
440
 33554687
370
    13
100
AcDbLine
 10
7.876483
 20
-0.218515
 30
0.0
 11
7.901483
 21
-0.299515
 31
0.0
  0
LINE
  5
E2
330
1F
100
AcDbEntity
  8
XR$1$TB_711_1
  6
AUSGEZOGEN
 62
     7
440
 33554687
370
    13
100
AcDbLine
 10
7.776483
 20
-0.218515
 30
0.0
 11
7.801483
 21
-0.299515
 31
0.0
  0
LINE
  5
E3
330
1F
100
AcDbEntity
  8
XR$1$TB_711_1
  6
AUSGEZOGEN
 62
     7
440
 33554687
370
    13
100
AcDbLine
 10
7.801483
 20
-0.299515
 30
0.0
 11
7.826483
 21
-0.218515
 31
0.0
  0
LINE
  5
E4
330
1F
100
AcDbEntity
  8
XR$1$TB_711_1
  6
AUSGEZOGEN
 62
     7
440
 33554687
370
    13
100
AcDbLine
 10
7.976483
 20
-0.218515
 30
0.0
 11
8.001483
 21
-0.299515
 31
0.0
  0
LINE
  5
E5
330
1F
100
AcDbEntity
  8
XR$1$TB_711_1
  6
AUSGEZOGEN
 62
     7
440
 33554687
370
    13
100
AcDbLine
 10
8.001483
 20
-0.299515
 30
0.0
 11
8.008981
 21
-0.275222
 31
0.0
  0
LINE
  5
E6
330
1F
100
AcDbEntity
  8
XR$1$TB_711_1
  6
AUSGEZOGEN
 62
     7
440
 33554687
370
    13
100
AcDbLine
 10
7.951483
 20
-0.299515
 30
0.0
 11
7.956719
 21
-0.28255
 31
0.0
  0
LINE
  5
E7
330
1F
100
AcDbEntity
  8
XR$1$TB_711_1
  6
AUSGEZOGEN
 62
     7
440
 33554687
370
    13
100
AcDbLine
 10
7.959219
 20
-0.27445
 30
0.0
 11
7.976483
 21
-0.218515
 31
0.0
  0
LINE
  5
E8
330
1F
100
AcDbEntity
  8
XR$1$TB_711_1
  6
AUSGEZOGEN
 62
     7
440
 33554687
370
    13
100
AcDbLine
 10
7.901483
 20
-0.299515
 30
0.0
 11
7.923705
 21
-0.227515
 31
0.0
  0
LINE
  5
E9
330
1F
100
AcDbEntity
  8
XR$1$TB_711_1
  6
AUSGEZOGEN
 62
     7
440
 33554687
370
    13
100
AcDbLine
 10
7.929261
 20
-0.227515
 30
0.0
 11
7.951483
 21
-0.299515
 31
0.0
  0
LINE
  5
EA
330
1F
100
AcDbEntity
  8
XR$1$TB_711_1
  6
AUSGEZOGEN
 62
     7
440
 33554687
370
    13
100
AcDbLine
 10
7.451483
 20
-0.299515
 30
0.0
 11
7.473705
 21
-0.227515
 31
0.0
  0
LINE
  5
EB
330
1F
100
AcDbEntity
  8
XR$1$TB_711_1
  6
AUSGEZOGEN
 62
     7
440
 33554687
370
    13
100
AcDbLine
 10
7.479261
 20
-0.227515
 30
0.0
 11
7.501483
 21
-0.299515
 31
0.0
  0
LINE
  5
EC
330
1F
100
AcDbEntity
  8
XR$1$TB_711_1
  6
AUSGEZOGEN
 62
     7
440
 33554687
370
    13
100
AcDbLine
 10
7.501483
 20
-0.299515
 30
0.0
 11
7.506697
 21
-0.282622
 31
0.0
  0
LINE
  5
ED
330
1F
100
AcDbEntity
  8
XR$1$TB_711_1
  6
AUSGEZOGEN
 62
     7
440
 33554687
370
    13
100
AcDbLine
 10
7.509197
 20
-0.274522
 30
0.0
 11
7.526483
 21
-0.218515
 31
0.0
  0
LINE
  5
EE
330
1F
100
AcDbEntity
  8
XR$1$TB_711_1
  6
STRICHPUNKT2_S5
 62
     7
440
 33554687
370
    -3
100
AcDbLine
 10
7.426483
 20
-0.403715
 30
0.0
 11
7.426483
 21
0.100485
 31
0.0
  0
LINE
  5
EF
330
1F
100
AcDbEntity
  8
XR$1$TB_711_1
  6
STRICHPUNKT2_S5
 62
     7
440
 33554687
370
    -3
100
AcDbLine
 10
8.180981
 20
-0.426104
 30
0.0
 11
8.180981
 21
0.109596
 31
0.0
  0
LINE
  5
F0
330
1F
100
AcDbEntity
  8
XR$1$TB_711_1
  6
VERDECKT2_S2
 62
     7
440
 33554687
370
    13
100
AcDbLine
 10
7.996219
 20
-0.372259
 30
0.0
 11
7.504219
 21
-0.372259
 31
0.0
  0
LINE
  5
F1
330
1F
100
AcDbEntity
  8
XR$1$TB_711_1
  6
AUSGEZOGEN
 62
     7
440
 33554687
370
    25
100
AcDbLine
 10
7.996219
 20
-0.378259
 30
0.0
 11
7.504219
 21
-0.378259
 31
0.0
  0
LINE
  5
F2
330
1F
100
AcDbEntity
  8
XR$1$TB_711_1
  6
AUSGEZOGEN
 62
     7
440
 33554687
370
    25
100
AcDbLine
 10
7.496219
 20
-0.378259
 30
0.0
 11
7.496219
 21
-0.358259
 31
0.0
  0
LINE
  5
F3
330
1F
100
AcDbEntity
  8
XR$1$TB_711_1
  6
AUSGEZOGEN
 62
     7
440
 33554687
370
    25
100
AcDbLine
 10
7.504219
 20
-0.378259
 30
0.0
 11
7.504219
 21
-0.358259
 31
0.0
  0
LINE
  5
F4
330
1F
100
AcDbEntity
  8
XR$1$TB_711_1
  6
AUSGEZOGEN
 62
     7
440
 33554687
370
    25
100
AcDbLine
 10
7.996219
 20
-0.358259
 30
0.0
 11
7.504219
 21
-0.358259
 31
0.0
  0
LINE
  5
F5
330
1F
100
AcDbEntity
  8
XR$1$TB_711_1
  6
VERDECKT2_S2
 62
     7
440
 33554687
370
    13
100
AcDbLine
 10
7.996219
 20
-0.364265
 30
0.0
 11
7.504219
 21
-0.364265
 31
0.0
  0
LINE
  5
F6
330
1F
100
AcDbEntity
  8
XR$1$TB_711_1
  6
AUSGEZOGEN
 62
     7
440
 33554687
370
    25
100
AcDbLine
 10
7.426483
 20
-0.378259
 30
0.0
 11
7.496219
 21
-0.378259
 31
0.0
  0
LINE
  5
F7
330
1F
100
AcDbEntity
  8
XR$1$TB_711_1
  6
VERDECKT2_S2
 62
     7
440
 33554687
370
    13
100
AcDbLine
 10
7.426483
 20
-0.372259
 30
0.0
 11
7.496219
 21
-0.372259
 31
0.0
  0
LINE
  5
F8
330
1F
100
AcDbEntity
  8
XR$1$TB_711_1
  6
VERDECKT2_S2
 62
     7
440
 33554687
370
    13
100
AcDbLine
 10
7.426483
 20
-0.364265
 30
0.0
 11
7.496219
 21
-0.364265
 31
0.0
  0
LINE
  5
F9
330
1F
100
AcDbEntity
  8
XR$1$TB_711_1
  6
AUSGEZOGEN
 62
     7
440
 33554687
370
    25
100
AcDbLine
 10
7.496219
 20
-0.358259
 30
0.0
 11
7.426483
 21
-0.358259
 31
0.0
  0
LINE
  5
FA
330
1F
100
AcDbEntity
  8
XR$1$TB_711_1
  6
AUSGEZOGEN
 62
     7
440
 33554687
370
    -3
100
AcDbLine
 10
7.455697
 20
-0.349514
 30
0.0
 11
7.504697
 21
-0.349514
 31
0.0
  0
LINE
  5
FB
330
1F
100
AcDbEntity
  8
XR$1$TB_711_1
  6
AUSGEZOGEN
 62
     7
440
 33554687
370
    -3
100
AcDbLine
 10
7.506697
 20
-0.349514
 30
0.0
 11
7.555697
 21
-0.349514
 31
0.0
  0
LINE
  5
FC
330
1F
100
AcDbEntity
  8
XR$1$TB_711_1
  6
AUSGEZOGEN
 62
     7
440
 33554687
370
    -3
100
AcDbLine
 10
7.455697
 20
-0.351514
 30
0.0
 11
7.455697
 21
-0.349514
 31
0.0
  0
LINE
  5
FD
330
1F
100
AcDbEntity
  8
XR$1$TB_711_1
  6
AUSGEZOGEN
 62
     7
440
 33554687
370
    -3
100
AcDbLine
 10
7.555697
 20
-0.351514
 30
0.0
 11
7.555697
 21
-0.349514
 31
0.0
  0
LINE
  5
FE
330
1F
100
AcDbEntity
  8
XR$1$TB_711_1
  6
AUSGEZOGEN
 62
     7
440
 33554687
370
    -3
100
AcDbLine
 10
7.455697
 20
-0.351514
 30
0.0
 11
7.555697
 21
-0.351514
 31
0.0
  0
LINE
  5
FF
330
1F
100
AcDbEntity
  8
XR$1$TB_711_1
  6
AUSGEZOGEN
 62
     7
440
 33554687
370
    -3
100
AcDbLine
 10
7.489219
 20
-0.355515
 30
0.0
 11
7.493662
 21
-0.355515
 31
0.0
  0
LINE
  5
100
330
1F
100
AcDbEntity
  8
XR$1$TB_711_1
  6
AUSGEZOGEN
 62
     7
440
 33554687
370
    -3
100
AcDbLine
 10
7.506776
 20
-0.355515
 30
0.0
 11
7.511219
 21
-0.355515
 31
0.0
  0
LINE
  5
101
330
1F
100
AcDbEntity
  8
XR$1$TB_711_1
  6
AUSGEZOGEN
 62
     7
440
 33554687
370
    -3
100
AcDbLine
 10
7.496719
 20
-0.355515
 30
0.0
 11
7.493662
 21
-0.355515
 31
0.0
  0
LINE
  5
102
330
1F
100
AcDbEntity
  8
XR$1$TB_711_1
  6
AUSGEZOGEN
 62
     7
440
 33554687
370
    -3
100
AcDbLine
 10
7.506776
 20
-0.355515
 30
0.0
 11
7.503719
 21
-0.355515
 31
0.0
  0
ARC
  5
103
330
1F
100
AcDbEntity
  8
XR$1$TB_711_1
  6
AUSGEZOGEN
 62
     7
440
 33554687
370
    -3
100
AcDbCircle
 10
7.493662
 20
-0.354015
 30
0.0
 40
0.0015
100
AcDbArc
 50
210.0
 51
270.0
  0
ARC
  5
104
330
1F
100
AcDbEntity
  8
XR$1$TB_711_1
  6
AUSGEZOGEN
 62
     7
440
 33554687
370
    -3
100
AcDbCircle
 10
7.506776
 20
-0.354015
 30
0.0
 40
0.0015
100
AcDbArc
 50
270.0
 51
330.0
  0
LINE
  5
105
330
1F
100
AcDbEntity
  8
XR$1$TB_711_1
  6
AUSGEZOGEN
 62
     7
440
 33554687
370
    -3
100
AcDbLine
 10
7.508219
 20
-0.354515
 30
0.0
 11
7.508075
 21
-0.354765
 31
0.0
  0
LINE
  5
106
330
1F
100
AcDbEntity
  8
XR$1$TB_711_1
  6
AUSGEZOGEN
 62
     7
440
 33554687
370
    -3
100
AcDbLine
 10
7.492219
 20
-0.354515
 30
0.0
 11
7.492363
 21
-0.354765
 31
0.0
  0
LINE
  5
107
330
1F
100
AcDbEntity
  8
XR$1$TB_711_1
  6
AUSGEZOGEN
 62
     7
440
 33554687
370
    -3
100
AcDbLine
 10
7.550219
 20
-0.354515
 30
0.0
 11
7.548219
 21
-0.354515
 31
0.0
  0
LINE
  5
108
330
1F
100
AcDbEntity
  8
XR$1$TB_711_1
  6
AUSGEZOGEN
 62
     7
440
 33554687
370
    -3
100
AcDbLine
 10
7.510219
 20
-0.354515
 30
0.0
 11
7.508219
 21
-0.354515
 31
0.0
  0
LINE
  5
109
330
1F
100
AcDbEntity
  8
XR$1$TB_711_1
  6
AUSGEZOGEN
 62
     7
440
 33554687
370
    -3
100
AcDbLine
 10
7.492219
 20
-0.354515
 30
0.0
 11
7.490219
 21
-0.354515
 31
0.0
  0
LINE
  5
10A
330
1F
100
AcDbEntity
  8
XR$1$TB_711_1
  6
AUSGEZOGEN
 62
     7
440
 33554687
370
    -3
100
AcDbLine
 10
7.452219
 20
-0.354515
 30
0.0
 11
7.450219
 21
-0.354515
 31
0.0
  0
LINE
  5
10B
330
1F
100
AcDbEntity
  8
XR$1$TB_711_1
  6
AUSGEZOGEN
 62
     7
440
 33554687
370
    -3
100
AcDbLine
 10
7.550219
 20
-0.354515
 30
0.0
 11
7.550219
 21
-0.351515
 31
0.0
  0
LINE
  5
10C
330
1F
100
AcDbEntity
  8
XR$1$TB_711_1
  6
AUSGEZOGEN
 62
     7
440
 33554687
370
    -3
100
AcDbLine
 10
7.450219
 20
-0.351515
 30
0.0
 11
7.450219
 21
-0.354515
 31
0.0
  0
LINE
  5
10D
330
1F
100
AcDbEntity
  8
XR$1$TB_711_1
  6
AUSGEZOGEN
 62
     7
440
 33554687
370
    -3
100
AcDbLine
 10
7.508219
 20
-0.351515
 30
0.0
 11
7.508219
 21
-0.354515
 31
0.0
  0
LINE
  5
10E
330
1F
100
AcDbEntity
  8
XR$1$TB_711_1
  6
AUSGEZOGEN
 62
     7
440
 33554687
370
    -3
100
AcDbLine
 10
7.492219
 20
-0.354515
 30
0.0
 11
7.492219
 21
-0.351515
 31
0.0
  0
LINE
  5
10F
330
1F
100
AcDbEntity
  8
XR$1$TB_711_1
  6
AUSGEZOGEN
 62
     7
440
 33554687
370
    -3
100
AcDbLine
 10
7.510219
 20
-0.354515
 30
0.0
 11
7.548219
 21
-0.354515
 31
0.0
  0
LINE
  5
110
330
1F
100
AcDbEntity
  8
XR$1$TB_711_1
  6
AUSGEZOGEN
 62
     7
440
 33554687
370
    -3
100
AcDbLine
 10
7.503729
 20
-0.354515
 30
0.0
 11
7.507219
 21
-0.354515
 31
0.0
  0
LINE
  5
111
330
1F
100
AcDbEntity
  8
XR$1$TB_711_1
  6
AUSGEZOGEN
 62
     7
440
 33554687
370
    -3
100
AcDbLine
 10
7.493219
 20
-0.354515
 30
0.0
 11
7.496709
 21
-0.354515
 31
0.0
  0
LINE
  5
112
330
1F
100
AcDbEntity
  8
XR$1$TB_711_1
  6
AUSGEZOGEN
 62
     7
440
 33554687
370
    -3
100
AcDbLine
 10
7.452219
 20
-0.354515
 30
0.0
 11
7.490219
 21
-0.354515
 31
0.0
  0
LINE
  5
113
330
1F
100
AcDbEntity
  8
XR$1$TB_711_1
  6
AUSGEZOGEN
 62
     7
440
 33554687
370
    -3
100
AcDbLine
 10
7.507219
 20
-0.354515
 30
0.0
 11
7.508219
 21
-0.354515
 31
0.0
  0
LINE
  5
114
330
1F
100
AcDbEntity
  8
XR$1$TB_711_1
  6
AUSGEZOGEN
 62
     7
440
 33554687
370
    -3
100
AcDbLine
 10
7.492219
 20
-0.354515
 30
0.0
 11
7.493219
 21
-0.354515
 31
0.0
  0
LINE
  5
115
330
1F
100
AcDbEntity
  8
XR$1$TB_711_1
  6
AUSGEZOGEN
 62
     7
440
 33554687
370
    -3
100
AcDbLine
 10
7.503729
 20
-0.354515
 30
0.0
 11
7.503719
 21
-0.354515
 31
0.0
  0
LINE
  5
116
330
1F
100
AcDbEntity
  8
XR$1$TB_711_1
  6
AUSGEZOGEN
 62
     7
440
 33554687
370
    -3
100
AcDbLine
 10
7.496719
 20
-0.354515
 30
0.0
 11
7.496709
 21
-0.354515
 31
0.0
  0
LINE
  5
117
330
1F
100
AcDbEntity
  8
XR$1$TB_711_1
  6
AUSGEZOGEN
 62
     7
440
 33554687
370
    -3
100
AcDbLine
 10
7.496709
 20
-0.351515
 30
0.0
 11
7.496719
 21
-0.351515
 31
0.0
  0
LINE
  5
118
330
1F
100
AcDbEntity
  8
XR$1$TB_711_1
  6
AUSGEZOGEN
 62
     7
440
 33554687
370
    -3
100
AcDbLine
 10
7.503719
 20
-0.351515
 30
0.0
 11
7.503729
 21
-0.351515
 31
0.0
  0
LINE
  5
119
330
1F
100
AcDbEntity
  8
XR$1$TB_711_1
  6
AUSGEZOGEN
 62
     7
440
 33554687
370
    -3
100
AcDbLine
 10
7.496719
 20
-0.351515
 30
0.0
 11
7.496719
 21
-0.357515
 31
0.0
  0
LINE
  5
11A
330
1F
100
AcDbEntity
  8
XR$1$TB_711_1
  6
AUSGEZOGEN
 62
     7
440
 33554687
370
    -3
100
AcDbLine
 10
7.503719
 20
-0.351515
 30
0.0
 11
7.503719
 21
-0.357515
 31
0.0
  0
ARC
  5
11B
330
1F
100
AcDbEntity
  8
XR$1$TB_711_1
  6
AUSGEZOGEN
 62
     7
440
 33554687
370
    -3
100
AcDbCircle
 10
7.500219
 20
-0.361265
 30
0.0
 40
0.0015
100
AcDbArc
 50
0.0
 51
180.0
  0
LINE
  5
11C
330
1F
100
AcDbEntity
  8
XR$1$TB_711_1
  6
AUSGEZOGEN
 62
     7
440
 33554687
370
    -3
100
AcDbLine
 10
7.501719
 20
-0.361265
 30
0.0
 11
7.501719
 21
-0.367265
 31
0.0
  0
LINE
  5
11D
330
1F
100
AcDbEntity
  8
XR$1$TB_711_1
  6
AUSGEZOGEN
 62
     7
440
 33554687
370
    -3
100
AcDbLine
 10
7.498719
 20
-0.367265
 30
0.0
 11
7.498719
 21
-0.361265
 31
0.0
  0
ARC
  5
11E
330
1F
100
AcDbEntity
  8
XR$1$TB_711_1
  6
AUSGEZOGEN
 62
     7
440
 33554687
370
    -3
100
AcDbCircle
 10
7.500219
 20
-0.367265
 30
0.0
 40
0.0015
100
AcDbArc
 50
180.0
 51
0.0
  0
LINE
  5
11F
330
1F
100
AcDbEntity
  8
XR$1$TB_711_1
  6
AUSGEZOGEN
 62
     7
440
 33554687
370
    -3
100
AcDbLine
 10
7.503719
 20
-0.364765
 30
0.0
 11
7.503719
 21
-0.357515
 31
0.0
  0
ARC
  5
120
330
1F
100
AcDbEntity
  8
XR$1$TB_711_1
  6
AUSGEZOGEN
 62
     7
440
 33554687
370
    -3
100
AcDbCircle
 10
7.504219
 20
-0.364765
 30
0.0
 40
0.0005
100
AcDbArc
 50
180.0
 51
270.0
  0
LINE
  5
121
330
1F
100
AcDbEntity
  8
XR$1$TB_711_1
  6
AUSGEZOGEN
 62
     7
440
 33554687
370
    -3
100
AcDbLine
 10
7.500219
 20
-0.361265
 30
0.0
 11
7.500219
 21
-0.367123
 31
0.0
  0
ARC
  5
122
330
1F
100
AcDbEntity
  8
XR$1$TB_711_1
  6
AUSGEZOGEN
 62
     7
440
 33554687
370
    -3
100
AcDbCircle
 10
7.496219
 20
-0.364765
 30
0.0
 40
0.0005
100
AcDbArc
 50
270.0
 51
0.0
  0
LINE
  5
123
330
1F
100
AcDbEntity
  8
XR$1$TB_711_1
  6
AUSGEZOGEN
 62
     7
440
 33554687
370
    -3
100
AcDbLine
 10
7.496719
 20
-0.357515
 30
0.0
 11
7.496719
 21
-0.364765
 31
0.0
  0
ARC
  5
124
330
1F
100
AcDbEntity
  8
XR$1$TB_711_1
  6
AUSGEZOGEN
 62
     7
440
 33554687
370
    -3
100
AcDbCircle
 10
7.474378
 20
-0.352261
 30
0.0
 40
0.006
100
AcDbArc
 50
273.846239
 51
302.843396
  0
ARC
  5
125
330
1F
100
AcDbEntity
  8
XR$1$TB_711_1
  6
AUSGEZOGEN
 62
     7
440
 33554687
370
    -3
100
AcDbCircle
 10
7.474378
 20
-0.352261
 30
0.0
 40
0.006
100
AcDbArc
 50
257.843396
 51
273.846239
  0
ARC
  5
126
330
1F
100
AcDbEntity
  8
XR$1$TB_711_1
  6
AUSGEZOGEN
 62
     7
440
 33554687
370
    -3
100
AcDbCircle
 10
7.474378
 20
-0.352261
 30
0.0
 40
0.0029999999999999
100
AcDbArc
 50
257.843396
 51
273.846239
  0
ARC
  5
127
330
1F
100
AcDbEntity
  8
XR$1$TB_711_1
  6
AUSGEZOGEN
 62
     7
440
 33554687
370
    -3
100
AcDbCircle
 10
7.474378
 20
-0.352261
 30
0.0
 40
0.003
100
AcDbArc
 50
273.846239
 51
302.843396
  0
LINE
  5
128
330
1F
100
AcDbEntity
  8
XR$1$TB_711_1
  6
AUSGEZOGEN
 62
     7
440
 33554687
370
    -3
100
AcDbLine
 10
7.473114
 20
-0.358126
 30
0.0
 11
7.45663
 21
-0.354575
 31
0.0
  0
ARC
  5
129
330
1F
100
AcDbEntity
  8
XR$1$TB_711_1
  6
AUSGEZOGEN
 62
     7
440
 33554687
370
    -3
100
AcDbCircle
 10
7.455999
 20
-0.357508
 30
0.0
 40
0.003
100
AcDbArc
 50
77.843396
 51
93.846239
  0
LINE
  5
12A
330
1F
100
AcDbEntity
  8
XR$1$TB_711_1
  6
AUSGEZOGEN
 62
     7
440
 33554687
370
    -3
100
AcDbLine
 10
7.470596
 20
-0.354515
 30
0.0
 11
7.473746
 21
-0.355193
 31
0.0
  0
LINE
  5
12B
330
1F
100
AcDbEntity
  8
XR$1$TB_711_1
  6
AUSGEZOGEN
 62
     7
440
 33554687
370
    -3
100
AcDbLine
 10
7.476005
 20
-0.354781
 30
0.0
 11
7.476417
 21
-0.354515
 31
0.0
  0
LINE
  5
12C
330
1F
100
AcDbEntity
  8
XR$1$TB_711_1
  6
AUSGEZOGEN
 62
     7
440
 33554687
370
    -3
100
AcDbLine
 10
7.481949
 20
-0.354515
 30
0.0
 11
7.480585
 21
-0.355395
 31
0.0
  0
LINE
  5
12D
330
1F
100
AcDbEntity
  8
XR$1$TB_711_1
  6
AUSGEZOGEN
 62
     7
440
 33554687
370
    -3
100
AcDbLine
 10
7.480585
 20
-0.355395
 30
0.0
 11
7.477632
 21
-0.357302
 31
0.0
  0
LINE
  5
12E
330
1F
100
AcDbEntity
  8
XR$1$TB_711_1
  6
AUSGEZOGEN
 62
     7
440
 33554687
370
    -3
100
AcDbLine
 10
7.4804
 20
-0.355515
 30
0.0
 11
7.489219
 21
-0.355515
 31
0.0
  0
LINE
  5
12F
330
1F
100
AcDbEntity
  8
XR$1$TB_711_1
  6
AUSGEZOGEN
 62
     7
440
 33554687
370
    13
100
AcDbLine
 10
7.500224
 20
-0.351515
 30
0.0
 11
7.500224
 21
-0.340993
 31
0.0
  0
ARC
  5
130
330
1F
100
AcDbEntity
  8
XR$1$TB_711_1
  6
AUSGEZOGEN
 62
     7
440
 33554687
370
    -3
100
AcDbCircle
 10
7.52607
 20
-0.352261
 30
0.0
 40
0.006
100
AcDbArc
 50
237.156604
 51
266.153761
  0
ARC
  5
131
330
1F
100
AcDbEntity
  8
XR$1$TB_711_1
  6
AUSGEZOGEN
 62
     7
440
 33554687
370
    -3
100
AcDbCircle
 10
7.52607
 20
-0.352261
 30
0.0
 40
0.006
100
AcDbArc
 50
266.153761
 51
282.156604
  0
ARC
  5
132
330
1F
100
AcDbEntity
  8
XR$1$TB_711_1
  6
AUSGEZOGEN
 62
     7
440
 33554687
370
    -3
100
AcDbCircle
 10
7.52607
 20
-0.352261
 30
0.0
 40
0.0029999999999999
100
AcDbArc
 50
266.153761
 51
282.156604
  0
ARC
  5
133
330
1F
100
AcDbEntity
  8
XR$1$TB_711_1
  6
AUSGEZOGEN
 62
     7
440
 33554687
370
    -3
100
AcDbCircle
 10
7.52607
 20
-0.352261
 30
0.0
 40
0.003
100
AcDbArc
 50
237.156604
 51
266.153761
  0
LINE
  5
134
330
1F
100
AcDbEntity
  8
XR$1$TB_711_1
  6
AUSGEZOGEN
 62
     7
440
 33554687
370
    -3
100
AcDbLine
 10
7.527334
 20
-0.358126
 30
0.0
 11
7.543818
 21
-0.354575
 31
0.0
  0
ARC
  5
135
330
1F
100
AcDbEntity
  8
XR$1$TB_711_1
  6
AUSGEZOGEN
 62
     7
440
 33554687
370
    -3
100
AcDbCircle
 10
7.54445
 20
-0.357508
 30
0.0
 40
0.003
100
AcDbArc
 50
86.153761
 51
102.156604
  0
LINE
  5
136
330
1F
100
AcDbEntity
  8
XR$1$TB_711_1
  6
AUSGEZOGEN
 62
     7
440
 33554687
370
    -3
100
AcDbLine
 10
7.529853
 20
-0.354515
 30
0.0
 11
7.526702
 21
-0.355193
 31
0.0
  0
LINE
  5
137
330
1F
100
AcDbEntity
  8
XR$1$TB_711_1
  6
AUSGEZOGEN
 62
     7
440
 33554687
370
    -3
100
AcDbLine
 10
7.524443
 20
-0.354781
 30
0.0
 11
7.524031
 21
-0.354515
 31
0.0
  0
LINE
  5
138
330
1F
100
AcDbEntity
  8
XR$1$TB_711_1
  6
AUSGEZOGEN
 62
     7
440
 33554687
370
    -3
100
AcDbLine
 10
7.518499
 20
-0.354515
 30
0.0
 11
7.519864
 21
-0.355395
 31
0.0
  0
LINE
  5
139
330
1F
100
AcDbEntity
  8
XR$1$TB_711_1
  6
AUSGEZOGEN
 62
     7
440
 33554687
370
    -3
100
AcDbLine
 10
7.519864
 20
-0.355395
 30
0.0
 11
7.522816
 21
-0.357302
 31
0.0
  0
LINE
  5
13A
330
1F
100
AcDbEntity
  8
XR$1$TB_711_1
  6
AUSGEZOGEN
 62
     7
440
 33554687
370
    -3
100
AcDbLine
 10
7.511219
 20
-0.355515
 30
0.0
 11
7.520048
 21
-0.355515
 31
0.0
  0
LINE
  5
13B
330
1F
100
AcDbEntity
  8
XR$1$TB_711_1
  6
AUSGEZOGEN
 62
     7
440
 33554687
370
    -3
100
AcDbLine
 10
7.496219
 20
-0.371765
 30
0.0
 11
7.504219
 21
-0.371765
 31
0.0
  0
LINE
  5
13C
330
1F
100
AcDbEntity
  8
XR$1$TB_711_1
  6
VERDECKT2_S2
 62
     7
440
 33554687
370
    13
100
AcDbLine
 10
7.491613
 20
-0.365265
 30
0.0
 11
7.496219
 21
-0.365265
 31
0.0
  0
LINE
  5
13D
330
1F
100
AcDbEntity
  8
XR$1$TB_711_1
  6
VERDECKT2_S2
 62
     7
440
 33554687
370
    13
100
AcDbLine
 10
7.489469
 20
-0.371765
 30
0.0
 11
7.496219
 21
-0.371765
 31
0.0
  0
LINE
  5
13E
330
1F
100
AcDbEntity
  8
XR$1$TB_711_1
  6
VERDECKT2_S2
 62
     7
440
 33554687
370
    13
100
AcDbLine
 10
7.504219
 20
-0.371765
 30
0.0
 11
7.510969
 21
-0.371765
 31
0.0
  0
LINE
  5
13F
330
1F
100
AcDbEntity
  8
XR$1$TB_711_1
  6
VERDECKT2_S2
 62
     7
440
 33554687
370
    13
100
AcDbLine
 10
7.508825
 20
-0.365265
 30
0.0
 11
7.504219
 21
-0.365265
 31
0.0
  0
ARC
  5
140
330
1F
100
AcDbEntity
  8
XR$1$TB_711_1
  6
VERDECKT2_S2
 62
     7
440
 33554687
370
    13
100
AcDbCircle
 10
7.489469
 20
-0.369765
 30
0.0
 40
0.002
100
AcDbArc
 50
180.0
 51
270.0
  0
LINE
  5
141
330
1F
100
AcDbEntity
  8
XR$1$TB_711_1
  6
VERDECKT2_S2
 62
     7
440
 33554687
370
    13
100
AcDbLine
 10
7.487469
 20
-0.365265
 30
0.0
 11
7.487469
 21
-0.369765
 31
0.0
  0
ARC
  5
142
330
1F
100
AcDbEntity
  8
XR$1$TB_711_1
  6
VERDECKT2_S2
 62
     7
440
 33554687
370
    13
100
AcDbCircle
 10
7.488469
 20
-0.365265
 30
0.0
 40
0.001
100
AcDbArc
 50
90.0
 51
180.0
  0
LINE
  5
143
330
1F
100
AcDbEntity
  8
XR$1$TB_711_1
  6
VERDECKT2_S2
 62
     7
440
 33554687
370
    13
100
AcDbLine
 10
7.491431
 20
-0.36523
 30
0.0
 11
7.489057
 21
-0.364299
 31
0.0
  0
LINE
  5
144
330
1F
100
AcDbEntity
  8
XR$1$TB_711_1
  6
VERDECKT2_S2
 62
     7
440
 33554687
370
    13
100
AcDbLine
 10
7.488875
 20
-0.364265
 30
0.0
 11
7.488469
 21
-0.364265
 31
0.0
  0
ARC
  5
145
330
1F
100
AcDbEntity
  8
XR$1$TB_711_1
  6
VERDECKT2_S2
 62
     7
440
 33554687
370
    13
100
AcDbCircle
 10
7.488875
 20
-0.364765
 30
0.0
 40
0.0004999999999999
100
AcDbArc
 50
68.583286
 51
90.0
  0
ARC
  5
146
330
1F
100
AcDbEntity
  8
XR$1$TB_711_1
  6
VERDECKT2_S2
 62
     7
440
 33554687
370
    13
100
AcDbCircle
 10
7.491613
 20
-0.364765
 30
0.0
 40
0.0004999999999999
100
AcDbArc
 50
248.583286
 51
270.0
  0
ARC
  5
147
330
1F
100
AcDbEntity
  8
XR$1$TB_711_1
  6
VERDECKT2_S2
 62
     7
440
 33554687
370
    13
100
AcDbCircle
 10
7.510969
 20
-0.369765
 30
0.0
 40
0.002
100
AcDbArc
 50
270.0
 51
0.0
  0
LINE
  5
148
330
1F
100
AcDbEntity
  8
XR$1$TB_711_1
  6
VERDECKT2_S2
 62
     7
440
 33554687
370
    13
100
AcDbLine
 10
7.512969
 20
-0.369765
 30
0.0
 11
7.512969
 21
-0.365265
 31
0.0
  0
ARC
  5
149
330
1F
100
AcDbEntity
  8
XR$1$TB_711_1
  6
VERDECKT2_S2
 62
     7
440
 33554687
370
    13
100
AcDbCircle
 10
7.511969
 20
-0.365265
 30
0.0
 40
0.001
100
AcDbArc
 50
0.0
 51
90.0
  0
LINE
  5
14A
330
1F
100
AcDbEntity
  8
XR$1$TB_711_1
  6
VERDECKT2_S2
 62
     7
440
 33554687
370
    13
100
AcDbLine
 10
7.511969
 20
-0.364265
 30
0.0
 11
7.511564
 21
-0.364265
 31
0.0
  0
LINE
  5
14B
330
1F
100
AcDbEntity
  8
XR$1$TB_711_1
  6
VERDECKT2_S2
 62
     7
440
 33554687
370
    13
100
AcDbLine
 10
7.511381
 20
-0.364299
 30
0.0
 11
7.509008
 21
-0.36523
 31
0.0
  0
ARC
  5
14C
330
1F
100
AcDbEntity
  8
XR$1$TB_711_1
  6
VERDECKT2_S2
 62
     7
440
 33554687
370
    13
100
AcDbCircle
 10
7.511564
 20
-0.364765
 30
0.0
 40
0.0004999999999999
100
AcDbArc
 50
90.0
 51
111.416714
  0
ARC
  5
14D
330
1F
100
AcDbEntity
  8
XR$1$TB_711_1
  6
VERDECKT2_S2
 62
     7
440
 33554687
370
    13
100
AcDbCircle
 10
7.508825
 20
-0.364765
 30
0.0
 40
0.0004999999999999
100
AcDbArc
 50
270.0
 51
291.416714
  0
LINE
  5
14E
330
1F
100
AcDbEntity
  8
XR$1$TB_711_1
  6
AUSGEZOGEN
 62
     7
440
 33554687
370
    -3
100
AcDbLine
 10
7.450219
 20
-0.351515
 30
0.0
 11
7.550219
 21
-0.351515
 31
0.0
  0
LINE
  5
14F
330
1F
100
AcDbEntity
  8
XR$1$TB_711_1
  6
AUSGEZOGEN
 62
     7
440
 33554687
370
    -3
100
AcDbLine
 10
8.001219
 20
-0.351515
 30
0.0
 11
8.003219
 21
-0.351515
 31
0.0
  0
LINE
  5
150
330
1F
100
AcDbEntity
  8
XR$1$TB_711_1
  6
AUSGEZOGEN
 62
     7
440
 33554687
370
    -3
100
AcDbLine
 10
8.003219
 20
-0.354515
 30
0.0
 11
8.001219
 21
-0.354515
 31
0.0
  0
LINE
  5
151
330
1F
100
AcDbEntity
  8
XR$1$TB_711_1
  6
AUSGEZOGEN
 62
     7
440
 33554687
370
    -3
100
AcDbLine
 10
8.003219
 20
-0.354515
 30
0.0
 11
8.003219
 21
-0.351515
 31
0.0
  0
LINE
  5
152
330
1F
100
AcDbEntity
  8
XR$1$TB_711_1
  6
AUSGEZOGEN
 62
     7
440
 33554687
370
    -3
100
AcDbLine
 10
7.949719
 20
-0.351515
 30
0.0
 11
7.951719
 21
-0.351515
 31
0.0
  0
LINE
  5
153
330
1F
100
AcDbEntity
  8
XR$1$TB_711_1
  6
AUSGEZOGEN
 62
     7
440
 33554687
370
    -3
100
AcDbLine
 10
7.951719
 20
-0.354515
 30
0.0
 11
7.949719
 21
-0.354515
 31
0.0
  0
LINE
  5
154
330
1F
100
AcDbEntity
  8
XR$1$TB_711_1
  6
AUSGEZOGEN
 62
     7
440
 33554687
370
    -3
100
AcDbLine
 10
7.949719
 20
-0.351515
 30
0.0
 11
7.949719
 21
-0.354515
 31
0.0
  0
LINE
  5
155
330
1F
100
AcDbEntity
  8
XR$1$TB_711_1
  6
AUSGEZOGEN
 62
     7
440
 33554687
370
    -3
100
AcDbLine
 10
8.001219
 20
-0.351515
 30
0.0
 11
7.951719
 21
-0.351515
 31
0.0
  0
LINE
  5
156
330
1F
100
AcDbEntity
  8
XR$1$TB_711_1
  6
AUSGEZOGEN
 62
     7
440
 33554687
370
    -3
100
AcDbLine
 10
7.951719
 20
-0.354515
 30
0.0
 11
8.001219
 21
-0.354515
 31
0.0
  0
ARC
  5
157
330
1F
100
AcDbEntity
  8
XR$1$TB_711_1
  6
AUSGEZOGEN
 62
     7
440
 33554687
370
    -3
100
AcDbCircle
 10
7.993162
 20
-0.354015
 30
0.0
 40
0.0015
100
AcDbArc
 50
210.0
 51
270.0
  0
LINE
  5
158
330
1F
100
AcDbEntity
  8
XR$1$TB_711_1
  6
AUSGEZOGEN
 62
     7
440
 33554687
370
    -3
100
AcDbLine
 10
7.999719
 20
-0.355515
 30
0.0
 11
7.993162
 21
-0.355515
 31
0.0
  0
LINE
  5
159
330
1F
100
AcDbEntity
  8
XR$1$TB_711_1
  6
AUSGEZOGEN
 62
     7
440
 33554687
370
    -3
100
AcDbLine
 10
7.999776
 20
-0.355515
 30
0.0
 11
7.999719
 21
-0.355515
 31
0.0
  0
ARC
  5
15A
330
1F
100
AcDbEntity
  8
XR$1$TB_711_1
  6
AUSGEZOGEN
 62
     7
440
 33554687
370
    -3
100
AcDbCircle
 10
7.999776
 20
-0.354015
 30
0.0
 40
0.0015
100
AcDbArc
 50
270.0
 51
330.0
  0
LINE
  5
15B
330
1F
100
AcDbEntity
  8
XR$1$TB_711_1
  6
AUSGEZOGEN
 62
     7
440
 33554687
370
    -3
100
AcDbLine
 10
7.991719
 20
-0.354515
 30
0.0
 11
7.991863
 21
-0.354765
 31
0.0
  0
LINE
  5
15C
330
1F
100
AcDbEntity
  8
XR$1$TB_711_1
  6
AUSGEZOGEN
 62
     7
440
 33554687
370
    -3
100
AcDbLine
 10
8.001075
 20
-0.354765
 30
0.0
 11
8.001219
 21
-0.354515
 31
0.0
  0
LINE
  5
15D
330
1F
100
AcDbEntity
  8
XR$1$TB_711_1
  6
AUSGEZOGEN
 62
     7
440
 33554687
370
    -3
100
AcDbLine
 10
8.003219
 20
-0.357515
 30
0.0
 11
8.003219
 21
-0.354515
 31
0.0
  0
LINE
  5
15E
330
1F
100
AcDbEntity
  8
XR$1$TB_711_1
  6
AUSGEZOGEN
 62
     7
440
 33554687
370
    -3
100
AcDbLine
 10
7.998219
 20
-0.367265
 30
0.0
 11
7.998219
 21
-0.362265
 31
0.0
  0
ARC
  5
15F
330
1F
100
AcDbEntity
  8
XR$1$TB_711_1
  6
AUSGEZOGEN
 62
     7
440
 33554687
370
    -3
100
AcDbCircle
 10
7.999719
 20
-0.362265
 30
0.0
 40
0.0015
100
AcDbArc
 50
0.0
 51
180.0
  0
LINE
  5
160
330
1F
100
AcDbEntity
  8
XR$1$TB_711_1
  6
AUSGEZOGEN
 62
     7
440
 33554687
370
    -3
100
AcDbLine
 10
7.980085
 20
-0.35539
 30
0.0
 11
7.977134
 21
-0.357298
 31
0.0
  0
ARC
  5
161
330
1F
100
AcDbEntity
  8
XR$1$TB_711_1
  6
AUSGEZOGEN
 62
     7
440
 33554687
370
    -3
100
AcDbCircle
 10
7.973877
 20
-0.352259
 30
0.0
 40
0.003
100
AcDbArc
 50
257.877543
 51
273.880386
  0
ARC
  5
162
330
1F
100
AcDbEntity
  8
XR$1$TB_711_1
  6
AUSGEZOGEN
 62
     7
440
 33554687
370
    -3
100
AcDbCircle
 10
7.973877
 20
-0.352259
 30
0.0
 40
0.003
100
AcDbArc
 50
273.880386
 51
302.877543
  0
ARC
  5
163
330
1F
100
AcDbEntity
  8
XR$1$TB_711_1
  6
AUSGEZOGEN
 62
     7
440
 33554687
370
    -3
100
AcDbCircle
 10
7.973877
 20
-0.352259
 30
0.0
 40
0.006
100
AcDbArc
 50
273.880386
 51
302.877543
  0
ARC
  5
164
330
1F
100
AcDbEntity
  8
XR$1$TB_711_1
  6
AUSGEZOGEN
 62
     7
440
 33554687
370
    -3
100
AcDbCircle
 10
7.973877
 20
-0.352259
 30
0.0
 40
0.0059999999999999
100
AcDbArc
 50
257.877543
 51
273.880386
  0
LINE
  5
165
330
1F
100
AcDbEntity
  8
XR$1$TB_711_1
  6
AUSGEZOGEN
 62
     7
440
 33554687
370
    -3
100
AcDbLine
 10
7.972617
 20
-0.358125
 30
0.0
 11
7.956131
 21
-0.354584
 31
0.0
  0
ARC
  5
166
330
1F
100
AcDbEntity
  8
XR$1$TB_711_1
  6
AUSGEZOGEN
 62
     7
440
 33554687
370
    -3
100
AcDbCircle
 10
7.955501
 20
-0.357517
 30
0.0
 40
0.0030000000000001
100
AcDbArc
 50
77.877543
 51
93.880386
  0
LINE
  5
167
330
1F
100
AcDbEntity
  8
XR$1$TB_711_1
  6
AUSGEZOGEN
 62
     7
440
 33554687
370
    -3
100
AcDbLine
 10
7.970095
 20
-0.354515
 30
0.0
 11
7.973247
 21
-0.355192
 31
0.0
  0
LINE
  5
168
330
1F
100
AcDbEntity
  8
XR$1$TB_711_1
  6
AUSGEZOGEN
 62
     7
440
 33554687
370
    -3
100
AcDbLine
 10
7.975505
 20
-0.354778
 30
0.0
 11
7.975913
 21
-0.354515
 31
0.0
  0
LINE
  5
169
330
1F
100
AcDbEntity
  8
XR$1$TB_711_1
  6
AUSGEZOGEN
 62
     7
440
 33554687
370
    -3
100
AcDbLine
 10
7.981439
 20
-0.354515
 30
0.0
 11
7.980085
 21
-0.35539
 31
0.0
  0
LINE
  5
16A
330
1F
100
AcDbEntity
  8
XR$1$TB_711_1
  6
VERDECKT2_S2
 62
     7
440
 33554687
370
    13
100
AcDbLine
 10
7.986969
 20
-0.369765
 30
0.0
 11
7.986969
 21
-0.365265
 31
0.0
  0
ARC
  5
16B
330
1F
100
AcDbEntity
  8
XR$1$TB_711_1
  6
VERDECKT2_S2
 62
     7
440
 33554687
370
    13
100
AcDbCircle
 10
7.988375
 20
-0.364765
 30
0.0
 40
0.0004999999999999
100
AcDbArc
 50
68.583286
 51
90.0
  0
LINE
  5
16C
330
1F
100
AcDbEntity
  8
XR$1$TB_711_1
  6
VERDECKT2_S2
 62
     7
440
 33554687
370
    13
100
AcDbLine
 10
7.987969
 20
-0.364265
 30
0.0
 11
7.988375
 21
-0.364265
 31
0.0
  0
ARC
  5
16D
330
1F
100
AcDbEntity
  8
XR$1$TB_711_1
  6
VERDECKT2_S2
 62
     7
440
 33554687
370
    13
100
AcDbCircle
 10
7.987969
 20
-0.365265
 30
0.0
 40
0.001
100
AcDbArc
 50
90.0
 51
180.0
  0
LINE
  5
16E
330
1F
100
AcDbEntity
  8
XR$1$TB_711_1
  6
VERDECKT2_S2
 62
     7
440
 33554687
370
    13
100
AcDbLine
 10
7.990931
 20
-0.36523
 30
0.0
 11
7.988557
 21
-0.364299
 31
0.0
  0
ARC
  5
16F
330
1F
100
AcDbEntity
  8
XR$1$TB_711_1
  6
VERDECKT2_S2
 62
     7
440
 33554687
370
    13
100
AcDbCircle
 10
7.991113
 20
-0.364765
 30
0.0
 40
0.0004999999999999
100
AcDbArc
 50
248.583286
 51
270.0
  0
LINE
  5
170
330
1F
100
AcDbEntity
  8
XR$1$TB_711_1
  6
VERDECKT2_S2
 62
     7
440
 33554687
370
    13
100
AcDbLine
 10
7.996219
 20
-0.365265
 30
0.0
 11
7.991113
 21
-0.365265
 31
0.0
  0
ARC
  5
171
330
1F
100
AcDbEntity
  8
XR$1$TB_711_1
  6
VERDECKT2_S2
 62
     7
440
 33554687
370
    13
100
AcDbCircle
 10
7.988969
 20
-0.369765
 30
0.0
 40
0.002
100
AcDbArc
 50
180.0
 51
270.0
  0
LINE
  5
172
330
1F
100
AcDbEntity
  8
XR$1$TB_711_1
  6
AUSGEZOGEN
 62
     7
440
 33554687
370
    -3
100
AcDbLine
 10
7.996219
 20
-0.358259
 30
0.0
 11
7.996219
 21
-0.355515
 31
0.0
  0
LINE
  5
173
330
1F
100
AcDbEntity
  8
XR$1$TB_711_1
  6
VERDECKT2_S2
 62
     7
440
 33554687
370
    13
100
AcDbLine
 10
7.996219
 20
-0.371765
 30
0.0
 11
7.988969
 21
-0.371765
 31
0.0
  0
LINE
  5
174
330
1F
100
AcDbEntity
  8
XR$1$TB_711_1
  6
AUSGEZOGEN
 62
     7
440
 33554687
370
    -3
100
AcDbLine
 10
8.001219
 20
-0.362265
 30
0.0
 11
8.001219
 21
-0.367265
 31
0.0
  0
ARC
  5
175
330
1F
100
AcDbEntity
  8
XR$1$TB_711_1
  6
AUSGEZOGEN
 62
     7
440
 33554687
370
    -3
100
AcDbCircle
 10
7.999719
 20
-0.367265
 30
0.0
 40
0.0015
100
AcDbArc
 50
179.999999
 51
0.000001
  0
LINE
  5
176
330
1F
100
AcDbEntity
  8
XR$1$TB_711_1
  6
AUSGEZOGEN
 62
     7
440
 33554687
370
    25
100
AcDbLine
 10
7.996219
 20
-0.378259
 30
0.0
 11
7.996219
 21
-0.358259
 31
0.0
  0
LINE
  5
177
330
1F
100
AcDbEntity
  8
XR$1$TB_711_1
  6
AUSGEZOGEN
 62
     7
440
 33554687
370
    -3
100
AcDbLine
 10
8.003219
 20
-0.369765
 30
0.0
 11
8.003219
 21
-0.357515
 31
0.0
  0
ARC
  5
178
330
1F
100
AcDbEntity
  8
XR$1$TB_711_1
  6
VERDECKT2_S2
 62
     7
440
 33554687
370
    -3
100
AcDbCircle
 10
8.001219
 20
-0.369765
 30
0.0
 40
0.002
100
AcDbArc
 50
270.0
 51
0.0
  0
LINE
  5
179
330
1F
100
AcDbEntity
  8
XR$1$TB_711_1
  6
AUSGEZOGEN
 62
     7
440
 33554687
370
    -3
100
AcDbLine
 10
8.001219
 20
-0.371765
 30
0.0
 11
7.996219
 21
-0.371765
 31
0.0
  0
LINE
  5
17A
330
1F
100
AcDbEntity
  8
XR$1$TB_711_1
  6
AUSGEZOGEN
 62
     7
440
 33554687
370
    -3
100
AcDbLine
 10
7.962212
 20
-0.351515
 30
0.0
 11
7.961412
 21
-0.351515
 31
0.0
  0
LINE
  5
17B
330
1F
100
AcDbEntity
  8
XR$1$TB_711_1
  6
AUSGEZOGEN
 62
     7
440
 33554687
370
    -3
100
AcDbLine
 10
7.905719
 20
-0.351515
 30
0.0
 11
7.905719
 21
-0.349515
 31
0.0
  0
LINE
  5
17C
330
1F
100
AcDbEntity
  8
XR$1$TB_711_1
  6
AUSGEZOGEN
 62
     7
440
 33554687
370
    -3
100
AcDbLine
 10
7.905719
 20
-0.349515
 30
0.0
 11
7.954719
 21
-0.349515
 31
0.0
  0
LINE
  5
17D
330
1F
100
AcDbEntity
  8
XR$1$TB_711_1
  6
AUSGEZOGEN
 62
     7
440
 33554687
370
    -3
100
AcDbLine
 10
7.956719
 20
-0.349515
 30
0.0
 11
8.005719
 21
-0.349515
 31
0.0
  0
LINE
  5
17E
330
1F
100
AcDbEntity
  8
XR$1$TB_711_1
  6
AUSGEZOGEN
 62
     7
440
 33554687
370
    -3
100
AcDbLine
 10
8.005719
 20
-0.351515
 30
0.0
 11
8.005719
 21
-0.349515
 31
0.0
  0
LINE
  5
17F
330
1F
100
AcDbEntity
  8
XR$1$TB_711_1
  6
AUSGEZOGEN
 62
     7
440
 33554687
370
    -3
100
AcDbLine
 10
7.905719
 20
-0.351515
 30
0.0
 11
8.005719
 21
-0.351515
 31
0.0
  0
LINE
  5
180
330
1F
100
AcDbEntity
  8
XR$1$TB_711_1
  6
AUSGEZOGEN
 62
     7
440
 33554687
370
    -3
100
AcDbLine
 10
8.005719
 20
-0.349515
 30
0.0
 11
8.008981
 21
-0.349515
 31
0.0
  0
LINE
  5
181
330
1F
100
AcDbEntity
  8
XR$1$TB_711_1
  6
AUSGEZOGEN
 62
     7
440
 33554687
370
    -3
100
AcDbLine
 10
8.008981
 20
-0.329515
 30
0.0
 11
8.008981
 21
-0.349515
 31
0.0
  0
LINE
  5
182
330
1F
100
AcDbEntity
  8
XR$1$TB_711_1
  6
AUSGEZOGEN
 62
     7
440
 33554687
370
    -3
100
AcDbLine
 10
8.006981
 20
-0.347515
 30
0.0
 11
8.006981
 21
-0.329515
 31
0.0
  0
ARC
  5
183
330
1F
100
AcDbEntity
  8
XR$1$TB_711_1
  6
AUSGEZOGEN
 62
     7
440
 33554687
370
    -3
100
AcDbCircle
 10
8.008481
 20
-0.378214
 30
0.0
 40
0.0035
100
AcDbArc
 50
270.0
 51
0.0
  0
ARC
  5
184
330
1F
100
AcDbEntity
  8
XR$1$TB_711_1
  6
AUSGEZOGEN
 62
     7
440
 33554687
370
    -3
100
AcDbCircle
 10
8.007981
 20
-0.377714
 30
0.0
 40
0.001
100
AcDbArc
 50
270.0
 51
0.0
  0
ARC
  5
185
330
1F
100
AcDbEntity
  8
XR$1$TB_711_1
  6
AUSGEZOGEN
 62
     7
440
 33554687
370
    -3
100
AcDbCircle
 10
8.006981
 20
-0.378714
 30
0.0
 40
0.003
100
AcDbArc
 50
180.0
 51
270.0
  0
ARC
  5
186
330
1F
100
AcDbEntity
  8
XR$1$TB_711_1
  6
AUSGEZOGEN
 62
     7
440
 33554687
370
    -3
100
AcDbCircle
 10
8.007981
 20
-0.377714
 30
0.0
 40
0.001
100
AcDbArc
 50
180.0
 51
270.0
  0
LINE
  5
187
330
1F
100
AcDbEntity
  8
XR$1$TB_711_1
  6
AUSGEZOGEN
 62
     7
440
 33554687
370
    -3
100
AcDbLine
 10
8.004128
 20
-0.403214
 30
0.0
 11
8.004128
 21
-0.379641
 31
0.0
  0
LINE
  5
188
330
1F
100
AcDbEntity
  8
XR$1$TB_711_1
  6
AUSGEZOGEN
 62
     7
440
 33554687
370
    -3
100
AcDbLine
 10
8.006981
 20
-0.381714
 30
0.0
 11
8.006981
 21
-0.403214
 31
0.0
  0
LINE
  5
189
330
1F
100
AcDbEntity
  8
XR$1$TB_711_1
  6
AUSGEZOGEN
 62
     7
440
 33554687
370
    -3
100
AcDbLine
 10
8.008481
 20
-0.381714
 30
0.0
 11
8.006981
 21
-0.381714
 31
0.0
  0
LINE
  5
18A
330
1F
100
AcDbEntity
  8
XR$1$TB_711_1
  6
AUSGEZOGEN
 62
     7
440
 33554687
370
    -3
100
AcDbLine
 10
8.180981
 20
-0.403214
 30
0.0
 11
8.004128
 21
-0.403214
 31
0.0
  0
LINE
  5
18B
330
1F
100
AcDbEntity
  8
XR$1$TB_711_1
  6
AUSGEZOGEN
 62
     7
440
 33554687
370
    -3
100
AcDbLine
 10
7.978981
 20
-0.349515
 30
0.0
 11
7.978981
 21
-0.347515
 31
0.0
  0
LINE
  5
18C
330
1F
100
AcDbEntity
  8
XR$1$TB_711_1
  6
AUSGEZOGEN
 62
     7
440
 33554687
370
    -3
100
AcDbLine
 10
8.008981
 20
-0.349515
 30
0.0
 11
7.978981
 21
-0.349515
 31
0.0
  0
LINE
  5
18D
330
1F
100
AcDbEntity
  8
XR$1$TB_711_1
  6
AUSGEZOGEN
 62
     7
440
 33554687
370
    -3
100
AcDbLine
 10
7.978981
 20
-0.347515
 30
0.0
 11
8.006981
 21
-0.347515
 31
0.0
  0
LINE
  5
18E
330
1F
100
AcDbEntity
  8
XR$1$TB_711_1
  6
AUSGEZOGEN
 62
     7
440
 33554687
370
    -3
100
AcDbLine
 10
8.003981
 20
-0.378714
 30
0.0
 11
8.003981
 21
-0.354515
 31
0.0
  0
LINE
  5
18F
330
1F
100
AcDbEntity
  8
XR$1$TB_711_1
  6
AUSGEZOGEN
 62
     7
440
 33554687
370
    -3
100
AcDbLine
 10
8.006981
 20
-0.354515
 30
0.0
 11
8.006981
 21
-0.377714
 31
0.0
  0
LINE
  5
190
330
1F
100
AcDbEntity
  8
XR$1$TB_711_1
  6
AUSGEZOGEN
 62
     7
440
 33554687
370
    -3
100
AcDbLine
 10
8.003981
 20
-0.354515
 30
0.0
 11
8.006981
 21
-0.354515
 31
0.0
  0
LINE
  5
191
330
1F
100
AcDbEntity
  8
XR$1$TB_711_1
  6
AUSGEZOGEN
 62
     7
440
 33554687
370
    -3
100
AcDbLine
 10
8.001012
 20
-0.338211
 30
0.0
 11
8.01815
 21
-0.338211
 31
0.0
  0
LINE
  5
192
330
1F
100
AcDbEntity
  8
XR$1$TB_711_1
  6
AUSGEZOGEN
 62
     7
440
 33554687
370
    -3
100
AcDbLine
 10
7.993819
 20
-0.342473
 30
0.0
 11
7.993819
 21
-0.353307
 31
0.0
  0
LINE
  5
193
330
1F
100
AcDbEntity
  8
XR$1$TB_711_1
  6
AUSGEZOGEN
 62
     7
440
 33554687
370
    -3
100
AcDbLine
 10
7.999857
 20
-0.358547
 30
0.0
 11
7.999857
 21
-0.345759
 31
0.0
  0
LINE
  5
194
330
1F
100
AcDbEntity
  8
XR$1$TB_711_1
  6
AUSGEZOGEN
 62
     7
440
 33554687
370
    -3
100
AcDbLine
 10
8.006981
 20
-0.329515
 30
0.0
 11
8.008981
 21
-0.329515
 31
0.0
  0
LINE
  5
195
330
1F
100
AcDbEntity
  8
XR$1$TB_711_1
  6
AUSGEZOGEN
 62
     7
440
 33554687
370
    -3
100
AcDbLine
 10
7.504697
 20
-0.349514
 30
0.0
 11
7.504697
 21
-0.299515
 31
0.0
  0
LINE
  5
196
330
1F
100
AcDbEntity
  8
XR$1$TB_711_1
  6
AUSGEZOGEN
 62
     7
440
 33554687
370
    -3
100
AcDbLine
 10
7.506697
 20
-0.349514
 30
0.0
 11
7.506697
 21
-0.291515
 31
0.0
  0
LINE
  5
197
330
1F
100
AcDbEntity
  8
XR$1$TB_711_1
  6
AUSGEZOGEN
 62
     7
440
 33554687
370
    -3
100
AcDbLine
 10
7.954719
 20
-0.349515
 30
0.0
 11
7.954719
 21
-0.299515
 31
0.0
  0
LINE
  5
198
330
1F
100
AcDbEntity
  8
XR$1$TB_711_1
  6
AUSGEZOGEN
 62
     7
440
 33554687
370
    -3
100
AcDbLine
 10
7.956719
 20
-0.349515
 30
0.0
 11
7.956719
 21
-0.291515
 31
0.0
  0
LINE
  5
199
330
1F
100
AcDbEntity
  8
XR$1$TB_711_1
  6
AUSGEZOGEN
 62
     7
440
 33554687
370
    -3
100
AcDbLine
 10
8.008981
 20
-0.122515
 30
0.0
 11
8.008981
 21
-0.377714
 31
0.0
  0
LINE
  5
19A
330
1F
100
AcDbEntity
  8
XR$1$TB_711_1
  6
AUSGEZOGEN
 62
     7
440
 33554687
370
    -3
100
AcDbLine
 10
8.011981
 20
-0.122515
 30
0.0
 11
8.011981
 21
-0.378214
 31
0.0
  0
MTEXT
  5
19B
330
1F
100
AcDbEntity
  8
XR$1$TB_711_1
  6
AUSGEZOGEN
 62
     7
440
 33554687
370
    -3
100
AcDbMText
 10
7.816554
 20
-0.799628
 30
0.0
 40
0.009
 41
0.418059
 46
0.0
 71
     7
 72
     5
  1
\W1.00;AGROB BUCHTAL GmbH   Architektenservice   D - 92521 Schwarzenfeld
  7
ARIAL
 73
     1
 44
1.0
  0
LINE
  5
19C
330
1F
100
AcDbEntity
  8
XR$1$TB_711_1
  6
AUSGEZOGEN
 62
     3
440
 33554687
370
    25
100
AcDbLine
 10
7.978981
 20
-0.055515
 30
0.0
 11
7.978981
 21
-0.115515
 31
0.0
  0
LINE
  5
19D
330
1F
100
AcDbEntity
  8
XR$1$TB_711_1
  6
AUSGEZOGEN
 62
     3
440
 33554687
370
    25
100
AcDbLine
 10
8.053981
 20
-0.115515
 30
0.0
 11
7.968981
 21
-0.115515
 31
0.0
  0
LINE
  5
19E
330
1F
100
AcDbEntity
  8
XR$1$TB_711_1
  6
AUSGEZOGEN
 62
     3
440
 33554687
370
    25
100
AcDbLine
 10
8.028981
 20
-0.035515
 30
0.0
 11
8.028981
 21
-0.020515
 31
0.0
  0
LINE
  5
19F
330
1F
100
AcDbEntity
  8
XR$1$TB_711_1
  6
AUSGEZOGEN
 62
     3
440
 33554687
370
    25
100
AcDbLine
 10
8.108981
 20
-0.020515
 30
0.0
 11
8.108981
 21
-0.080515
 31
0.0
  0
LINE
  5
1A0
330
1F
100
AcDbEntity
  8
XR$1$TB_711_1
  6
AUSGEZOGEN
 62
     3
440
 33554687
370
    25
100
AcDbLine
 10
8.053981
 20
-0.080515
 30
0.0
 11
8.108981
 21
-0.080515
 31
0.0
  0
LINE
  5
1A1
330
1F
100
AcDbEntity
  8
XR$1$TB_711_1
  6
AUSGEZOGEN
 62
     3
440
 33554687
370
    25
100
AcDbLine
 10
8.028981
 20
-0.020515
 30
0.0
 11
8.108981
 21
-0.020515
 31
0.0
  0
LINE
  5
1A2
330
1F
100
AcDbEntity
  8
XR$1$TB_711_1
  6
AUSGEZOGEN
 62
     3
440
 33554687
370
    25
100
AcDbLine
 10
8.053981
 20
-0.035515
 30
0.0
 11
7.968981
 21
-0.035515
 31
0.0
  0
LINE
  5
1A3
330
1F
100
AcDbEntity
  8
XR$1$TB_711_1
  6
AUSGEZOGEN
 62
     3
440
 33554687
370
    25
100
AcDbLine
 10
7.978981
 20
-0.035515
 30
0.0
 11
7.978981
 21
-0.115515
 31
0.0
  0
LINE
  5
1A4
330
1F
100
AcDbEntity
  8
XR$1$TB_711_1
  6
AUSGEZOGEN
 62
     3
440
 33554687
370
    25
100
AcDbLine
 10
8.053981
 20
-0.035515
 30
0.0
 11
8.053981
 21
-0.115515
 31
0.0
  0
LINE
  5
1A5
330
1F
100
AcDbEntity
  8
XR$1$TB_711_1
  6
AUSGEZOGEN
 62
     7
440
 33554687
370
    -3
100
AcDbLine
 10
8.180981
 20
-0.020515
 30
0.0
 11
8.108981
 21
-0.020515
 31
0.0
  0
LINE
  5
1A6
330
1F
100
AcDbEntity
  8
XR$1$TB_711_1
  6
AUSGEZOGEN
 62
     7
440
 33554687
370
    -3
100
AcDbLine
 10
8.180981
 20
-0.038515
 30
0.0
 11
8.108981
 21
-0.038515
 31
0.0
  0
LINE
  5
1A7
330
1F
100
AcDbEntity
  8
XR$1$TB_711_1
  6
AUSGEZOGEN
 62
     7
440
 33554687
370
    -3
100
AcDbLine
 10
8.180981
 20
-0.042515
 30
0.0
 11
8.108981
 21
-0.042515
 31
0.0
  0
LINE
  5
1A8
330
1F
100
AcDbEntity
  8
XR$1$TB_711_1
  6
AUSGEZOGEN
 62
     7
440
 33554687
370
    -3
100
AcDbLine
 10
8.180981
 20
-0.062515
 30
0.0
 11
8.108981
 21
-0.062515
 31
0.0
  0
LINE
  5
1A9
330
1F
100
AcDbEntity
  8
XR$1$TB_711_1
  6
AUSGEZOGEN
 62
     7
440
 33554687
370
    -3
100
AcDbLine
 10
8.180981
 20
-0.058515
 30
0.0
 11
8.108981
 21
-0.058515
 31
0.0
  0
LINE
  5
1AA
330
1F
100
AcDbEntity
  8
XR$1$TB_711_1
  6
AUSGEZOGEN
 62
     7
440
 33554687
370
    -3
100
AcDbLine
 10
8.180981
 20
-0.080515
 30
0.0
 11
8.108981
 21
-0.080515
 31
0.0
  0
LINE
  5
1AB
330
1F
100
AcDbEntity
  8
XR$1$TB_711_1
  6
AUSGEZOGEN
 62
     7
440
 33554687
370
    -3
100
AcDbLine
 10
8.095584
 20
-0.295643
 30
0.0
 11
8.011981
 21
-0.338211
 31
0.0
  0
MTEXT
  5
1AC
330
1F
100
AcDbEntity
  8
XR$1$TB_711_1
  6
AUSGEZOGEN
 62
     7
440
 33554687
370
    -3
100
AcDbMText
 10
8.016096
 20
-0.253081
 30
0.0
 40
0.009
 41
0.170203
 46
0.0
 71
     1
 72
     5
  1
\A1;{\fArial|i0|b0;\H0.009000;\W0.909091;\C7;Blindniet in Farbe des Blechs}\P{\fArial|i0|b0;\H0.009000;\W0.909091;\C7;Rivet of colour of flashing}\P{\fArial|i0|b0;\H0.009000;\W0.909091;\C7;Rivet aveugle en couleur de tôle}\P
  7
ARIAL
 73
     1
 44
0.903614
  0
MTEXT
  5
1AD
330
1F
100
AcDbEntity
  8
XR$1$TB_711_1
  6
AUSGEZOGEN
 62
     7
440
 33554687
370
    -3
100
AcDbMText
 10
7.799677
 20
-0.404435
 30
0.0
 40
0.0125
 41
0.094636
 46
0.0
 71
     7
 72
     5
  1
\W0.92;Art.-Nr.: 681
  7
ARIAL
 73
     1
 44
1.0
  0
LINE
  5
1AF
102
{ACAD_REACTORS
330
1AE
102
}
330
1F
100
AcDbEntity
  8
XR$1$TB_711_1
  6
AUSGEZOGEN
 62
     7
440
 33554687
370
    -3
100
AcDbLine
 10
7.888538
 20
-0.398602
 30
0.0
 11
7.963432
 21
-0.353042
 31
0.0
  0
LINE
  5
1B0
102
{ACAD_REACTORS
330
1AE
102
}
330
1F
100
AcDbEntity
  8
XR$1$TB_711_1
  6
AUSGEZOGEN
 62
     7
440
 33554687
370
    -3
100
AcDbLine
 10
7.954461
 20
-0.358499
 30
0.0
 11
7.95382
 21
-0.358889
 31
0.0
  0
LINE
  5
1B1
102
{ACAD_REACTORS
330
1AE
102
}
330
1F
100
AcDbEntity
  8
XR$1$TB_711_1
  6
AUSGEZOGEN
 62
     7
440
 33554687
370
    -3
100
AcDbLine
 10
7.963432
 20
-0.353042
 30
0.0
 11
7.963432
 21
-0.353042
 31
0.0
  0
LINE
  5
1B2
102
{ACAD_REACTORS
330
1AE
102
}
330
1F
100
AcDbEntity
  8
XR$1$TB_711_1
  6
AUSGEZOGEN
 62
     7
440
 33554687
370
    -3
100
AcDbLine
 10
7.963432
 20
-0.353042
 30
0.0
 11
7.963432
 21
-0.353042
 31
0.0
  0
LINE
  5
1B3
102
{ACAD_REACTORS
330
1AE
102
}
330
1F
100
AcDbEntity
  8
XR$1$TB_711_1
  6
AUSGEZOGEN
 62
     7
440
 33554687
370
    -3
100
AcDbLine
 10
7.963432
 20
-0.353042
 30
0.0
 11
7.963432
 21
-0.353042
 31
0.0
  0
LINE
  5
1B4
102
{ACAD_REACTORS
330
1AE
102
}
330
1F
100
AcDbEntity
  8
XR$1$TB_711_1
  6
AUSGEZOGEN
 62
     7
440
 33554687
370
    -3
100
AcDbLine
 10
7.963432
 20
-0.353042
 30
0.0
 11
7.953682
 21
-0.357217
 31
0.0
  0
LINE
  5
1B5
102
{ACAD_REACTORS
330
1AE
102
}
330
1F
100
AcDbEntity
  8
XR$1$TB_711_1
  6
AUSGEZOGEN
 62
     7
440
 33554687
370
    -3
100
AcDbLine
 10
7.953682
 20
-0.357217
 30
0.0
 11
7.955241
 21
-0.35978
 31
0.0
  0
LINE
  5
1B6
102
{ACAD_REACTORS
330
1AE
102
}
330
1F
100
AcDbEntity
  8
XR$1$TB_711_1
  6
AUSGEZOGEN
 62
     7
440
 33554687
370
    -3
100
AcDbLine
 10
7.955241
 20
-0.35978
 30
0.0
 11
7.963432
 21
-0.353042
 31
0.0
  0
HATCH
  5
1B7
102
{ACAD_REACTORS
330
1AE
102
}
330
1F
100
AcDbEntity
  8
XR$1$TB_711_1
  6
AUSGEZOGEN
 62
     7
440
 33554687
370
    -3
100
AcDbHatch
 10
0.0
 20
0.0
 30
0.0
210
0.0
220
0.0
230
1.0
  2
SOLID
 70
     1
 71
     0
 91
        1
 92
        3
 72
     0
 73
     1
 93
        3
 10
7.95524072265625
 20
-0.3597802734375
 10
7.963431762695313
 20
-0.353041748046875
 10
7.953681640625001
 20
-0.35721728515625
 97
        0
 75
     0
 76
     1
 98
        0
  0
MTEXT
  5
1B8
330
1F
100
AcDbEntity
  8
XR$1$TB_711_1
  6
AUSGEZOGEN
 62
     7
440
 33554687
370
    -3
100
AcDbMText
 10
7.579671
 20
-0.404435
 30
0.0
 40
0.0125
 41
0.094694
 46
0.0
 71
     7
 72
     5
  1
\W0.93;Art.-Nr.: 680
  7
ARIAL
 73
     1
 44
1.0
  0
LINE
  5
1BA
102
{ACAD_REACTORS
330
1B9
102
}
330
1F
100
AcDbEntity
  8
XR$1$TB_711_1
  6
AUSGEZOGEN
 62
     7
440
 33554687
370
    -3
100
AcDbLine
 10
7.579671
 20
-0.398602
 30
0.0
 11
7.534777
 21
-0.353042
 31
0.0
  0
LINE
  5
1BB
102
{ACAD_REACTORS
330
1B9
102
}
330
1F
100
AcDbEntity
  8
XR$1$TB_711_1
  6
AUSGEZOGEN
 62
     7
440
 33554687
370
    -3
100
AcDbLine
 10
7.542147
 20
-0.360521
 30
0.0
 11
7.542673
 21
-0.361055
 31
0.0
  0
LINE
  5
1BC
102
{ACAD_REACTORS
330
1B9
102
}
330
1F
100
AcDbEntity
  8
XR$1$TB_711_1
  6
AUSGEZOGEN
 62
     7
440
 33554687
370
    -3
100
AcDbLine
 10
7.534777
 20
-0.353042
 30
0.0
 11
7.534777
 21
-0.353042
 31
0.0
  0
LINE
  5
1BD
102
{ACAD_REACTORS
330
1B9
102
}
330
1F
100
AcDbEntity
  8
XR$1$TB_711_1
  6
AUSGEZOGEN
 62
     7
440
 33554687
370
    -3
100
AcDbLine
 10
7.534777
 20
-0.353042
 30
0.0
 11
7.534777
 21
-0.353042
 31
0.0
  0
LINE
  5
1BE
102
{ACAD_REACTORS
330
1B9
102
}
330
1F
100
AcDbEntity
  8
XR$1$TB_711_1
  6
AUSGEZOGEN
 62
     7
440
 33554687
370
    -3
100
AcDbLine
 10
7.534777
 20
-0.353042
 30
0.0
 11
7.534777
 21
-0.353042
 31
0.0
  0
LINE
  5
1BF
102
{ACAD_REACTORS
330
1B9
102
}
330
1F
100
AcDbEntity
  8
XR$1$TB_711_1
  6
AUSGEZOGEN
 62
     7
440
 33554687
370
    -3
100
AcDbLine
 10
7.534777
 20
-0.353042
 30
0.0
 11
7.541078
 21
-0.361574
 31
0.0
  0
LINE
  5
1C0
102
{ACAD_REACTORS
330
1B9
102
}
330
1F
100
AcDbEntity
  8
XR$1$TB_711_1
  6
AUSGEZOGEN
 62
     7
440
 33554687
370
    -3
100
AcDbLine
 10
7.541078
 20
-0.361574
 30
0.0
 11
7.543215
 21
-0.359468
 31
0.0
  0
LINE
  5
1C1
102
{ACAD_REACTORS
330
1B9
102
}
330
1F
100
AcDbEntity
  8
XR$1$TB_711_1
  6
AUSGEZOGEN
 62
     7
440
 33554687
370
    -3
100
AcDbLine
 10
7.543215
 20
-0.359468
 30
0.0
 11
7.534777
 21
-0.353042
 31
0.0
  0
HATCH
  5
1C2
102
{ACAD_REACTORS
330
1B9
102
}
330
1F
100
AcDbEntity
  8
XR$1$TB_711_1
  6
AUSGEZOGEN
 62
     7
440
 33554687
370
    -3
100
AcDbHatch
 10
0.0
 20
0.0
 30
0.0
210
0.0
220
0.0
230
1.0
  2
SOLID
 70
     1
 71
     0
 91
        1
 92
        3
 72
     0
 73
     1
 93
        3
 10
7.543215393066406
 20
-0.3594680786132813
 10
7.534777160644532
 20
-0.353041748046875
 10
7.541078491210937
 20
-0.36157373046875
 97
        0
 75
     0
 76
     1
 98
        0
  0
MTEXT
  5
1C3
330
1F
100
AcDbEntity
  8
XR$1$TB_711_1
  6
AUSGEZOGEN
 62
     7
440
 33554687
370
    -3
100
AcDbMText
 10
8.181512
 20
-0.835515
 30
0.0
 40
0.009
 41
0.096773
 46
0.0
 71
     7
 72
     5
  1
\W0.91;STAND: Mai 2020
  7
ARIAL
 73
     1
 44
1.0
  0
VIEWPORT
  5
72
330
6E
100
AcDbEntity
 67
     1
  8
0
100
AcDbViewport
 10
0.105003
 20
0.1485
 30
0.0
 40
0.210206
 41
0.2972
 68
     1
 69
     1
 12
0.105003
 22
0.1485
 13
0.0
 23
0.0
 14
0.5
 24
0.5
 15
0.5
 25
0.5
 16
0.0
 26
0.0
 36
1.0
 17
0.0
 27
0.0
 37
0.0
 42
50.0
 43
0.0
 44
0.0
 45
0.2972
 50
0.0
 51
0.0
 72
   100
 90
   557152
  1

281
     0
 71
     1
 74
     0
110
0.0
120
0.0
130
0.0
111
1.0
121
0.0
131
0.0
112
0.0
122
1.0
132
0.0
 79
     0
146
0.0
170
     0
 61
     5
348
2F
292
     1
282
     1
141
0.0
142
0.0
 63
   256
361
73
  0
VIEWPORT
  5
1C6
330
6E
100
AcDbEntity
 67
     1
  8
PLAN_711
  6
AUSGEZOGEN
 62
     7
370
    35
100
AcDbViewport
 10
0.105003
 20
0.1485
 30
0.0
 40
0.210206
 41
0.2972
 68
     2
 69
     2
 12
0.0
 22
0.0
 13
0.0
 23
0.0
 14
1.0
 24
1.0
 15
0.0
 25
0.0
 16
0.0
 26
0.0
 36
1.0
 17
7.809521
 27
-0.196677
 37
0.0
 42
50.0
 43
0.0
 44
0.0
 45
1.486
 50
0.0
 51
0.0
 72
   100
331
10
331
76
331
78
 90
   557280
  1

281
     0
 71
     1
 74
     0
110
0.0
120
0.0
130
0.0
111
1.0
121
0.0
131
0.0
112
0.0
122
1.0
132
0.0
 79
     0
146
0.0
170
     0
 61
     5
348
2F
292
     1
282
     1
141
0.0
142
0.0
 63
   256
361
1C7
  0
ENDSEC
  0
SECTION
  2
OBJECTS
  0
DICTIONARY
  5
C
330
0
100
AcDbDictionary
281
     1
  3
ACAD_DETAILVIEWSTYLE
350
1FF
  3
ACAD_GROUP
350
D
  3
ACAD_LAYOUT
350
1A
  3
ACAD_MATERIAL
350
43
  3
ACAD_MLEADERSTYLE
350
6B
  3
ACAD_MLINESTYLE
350
17
  3
ACAD_PLOTSETTINGS
350
19
  3
ACAD_PLOTSTYLENAME
350
E
  3
ACAD_SCALELIST
350
47
  3
ACAD_SECTIONVIEWSTYLE
350
200
  3
ACAD_TABLESTYLE
350
69
  3
ACAD_VISUALSTYLE
350
2A
  3
ACDB_RECOMPOSE_DATA
350
1FC
  3
AcDbVariableDictionary
350
1C8
  0
SUN
  5
6D
330
29
100
AcDbSun
 90
        1
290
     0
 63
     7
421
 16777215
 40
1.0
291
     1
 91
  2455826
 92
 54000000
292
     0
 70
     2
 71
   256
280
     1
  0
DICTIONARY
  5
1C4
330
1F
100
AcDbDictionary
280
     1
281
     1
  3
ACAD_SORTENTS
360
1C5
  0
SUN
  5
73
330
72
100
AcDbSun
 90
        1
290
     0
 63
     7
421
 16777215
 40
1.0
291
     1
 91
  2455826
 92
 54000000
292
     0
 70
     2
 71
   256
280
     1
  0
SUN
  5
1C7
330
1C6
100
AcDbSun
 90
        1
290
     0
 63
     7
421
 16777215
 40
1.0
291
     1
 91
  2455826
 92
 54000000
292
     0
 70
     2
 71
   256
280
     1
  0
DICTIONARY
  5
1FF
102
{ACAD_REACTORS
330
C
102
}
330
C
100
AcDbDictionary
281
     1
  0
DICTIONARY
  5
D
102
{ACAD_REACTORS
330
C
102
}
330
C
100
AcDbDictionary
281
     1
  3
VERBUNDBLOCK_0
350
83
  3
VERBUNDBLOCK_1
350
86
  3
VERBUNDBLOCK_2
350
1AE
  3
VERBUNDBLOCK_3
350
1B9
  0
DICTIONARY
  5
1A
102
{ACAD_REACTORS
330
C
102
}
330
C
100
AcDbDictionary
281
     1
  3
K20 Klammersystem 12
350
6F
  3
Model
350
22
  0
DICTIONARY
  5
43
102
{ACAD_REACTORS
330
C
102
}
330
C
100
AcDbDictionary
281
     1
  3
ByBlock
350
45
  3
ByLayer
350
44
  3
Global
350
46
  0
DICTIONARY
  5
6B
102
{ACAD_REACTORS
330
C
102
}
330
C
100
AcDbDictionary
281
     1
  3
Standard
350
6C
  0
DICTIONARY
  5
17
102
{ACAD_REACTORS
330
C
102
}
330
C
100
AcDbDictionary
281
     1
  3
Standard
350
18
  0
DICTIONARY
  5
19
102
{ACAD_REACTORS
330
C
102
}
330
C
100
AcDbDictionary
281
     1
  0
ACDBDICTIONARYWDFLT
  5
E
102
{ACAD_REACTORS
330
C
102
}
330
C
100
AcDbDictionary
281
     1
  3
Normal
350
F
100
AcDbDictionaryWithDefault
340
F
  0
DICTIONARY
  5
47
102
{ACAD_REACTORS
330
C
102
}
330
C
100
AcDbDictionary
281
     1
  3
A0
350
48
  3
A1
350
49
  3
A2
350
4A
  3
A3
350
4B
  3
A4
350
4C
  3
A5
350
4D
  3
A6
350
4E
  3
A7
350
4F
  3
A8
350
50
  3
A9
350
51
  3
B0
350
52
  3
B1
350
53
  3
B2
350
54
  3
B3
350
55
  3
B4
350
56
  3
B5
350
57
  3
B6
350
58
  3
B7
350
59
  3
B8
350
5A
  3
B9
350
5B
  3
C0
350
5C
  3
C1
350
5D
  3
C2
350
5E
  3
C3
350
5F
  3
C4
350
60
  3
C5
350
61
  3
C6
350
62
  3
C7
350
63
  3
C8
350
64
  3
C9
350
65
  3
D0
350
66
  3
D1
350
67
  3
D2
350
68
  0
DICTIONARY
  5
200
102
{ACAD_REACTORS
330
C
102
}
330
C
100
AcDbDictionary
281
     1
  0
DICTIONARY
  5
69
102
{ACAD_REACTORS
330
C
102
}
330
C
100
AcDbDictionary
281
     1
  3
Standard
350
6A
  0
DICTIONARY
  5
2A
102
{ACAD_REACTORS
330
C
102
}
330
C
100
AcDbDictionary
281
     1
  3
2dWireframe
350
2F
  3
Basic
350
32
  3
Brighten
350
36
  3
ColorChange
350
3A
  3
Conceptual
350
34
  3
Dim
350
35
  3
EdgeColorOff
350
3D
  3
Facepattern
350
39
  3
Flat
350
2B
  3
FlatWithEdges
350
2C
  3
Gouraud
350
2D
  3
GouraudWithEdges
350
2E
  3
Hidden
350
31
  3
JitterOff
350
3B
  3
Linepattern
350
38
  3
OverhangOff
350
3C
  3
Realistic
350
33
  3
Shaded
350
42
  3
Shaded with edges
350
41
  3
Shades of Gray
350
3E
  3
Sketchy
350
3F
  3
Thicken
350
37
  3
Wireframe
350
30
  3
X-Ray
350
40
  0
XRECORD
  5
1FC
102
{ACAD_REACTORS
330
C
102
}
330
C
100
AcDbXrecord
280
     1
 90
        1
330
6A
  0
DICTIONARY
  5
1C8
102
{ACAD_REACTORS
330
C
102
}
330
C
100
AcDbDictionary
281
     1
  3
CANNOSCALE
350
1C9
  3
CMLEADERSTYLE
350
1FE
  3
CTABLESTYLE
350
1FD
  0
SORTENTSTABLE
  5
1C5
102
{ACAD_REACTORS
330
1C4
102
}
330
1C4
100
AcDbSortentsTable
330
1F
331
7E
  5
8C
331
7F
  5
8D
331
80
  5
7E
331
81
  5
7F
331
82
  5
80
331
84
  5
81
331
85
  5
82
331
87
  5
84
331
88
  5
85
331
89
  5
87
331
8A
  5
88
331
8B
  5
89
331
8C
  5
8E
331
8D
  5
8F
331
8E
  5
90
331
8F
  5
91
331
90
  5
92
331
91
  5
93
331
92
  5
94
331
93
  5
95
331
94
  5
96
331
95
  5
97
331
96
  5
98
331
97
  5
99
331
98
  5
9A
331
99
  5
9B
331
9A
  5
9C
331
9B
  5
9D
331
9C
  5
9E
331
9D
  5
9F
331
9E
  5
A0
331
9F
  5
A1
331
A0
  5
A2
331
A1
  5
A3
331
A2
  5
A4
331
A3
  5
A5
331
A4
  5
A6
331
A5
  5
A7
331
A6
  5
A8
331
A7
  5
A9
331
A8
  5
AA
331
A9
  5
AB
331
AA
  5
AC
331
AB
  5
AD
331
AC
  5
AE
331
AD
  5
AF
331
AE
  5
B0
331
AF
  5
B1
331
B0
  5
B2
331
B1
  5
B3
331
B2
  5
B4
331
B3
  5
B5
331
B4
  5
B6
331
B5
  5
B7
331
B6
  5
B8
331
B7
  5
B9
331
B8
  5
BA
331
B9
  5
BB
331
BA
  5
BC
331
BB
  5
BD
331
BC
  5
BE
331
BD
  5
BF
331
BE
  5
C0
331
BF
  5
C1
331
C0
  5
C2
331
C1
  5
C3
331
C2
  5
C4
331
C3
  5
C5
331
C4
  5
C6
331
C5
  5
C7
331
C6
  5
C8
331
C7
  5
C9
331
C8
  5
CA
331
C9
  5
CB
331
CA
  5
CC
331
CB
  5
CD
331
CC
  5
CE
331
CD
  5
CF
331
CE
  5
D0
331
CF
  5
D1
331
D0
  5
D2
331
D1
  5
D3
331
D2
  5
D4
331
D3
  5
D5
331
D4
  5
D6
331
D5
  5
D7
331
D6
  5
D8
331
D7
  5
D9
331
D8
  5
DA
331
D9
  5
DB
331
DA
  5
DC
331
DB
  5
DD
331
DC
  5
DE
331
DD
  5
DF
331
DE
  5
E0
331
DF
  5
E1
331
E0
  5
E2
331
E1
  5
E3
331
E2
  5
E4
331
E3
  5
E5
331
E4
  5
E6
331
E5
  5
E7
331
E6
  5
E8
331
E7
  5
E9
331
E8
  5
EA
331
E9
  5
EB
331
EA
  5
EC
331
EB
  5
ED
331
EC
  5
EE
331
ED
  5
EF
331
EE
  5
F0
331
EF
  5
F1
331
F0
  5
F2
331
F1
  5
F3
331
F2
  5
F4
331
F3
  5
F5
331
F4
  5
F6
331
F5
  5
F7
331
F6
  5
F8
331
F7
  5
F9
331
F8
  5
FA
331
F9
  5
FB
331
FA
  5
FC
331
FB
  5
FD
331
FC
  5
FE
331
FD
  5
FF
331
FE
  5
100
331
FF
  5
101
331
100
  5
102
331
101
  5
103
331
102
  5
104
331
103
  5
105
331
104
  5
106
331
105
  5
107
331
106
  5
108
331
107
  5
109
331
108
  5
10A
331
109
  5
10B
331
10A
  5
10C
331
10B
  5
10D
331
10C
  5
10E
331
10D
  5
10F
331
10E
  5
110
331
10F
  5
111
331
110
  5
112
331
111
  5
113
331
112
  5
114
331
113
  5
115
331
114
  5
116
331
115
  5
117
331
116
  5
118
331
117
  5
119
331
118
  5
11A
331
119
  5
11B
331
11A
  5
11C
331
11B
  5
11D
331
11C
  5
11E
331
11D
  5
11F
331
11E
  5
120
331
11F
  5
121
331
120
  5
122
331
121
  5
123
331
122
  5
124
331
123
  5
125
331
124
  5
126
331
125
  5
127
331
126
  5
128
331
127
  5
129
331
128
  5
12A
331
129
  5
12B
331
12A
  5
12C
331
12B
  5
12D
331
12C
  5
12E
331
12D
  5
12F
331
12E
  5
130
331
12F
  5
131
331
130
  5
132
331
131
  5
133
331
132
  5
134
331
133
  5
135
331
134
  5
136
331
135
  5
137
331
136
  5
138
331
137
  5
139
331
138
  5
13A
331
139
  5
13B
331
13A
  5
13C
331
13B
  5
13D
331
13C
  5
13E
331
13D
  5
13F
331
13E
  5
140
331
13F
  5
141
331
140
  5
142
331
141
  5
143
331
142
  5
144
331
143
  5
145
331
144
  5
146
331
145
  5
147
331
146
  5
148
331
147
  5
149
331
148
  5
14A
331
149
  5
14B
331
14A
  5
14C
331
14B
  5
14D
331
14C
  5
14E
331
14D
  5
14F
331
14E
  5
150
331
14F
  5
151
331
150
  5
152
331
151
  5
153
331
152
  5
154
331
153
  5
155
331
154
  5
156
331
155
  5
157
331
156
  5
158
331
157
  5
159
331
158
  5
15A
331
159
  5
15B
331
15A
  5
15C
331
15B
  5
15D
331
15C
  5
15E
331
15D
  5
15F
331
15E
  5
160
331
15F
  5
161
331
160
  5
162
331
161
  5
163
331
162
  5
164
331
163
  5
165
331
164
  5
166
331
165
  5
167
331
166
  5
168
331
167
  5
169
331
168
  5
16A
331
169
  5
16B
331
16A
  5
16C
331
16B
  5
16D
331
16C
  5
16E
331
16D
  5
16F
331
16E
  5
170
331
16F
  5
171
331
170
  5
172
331
171
  5
173
331
172
  5
174
331
173
  5
175
331
174
  5
176
331
175
  5
177
331
176
  5
178
331
177
  5
179
331
178
  5
17A
331
179
  5
17B
331
17A
  5
17C
331
17B
  5
17D
331
17C
  5
17E
331
17D
  5
17F
331
17E
  5
180
331
17F
  5
181
331
180
  5
182
331
181
  5
183
331
182
  5
184
331
183
  5
185
331
184
  5
186
331
185
  5
187
331
186
  5
188
331
187
  5
189
331
188
  5
18A
331
189
  5
18B
331
18A
  5
18C
331
18B
  5
18D
331
18C
  5
18E
331
18D
  5
18F
331
18E
  5
190
331
18F
  5
191
331
190
  5
192
331
191
  5
193
331
192
  5
194
331
193
  5
195
331
194
  5
196
331
195
  5
197
331
196
  5
198
331
197
  5
199
331
198
  5
19A
331
199
  5
19B
331
19A
  5
19C
331
19B
  5
19D
331
19C
  5
19E
331
19D
  5
19F
331
19E
  5
1A0
331
19F
  5
1A1
331
1A0
  5
1A2
331
1A1
  5
1A3
331
1A2
  5
1A4
331
1A3
  5
1A5
331
1A4
  5
1A6
331
1A5
  5
1A7
331
1A6
  5
1A8
331
1A7
  5
1A9
331
1A8
  5
1AA
331
1A9
  5
1AB
331
1AA
  5
1AC
331
1AB
  5
1AD
331
1AC
  5
1AF
331
1AD
  5
1B0
331
1AF
  5
1B1
331
1B0
  5
1B2
331
1B1
  5
1B3
331
1B2
  5
1B4
331
1B3
  5
1B5
331
1B4
  5
1B6
331
1B5
  5
1B7
331
1B6
  5
1B8
331
1B7
  5
8A
331
1B8
  5
1BA
331
1BA
  5
1BB
331
1BB
  5
1BC
331
1BC
  5
1BD
331
1BD
  5
1BE
331
1BE
  5
1BF
331
1BF
  5
1C0
331
1C0
  5
1C1
331
1C1
  5
1C2
331
1C2
  5
8B
  0
GROUP
  5
83
102
{ACAD_REACTORS
330
D
102
}
330
D
100
AcDbGroup
300

 70
     0
 71
     1
340
84
340
85
  0
GROUP
  5
86
102
{ACAD_REACTORS
330
D
102
}
330
D
100
AcDbGroup
300

 70
     0
 71
     1
340
87
340
88
  0
GROUP
  5
1AE
102
{ACAD_REACTORS
330
D
102
}
330
D
100
AcDbGroup
300

 70
     0
 71
     1
340
1AF
340
1B0
340
1B1
340
1B2
340
1B3
340
1B4
340
1B5
340
1B6
340
1B7
  0
GROUP
  5
1B9
102
{ACAD_REACTORS
330
D
102
}
330
D
100
AcDbGroup
300

 70
     0
 71
     1
340
1BA
340
1BB
340
1BC
340
1BD
340
1BE
340
1BF
340
1C0
340
1C1
340
1C2
  0
LAYOUT
  5
6F
102
{ACAD_REACTORS
330
1A
102
}
330
1A
100
AcDbPlotSettings
  1

  2
none_device
  4
none_user_media
  6

 40
0.0
 41
0.0
 42
0.0
 43
0.0
 44
297.0
 45
209.9
 46
0.0
 47
0.0
 48
0.0
 49
0.0
140
0.0
141
0.0
142
1000.0
143
1.0
 70
   688
 72
     1
 73
     1
 74
     5
  7

 75
    33
 76
     0
 77
     2
 78
   300
147
1000.0
148
0.0
149
0.0
100
AcDbLayout
  1
K20 Klammersystem 12
 70
     0
 71
     1
 10
-0.0001
 20
-0.0001
 11
0.210106
 21
0.2971
 12
0.0
 22
0.0
 32
0.0
 14
-0.0001
 24
-0.0001
 34
0.0
 15
0.210106
 25
0.2971
 35
0.0
146
0.0
 13
0.0
 23
0.0
 33
0.0
 16
1.0
 26
0.0
 36
0.0
 17
0.0
 27
1.0
 37
0.0
 76
     0
330
6E
331
72
  0
LAYOUT
  5
22
102
{ACAD_REACTORS
330
1A
102
}
330
1A
100
AcDbPlotSettings
  1

  2
none_device
  4
Letter_(8.50_x_11.00_Inches)
  6

 40
6.35
 41
6.35
 42
6.350005
 43
6.350005
 44
215.9
 45
279.4
 46
0.0
 47
0.0
 48
0.0
 49
0.0
140
0.0
141
0.0
142
1.0
143
1.0
 70
  1712
 72
     0
 73
     0
 74
     0
  7

 75
     0
 76
     0
 77
     2
 78
   300
147
1.0
148
0.0
149
0.0
100
AcDbLayout
  1
Model
 70
     1
 71
     0
 10
7.284505
 20
-0.939177
 11
8.334536
 21
0.545823
 12
0.0
 22
0.0
 32
0.0
 14
7.284505
 24
-0.939177
 34
7.284505
 15
8.334536
 25
0.545823
 35
8.334536
146
0.0
 13
0.0
 23
0.0
 33
0.0
 16
1.0
 26
0.0
 36
0.0
 17
0.0
 27
1.0
 37
0.0
 76
     0
330
1F
331
29
  0
MATERIAL
  5
45
102
{ACAD_REACTORS
330
43
102
}
330
43
100
AcDbMaterial
  1
ByBlock
 72
     1
 94
      127
  0
MATERIAL
  5
44
102
{ACAD_REACTORS
330
43
102
}
330
43
100
AcDbMaterial
  1
ByLayer
 72
     1
 94
      127
  0
MATERIAL
  5
46
102
{ACAD_REACTORS
330
43
102
}
330
43
100
AcDbMaterial
  1
Global
 72
     1
 94
      127
  0
MLEADERSTYLE
  5
6C
102
{ACAD_REACTORS
330
6B
102
}
330
6B
100
AcDbMLeaderStyle
179
     2
170
     2
171
     1
172
     0
 90
        2
 40
0.0
 41
0.0
173
     1
 91
-1056964608
340
14
 92
       -2
290
     1
 42
0.09
291
     1
 43
0.36
  3
Standard
341
0
 44
0.18
300

342
11
174
     1
178
     6
175
     1
176
     0
 93
-1056964608
 45
0.18
292
     0
297
     0
 46
0.18
343
0
 94
-1056964608
 47
1.0
 49
1.0
140
1.0
293
     1
141
0.0
294
     1
177
     0
142
1.0
295
     0
296
     0
143
0.125
271
     0
272
     9
273
     9
  0
MLINESTYLE
  5
18
102
{ACAD_REACTORS
330
17
102
}
330
17
100
AcDbMlineStyle
  2
Standard
 70
     0
  3

 62
   256
 51
90.0
 52
90.0
 71
     2
 49
0.5
 62
   256
  6
BYLAYER
 49
-0.5
 62
   256
  6
BYLAYER
  0
ACDBPLACEHOLDER
  5
F
102
{ACAD_REACTORS
330
E
102
}
330
E
  0
SCALE
  5
48
102
{ACAD_REACTORS
330
47
102
}
330
47
100
AcDbScale
 70
     0
300
1:1
140
1.0
141
1.0
290
     1
  0
SCALE
  5
49
102
{ACAD_REACTORS
330
47
102
}
330
47
100
AcDbScale
 70
     0
300
1:2
140
1.0
141
2.0
290
     0
  0
SCALE
  5
4A
102
{ACAD_REACTORS
330
47
102
}
330
47
100
AcDbScale
 70
     0
300
1:4
140
1.0
141
4.0
290
     0
  0
SCALE
  5
4B
102
{ACAD_REACTORS
330
47
102
}
330
47
100
AcDbScale
 70
     0
300
1:5
140
1.0
141
5.0
290
     0
  0
SCALE
  5
4C
102
{ACAD_REACTORS
330
47
102
}
330
47
100
AcDbScale
 70
     0
300
1:8
140
1.0
141
8.0
290
     0
  0
SCALE
  5
4D
102
{ACAD_REACTORS
330
47
102
}
330
47
100
AcDbScale
 70
     0
300
1:10
140
1.0
141
10.0
290
     0
  0
SCALE
  5
4E
102
{ACAD_REACTORS
330
47
102
}
330
47
100
AcDbScale
 70
     0
300
1:16
140
1.0
141
16.0
290
     0
  0
SCALE
  5
4F
102
{ACAD_REACTORS
330
47
102
}
330
47
100
AcDbScale
 70
     0
300
1:20
140
1.0
141
20.0
290
     0
  0
SCALE
  5
50
102
{ACAD_REACTORS
330
47
102
}
330
47
100
AcDbScale
 70
     0
300
1:30
140
1.0
141
30.0
290
     0
  0
SCALE
  5
51
102
{ACAD_REACTORS
330
47
102
}
330
47
100
AcDbScale
 70
     0
300
1:40
140
1.0
141
40.0
290
     0
  0
SCALE
  5
52
102
{ACAD_REACTORS
330
47
102
}
330
47
100
AcDbScale
 70
     0
300
1:50
140
1.0
141
50.0
290
     0
  0
SCALE
  5
53
102
{ACAD_REACTORS
330
47
102
}
330
47
100
AcDbScale
 70
     0
300
1:100
140
1.0
141
100.0
290
     0
  0
SCALE
  5
54
102
{ACAD_REACTORS
330
47
102
}
330
47
100
AcDbScale
 70
     0
300
2:1
140
2.0
141
1.0
290
     0
  0
SCALE
  5
55
102
{ACAD_REACTORS
330
47
102
}
330
47
100
AcDbScale
 70
     0
300
4:1
140
4.0
141
1.0
290
     0
  0
SCALE
  5
56
102
{ACAD_REACTORS
330
47
102
}
330
47
100
AcDbScale
 70
     0
300
8:1
140
8.0
141
1.0
290
     0
  0
SCALE
  5
57
102
{ACAD_REACTORS
330
47
102
}
330
47
100
AcDbScale
 70
     0
300
10:1
140
10.0
141
1.0
290
     0
  0
SCALE
  5
58
102
{ACAD_REACTORS
330
47
102
}
330
47
100
AcDbScale
 70
     0
300
100:1
140
100.0
141
1.0
290
     0
  0
SCALE
  5
59
102
{ACAD_REACTORS
330
47
102
}
330
47
100
AcDbScale
 70
     0
300
1/128" = 1'-0"
140
0.007812
141
12.0
290
     0
  0
SCALE
  5
5A
102
{ACAD_REACTORS
330
47
102
}
330
47
100
AcDbScale
 70
     0
300
1/64" = 1'-0"
140
0.015625
141
12.0
290
     0
  0
SCALE
  5
5B
102
{ACAD_REACTORS
330
47
102
}
330
47
100
AcDbScale
 70
     0
300
1/32" = 1'-0"
140
0.03125
141
12.0
290
     0
  0
SCALE
  5
5C
102
{ACAD_REACTORS
330
47
102
}
330
47
100
AcDbScale
 70
     0
300
1/16" = 1'-0"
140
0.0625
141
12.0
290
     0
  0
SCALE
  5
5D
102
{ACAD_REACTORS
330
47
102
}
330
47
100
AcDbScale
 70
     0
300
3/32" = 1'-0"
140
0.09375
141
12.0
290
     0
  0
SCALE
  5
5E
102
{ACAD_REACTORS
330
47
102
}
330
47
100
AcDbScale
 70
     0
300
1/8" = 1'-0"
140
0.125
141
12.0
290
     0
  0
SCALE
  5
5F
102
{ACAD_REACTORS
330
47
102
}
330
47
100
AcDbScale
 70
     0
300
3/16" = 1'-0"
140
0.1875
141
12.0
290
     0
  0
SCALE
  5
60
102
{ACAD_REACTORS
330
47
102
}
330
47
100
AcDbScale
 70
     0
300
1/4" = 1'-0"
140
0.25
141
12.0
290
     0
  0
SCALE
  5
61
102
{ACAD_REACTORS
330
47
102
}
330
47
100
AcDbScale
 70
     0
300
3/8" = 1'-0"
140
0.375
141
12.0
290
     0
  0
SCALE
  5
62
102
{ACAD_REACTORS
330
47
102
}
330
47
100
AcDbScale
 70
     0
300
1/2" = 1'-0"
140
0.5
141
12.0
290
     0
  0
SCALE
  5
63
102
{ACAD_REACTORS
330
47
102
}
330
47
100
AcDbScale
 70
     0
300
3/4" = 1'-0"
140
0.75
141
12.0
290
     0
  0
SCALE
  5
64
102
{ACAD_REACTORS
330
47
102
}
330
47
100
AcDbScale
 70
     0
300
1" = 1'-0"
140
1.0
141
12.0
290
     0
  0
SCALE
  5
65
102
{ACAD_REACTORS
330
47
102
}
330
47
100
AcDbScale
 70
     0
300
1-1/2" = 1'-0"
140
1.5
141
12.0
290
     0
  0
SCALE
  5
66
102
{ACAD_REACTORS
330
47
102
}
330
47
100
AcDbScale
 70
     0
300
3" = 1'-0"
140
3.0
141
12.0
290
     0
  0
SCALE
  5
67
102
{ACAD_REACTORS
330
47
102
}
330
47
100
AcDbScale
 70
     0
300
6" = 1'-0"
140
6.0
141
12.0
290
     0
  0
SCALE
  5
68
102
{ACAD_REACTORS
330
47
102
}
330
47
100
AcDbScale
 70
     0
300
1'-0" = 1'-0"
140
12.0
141
12.0
290
     0
  0
TABLESTYLE
  5
6A
102
{ACAD_REACTORS
330
69
102
}
102
{ACAD_XDICTIONARY
360
1FA
102
}
330
69
100
AcDbTableStyle
  3
Standard
 70
     0
 71
     0
 40
0.06
 41
0.06
280
     0
281
     0
  7
Standard
140
0.18
170
     2
 62
     0
 63
   257
283
     0
 90
        4
 91
        0
  1

274
    -2
284
     1
 64
     0
275
    -2
285
     1
 65
     0
276
    -2
286
     1
 66
     0
277
    -2
287
     1
 67
     0
278
    -2
288
     1
 68
     0
279
    -2
289
     1
 69
     0
  7
Standard
140
0.25
170
     5
 62
     0
 63
   257
283
     0
 90
        4
 91
        0
  1

274
    -2
284
     1
 64
     0
275
    -2
285
     1
 65
     0
276
    -2
286
     1
 66
     0
277
    -2
287
     1
 67
     0
278
    -2
288
     1
 68
     0
279
    -2
289
     1
 69
     0
  7
Standard
140
0.18
170
     5
 62
     0
 63
   257
283
     0
 90
        4
 91
        0
  1

274
    -2
284
     1
 64
     0
275
    -2
285
     1
 65
     0
276
    -2
286
     1
 66
     0
277
    -2
287
     1
 67
     0
278
    -2
288
     1
 68
     0
279
    -2
289
     1
 69
     0
  0
VISUALSTYLE
  5
2F
102
{ACAD_REACTORS
330
2A
102
}
102
{ACAD_XDICTIONARY
360
1D2
102
}
330
2A
100
AcDbVisualStyle
  2
2dWireframe
 70
     4
177
     2
291
     0
 71
     0
176
     1
 72
     2
176
     1
 73
     0
176
     1
 90
        0
176
     1
 40
0.6
176
     1
 41
30.0
176
     1
 62
     5
 63
     7
421
 16777215
176
     1
 74
     1
176
     1
 91
        4
176
     1
 64
     7
176
     1
 65
   257
176
     1
 75
     1
176
     1
175
     1
176
     1
 42
1.0
176
     1
 92
        0
176
     1
 66
   257
176
     1
 43
1.0
176
     1
 76
     1
176
     1
 77
     6
176
     1
 78
     2
176
     1
 67
     7
176
     1
 79
     5
176
     1
170
     0
176
     1
171
     0
176
     1
290
     0
176
     1
 93
        1
176
     1
 44
0.0
176
     1
173
     0
176
     1
  0
VISUALSTYLE
  5
32
102
{ACAD_REACTORS
330
2A
102
}
102
{ACAD_XDICTIONARY
360
1D8
102
}
330
2A
100
AcDbVisualStyle
  2
Basic
 70
     7
177
     2
291
     1
 71
     1
176
     1
 72
     0
176
     1
 73
     1
176
     1
 90
        0
176
     1
 40
0.6
176
     1
 41
30.0
176
     1
 62
     5
 63
     7
421
 16777215
176
     1
 74
     0
176
     1
 91
        4
176
     1
 64
     7
176
     1
 65
   257
176
     1
 75
     1
176
     1
175
     1
176
     1
 42
1.0
176
     1
 92
        8
176
     1
 66
     7
176
     1
 43
1.0
176
     1
 76
     1
176
     1
 77
     6
176
     1
 78
     2
176
     1
 67
     7
176
     1
 79
     5
176
     1
170
     0
176
     1
171
     0
176
     1
290
     0
176
     1
 93
        1
176
     1
 44
0.0
176
     1
173
     0
176
     1
  0
VISUALSTYLE
  5
36
102
{ACAD_REACTORS
330
2A
102
}
102
{ACAD_XDICTIONARY
360
1E0
102
}
330
2A
100
AcDbVisualStyle
  2
Brighten
 70
    12
177
     2
291
     1
 71
     2
176
     1
 72
     2
176
     1
 73
     0
176
     1
 90
        0
176
     1
 40
0.6
176
     1
 41
30.0
176
     1
 62
     5
 63
     7
421
 16777215
176
     1
 74
     1
176
     1
 91
        4
176
     1
 64
     7
176
     1
 65
   257
176
     1
 75
     1
176
     1
175
     1
176
     1
 42
1.0
176
     1
 92
        8
176
     1
 66
     7
176
     1
 43
1.0
176
     1
 76
     1
176
     1
 77
     6
176
     1
 78
     2
176
     1
 67
     7
176
     1
 79
     5
176
     1
170
     0
176
     1
171
     0
176
     1
290
     0
176
     1
 93
        1
176
     1
 44
50.0
176
     1
173
     0
176
     1
  0
VISUALSTYLE
  5
3A
102
{ACAD_REACTORS
330
2A
102
}
102
{ACAD_XDICTIONARY
360
1E8
102
}
330
2A
100
AcDbVisualStyle
  2
ColorChange
 70
    16
177
     2
291
     1
 71
     2
176
     1
 72
     2
176
     1
 73
     3
176
     1
 90
        0
176
     1
 40
0.6
176
     1
 41
30.0
176
     1
 62
     5
 63
     8
421
  8421504
176
     1
 74
     1
176
     1
 91
        4
176
     1
 64
     7
176
     1
 65
   257
176
     1
 75
     1
176
     1
175
     1
176
     1
 42
1.0
176
     1
 92
        8
176
     1
 66
     8
424
  8421504
176
     1
 43
1.0
176
     1
 76
     1
176
     1
 77
     6
176
     1
 78
     2
176
     1
 67
     7
176
     1
 79
     5
176
     1
170
     0
176
     1
171
     0
176
     1
290
     0
176
     1
 93
        1
176
     1
 44
0.0
176
     1
173
     0
176
     1
  0
VISUALSTYLE
  5
34
102
{ACAD_REACTORS
330
2A
102
}
102
{ACAD_XDICTIONARY
360
1DC
102
}
330
2A
100
AcDbVisualStyle
  2
Conceptual
 70
     9
177
     2
291
     0
 71
     3
176
     1
 72
     2
176
     1
 73
     0
176
     1
 90
        0
176
     1
 40
0.6
176
     1
 41
30.0
176
     1
 62
     5
 63
     7
421
 16777215
176
     1
 74
     2
176
     1
 91
        2
176
     1
 64
     7
176
     1
 65
   257
176
     1
 75
     1
176
     1
175
     1
176
     1
 42
179.0
176
     1
 92
        8
176
     1
 66
     7
176
     1
 43
1.0
176
     1
 76
     1
176
     1
 77
     6
176
     1
 78
     2
176
     1
 67
     7
176
     1
 79
     3
176
     1
170
     0
176
     1
171
     0
176
     1
290
     0
176
     1
 93
        1
176
     1
 44
0.0
176
     1
173
     0
176
     1
  0
VISUALSTYLE
  5
35
102
{ACAD_REACTORS
330
2A
102
}
102
{ACAD_XDICTIONARY
360
1DE
102
}
330
2A
100
AcDbVisualStyle
  2
Dim
 70
    11
177
     2
291
     1
 71
     2
176
     1
 72
     2
176
     1
 73
     0
176
     1
 90
        0
176
     1
 40
0.6
176
     1
 41
30.0
176
     1
 62
     5
 63
     7
421
 16777215
176
     1
 74
     1
176
     1
 91
        4
176
     1
 64
     7
176
     1
 65
   257
176
     1
 75
     1
176
     1
175
     1
176
     1
 42
1.0
176
     1
 92
        8
176
     1
 66
     7
176
     1
 43
1.0
176
     1
 76
     1
176
     1
 77
     6
176
     1
 78
     2
176
     1
 67
     7
176
     1
 79
     5
176
     1
170
     0
176
     1
171
     0
176
     1
290
     0
176
     1
 93
        1
176
     1
 44
-50.0
176
     1
173
     0
176
     1
  0
VISUALSTYLE
  5
3D
102
{ACAD_REACTORS
330
2A
102
}
102
{ACAD_XDICTIONARY
360
1EE
102
}
330
2A
100
AcDbVisualStyle
  2
EdgeColorOff
 70
    22
177
     2
291
     1
 71
     2
176
     0
 72
     2
176
     0
 73
     0
176
     0
 90
        0
176
     0
 40
0.6
176
     0
 41
30.0
176
     0
 62
     5
 63
     7
421
 16777215
176
     0
 74
     1
176
     0
 91
        4
176
     0
 64
     7
176
     0
 65
   257
176
     0
 75
     1
176
     0
175
     1
176
     0
 42
1.0
176
     0
 92
        8
176
     2
 66
     7
176
     0
 43
1.0
176
     0
 76
     1
176
     0
 77
     6
176
     0
 78
     2
176
     0
 67
     7
176
     0
 79
     5
176
     0
170
     0
176
     0
171
     0
176
     0
290
     0
176
     0
 93
        1
176
     0
 44
0.0
176
     0
173
     0
176
     0
  0
VISUALSTYLE
  5
39
102
{ACAD_REACTORS
330
2A
102
}
102
{ACAD_XDICTIONARY
360
1E6
102
}
330
2A
100
AcDbVisualStyle
  2
Facepattern
 70
    15
177
     2
291
     1
 71
     2
176
     1
 72
     2
176
     1
 73
     0
176
     1
 90
        0
176
     1
 40
0.6
176
     1
 41
30.0
176
     1
 62
     5
 63
     7
421
 16777215
176
     1
 74
     1
176
     1
 91
        4
176
     1
 64
     7
176
     1
 65
   257
176
     1
 75
     1
176
     1
175
     1
176
     1
 42
1.0
176
     1
 92
        8
176
     1
 66
     7
176
     1
 43
1.0
176
     1
 76
     1
176
     1
 77
     6
176
     1
 78
     2
176
     1
 67
     7
176
     1
 79
     5
176
     1
170
     0
176
     1
171
     0
176
     1
290
     0
176
     1
 93
        1
176
     1
 44
0.0
176
     1
173
     0
176
     1
  0
VISUALSTYLE
  5
2B
102
{ACAD_REACTORS
330
2A
102
}
102
{ACAD_XDICTIONARY
360
1CA
102
}
330
2A
100
AcDbVisualStyle
  2
Flat
 70
     0
177
     2
291
     1
 71
     2
176
     1
 72
     1
176
     1
 73
     1
176
     1
 90
        2
176
     1
 40
0.6
176
     1
 41
30.0
176
     1
 62
     5
 63
     7
421
 16777215
176
     1
 74
     0
176
     1
 91
        0
176
     1
 64
     7
176
     1
 65
   257
176
     1
 75
     1
176
     1
175
     1
176
     1
 42
1.0
176
     1
 92
        8
176
     1
 66
     7
176
     1
 43
1.0
176
     1
 76
     1
176
     1
 77
     6
176
     1
 78
     2
176
     1
 67
     7
176
     1
 79
     5
176
     1
170
     0
176
     1
171
     0
176
     1
290
     0
176
     1
 93
       13
176
     1
 44
0.0
176
     1
173
     0
176
     1
  0
VISUALSTYLE
  5
2C
102
{ACAD_REACTORS
330
2A
102
}
102
{ACAD_XDICTIONARY
360
1CC
102
}
330
2A
100
AcDbVisualStyle
  2
FlatWithEdges
 70
     1
177
     2
291
     1
 71
     2
176
     1
 72
     1
176
     1
 73
     1
176
     1
 90
        2
176
     1
 40
0.6
176
     1
 41
30.0
176
     1
 62
     5
 63
     7
421
 16777215
176
     1
 74
     1
176
     1
 91
        0
176
     1
 64
     7
176
     1
 65
   257
176
     1
 75
     1
176
     1
175
     1
176
     1
 42
1.0
176
     1
 92
        0
176
     1
 66
   257
176
     1
 43
1.0
176
     1
 76
     1
176
     1
 77
     6
176
     1
 78
     2
176
     1
 67
     7
176
     1
 79
     5
176
     1
170
     0
176
     1
171
     0
176
     1
290
     0
176
     1
 93
       13
176
     1
 44
0.0
176
     1
173
     0
176
     1
  0
VISUALSTYLE
  5
2D
102
{ACAD_REACTORS
330
2A
102
}
102
{ACAD_XDICTIONARY
360
1CE
102
}
330
2A
100
AcDbVisualStyle
  2
Gouraud
 70
     2
177
     2
291
     1
 71
     2
176
     1
 72
     2
176
     1
 73
     1
176
     1
 90
        2
176
     1
 40
0.6
176
     1
 41
30.0
176
     1
 62
     5
 63
     7
421
 16777215
176
     1
 74
     0
176
     1
 91
        0
176
     1
 64
     7
176
     1
 65
   257
176
     1
 75
     1
176
     1
175
     1
176
     1
 42
1.0
176
     1
 92
        0
176
     1
 66
     7
176
     1
 43
1.0
176
     1
 76
     1
176
     1
 77
     6
176
     1
 78
     2
176
     1
 67
     7
176
     1
 79
     5
176
     1
170
     0
176
     1
171
     0
176
     1
290
     0
176
     1
 93
       13
176
     1
 44
0.0
176
     1
173
     0
176
     1
  0
VISUALSTYLE
  5
2E
102
{ACAD_REACTORS
330
2A
102
}
102
{ACAD_XDICTIONARY
360
1D0
102
}
330
2A
100
AcDbVisualStyle
  2
GouraudWithEdges
 70
     3
177
     2
291
     1
 71
     2
176
     1
 72
     2
176
     1
 73
     1
176
     1
 90
        2
176
     1
 40
0.6
176
     1
 41
30.0
176
     1
 62
     5
 63
     7
421
 16777215
176
     1
 74
     1
176
     1
 91
        0
176
     1
 64
     7
176
     1
 65
   257
176
     1
 75
     1
176
     1
175
     1
176
     1
 42
1.0
176
     1
 92
        0
176
     1
 66
   257
176
     1
 43
1.0
176
     1
 76
     1
176
     1
 77
     6
176
     1
 78
     2
176
     1
 67
     7
176
     1
 79
     5
176
     1
170
     0
176
     1
171
     0
176
     1
290
     0
176
     1
 93
       13
176
     1
 44
0.0
176
     1
173
     0
176
     1
  0
VISUALSTYLE
  5
31
102
{ACAD_REACTORS
330
2A
102
}
102
{ACAD_XDICTIONARY
360
1D6
102
}
330
2A
100
AcDbVisualStyle
  2
Hidden
 70
     6
177
     2
291
     0
 71
     1
176
     1
 72
     2
176
     1
 73
     2
176
     1
 90
        0
176
     1
 40
0.6
176
     1
 41
30.0
176
     1
 62
     5
 63
     7
421
 16777215
176
     1
 74
     2
176
     1
 91
        2
176
     1
 64
     7
176
     1
 65
   257
176
     1
 75
     2
176
     1
175
     1
176
     1
 42
40.0
176
     1
 92
        0
176
     1
 66
   257
176
     1
 43
1.0
176
     1
 76
     1
176
     1
 77
     6
176
     1
 78
     2
176
     1
 67
     7
176
     1
 79
     3
176
     1
170
     0
176
     1
171
     0
176
     1
290
     0
176
     1
 93
        1
176
     1
 44
0.0
176
     1
173
     0
176
     1
  0
VISUALSTYLE
  5
3B
102
{ACAD_REACTORS
330
2A
102
}
102
{ACAD_XDICTIONARY
360
1EA
102
}
330
2A
100
AcDbVisualStyle
  2
JitterOff
 70
    20
177
     2
291
     1
 71
     2
176
     0
 72
     2
176
     0
 73
     0
176
     0
 90
        0
176
     0
 40
0.6
176
     0
 41
30.0
176
     0
 62
     5
 63
     7
421
 16777215
176
     0
 74
     1
176
     0
 91
        4
176
     0
 64
     7
176
     0
 65
   257
176
     0
 75
     1
176
     0
175
     1
176
     0
 42
1.0
176
     0
 92
       10
176
     2
 66
     7
176
     0
 43
1.0
176
     0
 76
     1
176
     0
 77
     6
176
     0
 78
     2
176
     0
 67
     7
176
     0
 79
     5
176
     0
170
     0
176
     0
171
     0
176
     0
290
     0
176
     0
 93
        1
176
     0
 44
0.0
176
     0
173
     0
176
     0
  0
VISUALSTYLE
  5
38
102
{ACAD_REACTORS
330
2A
102
}
102
{ACAD_XDICTIONARY
360
1E4
102
}
330
2A
100
AcDbVisualStyle
  2
Linepattern
 70
    14
177
     2
291
     1
 71
     2
176
     1
 72
     2
176
     1
 73
     0
176
     1
 90
        0
176
     1
 40
0.6
176
     1
 41
30.0
176
     1
 62
     5
 63
     7
421
 16777215
176
     1
 74
     1
176
     1
 91
        4
176
     1
 64
     7
176
     1
 65
   257
176
     1
 75
     7
176
     1
175
     7
176
     1
 42
1.0
176
     1
 92
        8
176
     1
 66
     7
176
     1
 43
1.0
176
     1
 76
     1
176
     1
 77
     6
176
     1
 78
     2
176
     1
 67
     7
176
     1
 79
     5
176
     1
170
     0
176
     1
171
     0
176
     1
290
     0
176
     1
 93
        1
176
     1
 44
0.0
176
     1
173
     0
176
     1
  0
VISUALSTYLE
  5
3C
102
{ACAD_REACTORS
330
2A
102
}
102
{ACAD_XDICTIONARY
360
1EC
102
}
330
2A
100
AcDbVisualStyle
  2
OverhangOff
 70
    21
177
     2
291
     1
 71
     2
176
     0
 72
     2
176
     0
 73
     0
176
     0
 90
        0
176
     0
 40
0.6
176
     0
 41
30.0
176
     0
 62
     5
 63
     7
421
 16777215
176
     0
 74
     1
176
     0
 91
        4
176
     0
 64
     7
176
     0
 65
   257
176
     0
 75
     1
176
     0
175
     1
176
     0
 42
1.0
176
     0
 92
        9
176
     2
 66
     7
176
     0
 43
1.0
176
     0
 76
     1
176
     0
 77
     6
176
     0
 78
     2
176
     0
 67
     7
176
     0
 79
     5
176
     0
170
     0
176
     0
171
     0
176
     0
290
     0
176
     0
 93
        1
176
     0
 44
0.0
176
     0
173
     0
176
     0
  0
VISUALSTYLE
  5
33
102
{ACAD_REACTORS
330
2A
102
}
102
{ACAD_XDICTIONARY
360
1DA
102
}
330
2A
100
AcDbVisualStyle
  2
Realistic
 70
     8
177
     2
291
     0
 71
     2
176
     1
 72
     3
176
     1
 73
     0
176
     1
 90
        2
176
     1
 40
0.6
176
     1
 41
30.0
176
     1
 62
     5
 63
     7
421
 16777215
176
     1
 74
     0
176
     1
 91
        0
176
     1
 64
     7
176
     1
 65
   257
176
     1
 75
     1
176
     1
175
     1
176
     1
 42
1.0
176
     1
 92
        8
176
     1
 66
   257
176
     1
 43
1.0
176
     1
 76
     1
176
     1
 77
     6
176
     1
 78
     2
176
     1
 67
     7
176
     1
 79
     3
176
     1
170
     0
176
     1
171
     0
176
     1
290
     0
176
     1
 93
       13
176
     1
 44
0.0
176
     1
173
     0
176
     1
  0
VISUALSTYLE
  5
42
102
{ACAD_REACTORS
330
2A
102
}
102
{ACAD_XDICTIONARY
360
1F8
102
}
330
2A
100
AcDbVisualStyle
  2
Shaded
 70
    27
177
     2
291
     0
 71
     2
176
     1
 72
     2
176
     1
 73
     1
176
     1
 90
        2
176
     1
 40
0.6
176
     1
 41
30.0
176
     1
 62
     5
 63
     7
421
 16777215
176
     1
 74
     0
176
     1
 91
        4
176
     1
 64
     7
176
     1
 65
   257
176
     1
 75
     1
176
     1
175
     1
176
     1
 42
1.0
176
     1
 92
        8
176
     1
 66
   257
176
     1
 43
1.0
176
     1
 76
     1
176
     1
 77
     6
176
     1
 78
     2
176
     1
 67
     8
425
  7895160
176
     1
 79
     3
176
     1
170
     0
176
     1
171
     0
176
     1
290
     0
176
     1
 93
        5
176
     1
 44
0.0
176
     1
173
     0
176
     1
  0
VISUALSTYLE
  5
41
102
{ACAD_REACTORS
330
2A
102
}
102
{ACAD_XDICTIONARY
360
1F6
102
}
330
2A
100
AcDbVisualStyle
  2
Shaded with edges
 70
    26
177
     2
291
     0
 71
     2
176
     1
 72
     2
176
     1
 73
     1
176
     1
 90
        2
176
     1
 40
0.6
176
     1
 41
30.0
176
     1
 62
     5
 63
     7
421
 16777215
176
     1
 74
     1
176
     1
 91
       10
176
     1
 64
     7
176
     1
 65
   257
176
     1
 75
     2
176
     1
175
     1
176
     1
 42
1.0
176
     1
 92
        8
176
     1
 66
   257
176
     1
 43
1.0
176
     1
 76
     1
176
     1
 77
     6
176
     1
 78
     2
176
     1
 67
     7
176
     1
 79
     3
176
     1
170
     0
176
     1
171
     0
176
     1
290
     0
176
     1
 93
        5
176
     1
 44
0.0
176
     1
173
     0
176
     1
  0
VISUALSTYLE
  5
3E
102
{ACAD_REACTORS
330
2A
102
}
102
{ACAD_XDICTIONARY
360
1F0
102
}
330
2A
100
AcDbVisualStyle
  2
Shades of Gray
 70
    23
177
     2
291
     0
 71
     2
176
     1
 72
     2
176
     1
 73
     3
176
     1
 90
        0
176
     1
 40
0.6
176
     1
 41
30.0
176
     1
 62
     5
 63
     7
421
 16777215
176
     1
 74
     2
176
     1
 91
        2
176
     1
 64
     7
176
     1
 65
     7
176
     1
 75
     1
176
     1
175
     1
176
     1
 42
40.0
176
     1
 92
        8
176
     1
 66
     7
176
     1
 43
1.0
176
     1
 76
     1
176
     1
 77
     6
176
     1
 78
     2
176
     1
 67
     7
176
     1
 79
     3
176
     1
170
     0
176
     1
171
     0
176
     1
290
     0
176
     1
 93
        1
176
     1
 44
0.0
176
     1
173
     0
176
     1
  0
VISUALSTYLE
  5
3F
102
{ACAD_REACTORS
330
2A
102
}
102
{ACAD_XDICTIONARY
360
1F2
102
}
330
2A
100
AcDbVisualStyle
  2
Sketchy
 70
    24
177
     2
291
     0
 71
     1
176
     1
 72
     2
176
     1
 73
     2
176
     1
 90
        0
176
     1
 40
0.6
176
     1
 41
30.0
176
     1
 62
     5
 63
     7
421
 16777215
176
     1
 74
     2
176
     1
 91
        2
176
     1
 64
     7
176
     1
 65
     7
176
     1
 75
     1
176
     1
175
     1
176
     1
 42
40.0
176
     1
 92
       11
176
     1
 66
     7
176
     1
 43
1.0
176
     1
 76
     1
176
     1
 77
     6
176
     1
 78
     2
176
     1
 67
     7
176
     1
 79
     6
176
     1
170
     0
176
     1
171
     0
176
     1
290
     0
176
     1
 93
        1
176
     1
 44
0.0
176
     1
173
     0
176
     1
  0
VISUALSTYLE
  5
37
102
{ACAD_REACTORS
330
2A
102
}
102
{ACAD_XDICTIONARY
360
1E2
102
}
330
2A
100
AcDbVisualStyle
  2
Thicken
 70
    13
177
     2
291
     1
 71
     2
176
     1
 72
     2
176
     1
 73
     0
176
     1
 90
        0
176
     1
 40
0.6
176
     1
 41
30.0
176
     1
 62
     5
 63
     7
421
 16777215
176
     1
 74
     1
176
     1
 91
        4
176
     1
 64
     7
176
     1
 65
   257
176
     1
 75
     1
176
     1
175
     1
176
     1
 42
1.0
176
     1
 92
       12
176
     1
 66
     7
176
     1
 43
1.0
176
     1
 76
     1
176
     1
 77
     6
176
     1
 78
     2
176
     1
 67
     7
176
     1
 79
     5
176
     1
170
     0
176
     1
171
     0
176
     1
290
     0
176
     1
 93
        1
176
     1
 44
0.0
176
     1
173
     0
176
     1
  0
VISUALSTYLE
  5
30
102
{ACAD_REACTORS
330
2A
102
}
102
{ACAD_XDICTIONARY
360
1D4
102
}
330
2A
100
AcDbVisualStyle
  2
Wireframe
 70
     5
177
     2
291
     0
 71
     0
176
     1
 72
     2
176
     1
 73
     0
176
     1
 90
        0
176
     1
 40
0.6
176
     1
 41
30.0
176
     1
 62
     5
 63
     7
421
 16777215
176
     1
 74
     1
176
     1
 91
        4
176
     1
 64
     7
176
     1
 65
   257
176
     1
 75
     1
176
     1
175
     1
176
     1
 42
1.0
176
     1
 92
        0
176
     1
 66
   257
176
     1
 43
1.0
176
     1
 76
     1
176
     1
 77
     6
176
     1
 78
     2
176
     1
 67
     7
176
     1
 79
     3
176
     1
170
     0
176
     1
171
     0
176
     1
290
     0
176
     1
 93
        1
176
     1
 44
0.0
176
     1
173
     0
176
     1
  0
VISUALSTYLE
  5
40
102
{ACAD_REACTORS
330
2A
102
}
102
{ACAD_XDICTIONARY
360
1F4
102
}
330
2A
100
AcDbVisualStyle
  2
X-Ray
 70
    25
177
     2
291
     0
 71
     2
176
     1
 72
     2
176
     1
 73
     1
176
     1
 90
        1
176
     1
 40
0.5
176
     1
 41
30.0
176
     1
 62
     5
 63
     7
421
 16777215
176
     1
 74
     1
176
     1
 91
        0
176
     1
 64
     7
176
     1
 65
   257
176
     1
 75
     1
176
     1
175
     1
176
     1
 42
1.0
176
     1
 92
        8
176
     1
 66
     7
176
     1
 43
1.0
176
     1
 76
     1
176
     1
 77
     6
176
     1
 78
     2
176
     1
 67
     7
176
     1
 79
     3
176
     1
170
     0
176
     1
171
     0
176
     1
290
     0
176
     1
 93
       13
176
     1
 44
0.0
176
     1
173
     0
176
     1
  0
DICTIONARYVAR
  5
1C9
102
{ACAD_REACTORS
330
1C8
102
}
330
1C8
100
DictionaryVariables
280
     0
  1
1:1
  0
DICTIONARYVAR
  5
1FE
102
{ACAD_REACTORS
330
1C8
102
}
330
1C8
100
DictionaryVariables
280
     0
  1
Standard
  0
DICTIONARYVAR
  5
1FD
102
{ACAD_REACTORS
330
1C8
102
}
330
1C8
100
DictionaryVariables
280
     0
  1
Standard
  0
DICTIONARY
  5
1FA
330
6A
100
AcDbDictionary
280
     1
281
     1
  3
ACAD_ROUNDTRIP_2008_TABLESTYLE_CELLSTYLEMAP
360
1FB
  0
DICTIONARY
  5
1D2
330
2F
100
AcDbDictionary
280
     1
281
     1
  3
ACAD_XREC_ROUNDTRIP
360
1D3
  0
DICTIONARY
  5
1D8
330
32
100
AcDbDictionary
280
     1
281
     1
  3
ACAD_XREC_ROUNDTRIP
360
1D9
  0
DICTIONARY
  5
1E0
330
36
100
AcDbDictionary
280
     1
281
     1
  3
ACAD_XREC_ROUNDTRIP
360
1E1
  0
DICTIONARY
  5
1E8
330
3A
100
AcDbDictionary
280
     1
281
     1
  3
ACAD_XREC_ROUNDTRIP
360
1E9
  0
DICTIONARY
  5
1DC
330
34
100
AcDbDictionary
280
     1
281
     1
  3
ACAD_XREC_ROUNDTRIP
360
1DD
  0
DICTIONARY
  5
1DE
330
35
100
AcDbDictionary
280
     1
281
     1
  3
ACAD_XREC_ROUNDTRIP
360
1DF
  0
DICTIONARY
  5
1EE
330
3D
100
AcDbDictionary
280
     1
281
     1
  3
ACAD_XREC_ROUNDTRIP
360
1EF
  0
DICTIONARY
  5
1E6
330
39
100
AcDbDictionary
280
     1
281
     1
  3
ACAD_XREC_ROUNDTRIP
360
1E7
  0
DICTIONARY
  5
1CA
330
2B
100
AcDbDictionary
280
     1
281
     1
  3
ACAD_XREC_ROUNDTRIP
360
1CB
  0
DICTIONARY
  5
1CC
330
2C
100
AcDbDictionary
280
     1
281
     1
  3
ACAD_XREC_ROUNDTRIP
360
1CD
  0
DICTIONARY
  5
1CE
330
2D
100
AcDbDictionary
280
     1
281
     1
  3
ACAD_XREC_ROUNDTRIP
360
1CF
  0
DICTIONARY
  5
1D0
330
2E
100
AcDbDictionary
280
     1
281
     1
  3
ACAD_XREC_ROUNDTRIP
360
1D1
  0
DICTIONARY
  5
1D6
330
31
100
AcDbDictionary
280
     1
281
     1
  3
ACAD_XREC_ROUNDTRIP
360
1D7
  0
DICTIONARY
  5
1EA
330
3B
100
AcDbDictionary
280
     1
281
     1
  3
ACAD_XREC_ROUNDTRIP
360
1EB
  0
DICTIONARY
  5
1E4
330
38
100
AcDbDictionary
280
     1
281
     1
  3
ACAD_XREC_ROUNDTRIP
360
1E5
  0
DICTIONARY
  5
1EC
330
3C
100
AcDbDictionary
280
     1
281
     1
  3
ACAD_XREC_ROUNDTRIP
360
1ED
  0
DICTIONARY
  5
1DA
330
33
100
AcDbDictionary
280
     1
281
     1
  3
ACAD_XREC_ROUNDTRIP
360
1DB
  0
DICTIONARY
  5
1F8
330
42
100
AcDbDictionary
280
     1
281
     1
  3
ACAD_XREC_ROUNDTRIP
360
1F9
  0
DICTIONARY
  5
1F6
330
41
100
AcDbDictionary
280
     1
281
     1
  3
ACAD_XREC_ROUNDTRIP
360
1F7
  0
DICTIONARY
  5
1F0
330
3E
100
AcDbDictionary
280
     1
281
     1
  3
ACAD_XREC_ROUNDTRIP
360
1F1
  0
DICTIONARY
  5
1F2
330
3F
100
AcDbDictionary
280
     1
281
     1
  3
ACAD_XREC_ROUNDTRIP
360
1F3
  0
DICTIONARY
  5
1E2
330
37
100
AcDbDictionary
280
     1
281
     1
  3
ACAD_XREC_ROUNDTRIP
360
1E3
  0
DICTIONARY
  5
1D4
330
30
100
AcDbDictionary
280
     1
281
     1
  3
ACAD_XREC_ROUNDTRIP
360
1D5
  0
DICTIONARY
  5
1F4
330
40
100
AcDbDictionary
280
     1
281
     1
  3
ACAD_XREC_ROUNDTRIP
360
1F5
  0
CELLSTYLEMAP
  5
1FB
102
{ACAD_REACTORS
330
1FA
102
}
330
1FA
100
AcDbCellStyleMap
 90
        3
300
CELLSTYLE
  1
TABLEFORMAT_BEGIN
 90
        5
170
     1
 91
        0
 92
    32768
 62
   257
 93
        1
300
CONTENTFORMAT
  1
CONTENTFORMAT_BEGIN
 90
        0
 91
        0
 92
        4
 93
        0
300

 40
0.0
140
1.0
 94
        5
 62
     0
340
11
144
0.25
309
CONTENTFORMAT_END
171
     1
301
MARGIN
  1
CELLMARGIN_BEGIN
 40
0.06
 40
0.06
 40
0.06
 40
0.06
 40
0.06
 40
0.06
309
CELLMARGIN_END
 94
        6
 95
        1
302
GRIDFORMAT
  1
GRIDFORMAT_BEGIN
 90
        0
 91
        1
 62
     0
 92
       -2
340
14
 93
        0
 40
0.045
309
GRIDFORMAT_END
 95
        2
302
GRIDFORMAT
  1
GRIDFORMAT_BEGIN
 90
        0
 91
        1
 62
     0
 92
       -2
340
14
 93
        0
 40
0.045
309
GRIDFORMAT_END
 95
        4
302
GRIDFORMAT
  1
GRIDFORMAT_BEGIN
 90
        0
 91
        1
 62
     0
 92
       -2
340
14
 93
        0
 40
0.045
309
GRIDFORMAT_END
 95
        8
302
GRIDFORMAT
  1
GRIDFORMAT_BEGIN
 90
        0
 91
        1
 62
     0
 92
       -2
340
14
 93
        0
 40
0.045
309
GRIDFORMAT_END
 95
       16
302
GRIDFORMAT
  1
GRIDFORMAT_BEGIN
 90
        0
 91
        1
 62
     0
 92
       -2
340
14
 93
        0
 40
0.045
309
GRIDFORMAT_END
 95
       32
302
GRIDFORMAT
  1
GRIDFORMAT_BEGIN
 90
        0
 91
        1
 62
     0
 92
       -2
340
14
 93
        0
 40
0.045
309
GRIDFORMAT_END
309
TABLEFORMAT_END
  1
CELLSTYLE_BEGIN
 90
        1
 91
        1
300
_TITLE
309
CELLSTYLE_END
300
CELLSTYLE
  1
TABLEFORMAT_BEGIN
 90
        5
170
     1
 91
        0
 92
        0
 62
   257
 93
        1
300
CONTENTFORMAT
  1
CONTENTFORMAT_BEGIN
 90
        0
 91
        0
 92
        4
 93
        0
300

 40
0.0
140
1.0
 94
        5
 62
     0
340
11
144
0.18
309
CONTENTFORMAT_END
171
     1
301
MARGIN
  1
CELLMARGIN_BEGIN
 40
0.06
 40
0.06
 40
0.06
 40
0.06
 40
0.06
 40
0.06
309
CELLMARGIN_END
 94
        6
 95
        1
302
GRIDFORMAT
  1
GRIDFORMAT_BEGIN
 90
        0
 91
        1
 62
     0
 92
       -2
340
14
 93
        0
 40
0.045
309
GRIDFORMAT_END
 95
        2
302
GRIDFORMAT
  1
GRIDFORMAT_BEGIN
 90
        0
 91
        1
 62
     0
 92
       -2
340
14
 93
        0
 40
0.045
309
GRIDFORMAT_END
 95
        4
302
GRIDFORMAT
  1
GRIDFORMAT_BEGIN
 90
        0
 91
        1
 62
     0
 92
       -2
340
14
 93
        0
 40
0.045
309
GRIDFORMAT_END
 95
        8
302
GRIDFORMAT
  1
GRIDFORMAT_BEGIN
 90
        0
 91
        1
 62
     0
 92
       -2
340
14
 93
        0
 40
0.045
309
GRIDFORMAT_END
 95
       16
302
GRIDFORMAT
  1
GRIDFORMAT_BEGIN
 90
        0
 91
        1
 62
     0
 92
       -2
340
14
 93
        0
 40
0.045
309
GRIDFORMAT_END
 95
       32
302
GRIDFORMAT
  1
GRIDFORMAT_BEGIN
 90
        0
 91
        1
 62
     0
 92
       -2
340
14
 93
        0
 40
0.045
309
GRIDFORMAT_END
309
TABLEFORMAT_END
  1
CELLSTYLE_BEGIN
 90
        2
 91
        1
300
_HEADER
309
CELLSTYLE_END
300
CELLSTYLE
  1
TABLEFORMAT_BEGIN
 90
        5
170
     1
 91
        0
 92
        0
 62
   257
 93
        1
300
CONTENTFORMAT
  1
CONTENTFORMAT_BEGIN
 90
        0
 91
        0
 92
        4
 93
        0
300

 40
0.0
140
1.0
 94
        2
 62
     0
340
11
144
0.18
309
CONTENTFORMAT_END
171
     1
301
MARGIN
  1
CELLMARGIN_BEGIN
 40
0.06
 40
0.06
 40
0.06
 40
0.06
 40
0.06
 40
0.06
309
CELLMARGIN_END
 94
        6
 95
        1
302
GRIDFORMAT
  1
GRIDFORMAT_BEGIN
 90
        0
 91
        1
 62
     0
 92
       -2
340
14
 93
        0
 40
0.045
309
GRIDFORMAT_END
 95
        2
302
GRIDFORMAT
  1
GRIDFORMAT_BEGIN
 90
        0
 91
        1
 62
     0
 92
       -2
340
14
 93
        0
 40
0.045
309
GRIDFORMAT_END
 95
        4
302
GRIDFORMAT
  1
GRIDFORMAT_BEGIN
 90
        0
 91
        1
 62
     0
 92
       -2
340
14
 93
        0
 40
0.045
309
GRIDFORMAT_END
 95
        8
302
GRIDFORMAT
  1
GRIDFORMAT_BEGIN
 90
        0
 91
        1
 62
     0
 92
       -2
340
14
 93
        0
 40
0.045
309
GRIDFORMAT_END
 95
       16
302
GRIDFORMAT
  1
GRIDFORMAT_BEGIN
 90
        0
 91
        1
 62
     0
 92
       -2
340
14
 93
        0
 40
0.045
309
GRIDFORMAT_END
 95
       32
302
GRIDFORMAT
  1
GRIDFORMAT_BEGIN
 90
        0
 91
        1
 62
     0
 92
       -2
340
14
 93
        0
 40
0.045
309
GRIDFORMAT_END
309
TABLEFORMAT_END
  1
CELLSTYLE_BEGIN
 90
        3
 91
        2
300
_DATA
309
CELLSTYLE_END
  0
XRECORD
  5
1D3
102
{ACAD_REACTORS
330
1D2
102
}
330
1D2
100
AcDbXrecord
280
     1
102
RTVSPost2010Prop28
280
     1
102
RTVSPost2010PropOp28
 70
     1
102
RTVSPost2010Prop29
280
     1
102
RTVSPost2010PropOp29
 70
     1
102
RTVSPost2010Prop30
280
     0
102
RTVSPost2010PropOp30
 70
     1
102
RTVSPost2010Prop31
280
     0
102
RTVSPost2010PropOp31
 70
     1
102
RTVSPost2010Prop32
280
     0
102
RTVSPost2010PropOp32
 70
     1
102
RTVSPost2010Prop33
280
     0
102
RTVSPost2010PropOp33
 70
     1
102
RTVSPost2010Prop34
280
     0
102
RTVSPost2010PropOp34
 70
     1
102
RTVSPost2010Prop35
280
     0
102
RTVSPost2010PropOp35
 70
     1
102
RTVSPost2010Prop36
280
     0
102
RTVSPost2010PropOp36
 70
     1
102
RTVSPost2010Prop37
 90
       50
102
RTVSPost2010PropOp37
 70
     1
102
RTVSPost2010Prop38
140
0.0
102
RTVSPost2010PropOp38
 70
     1
102
RTVSPost2010Prop39
140
1.0
102
RTVSPost2010PropOp39
 70
     1
102
RTVSPost2010Prop40
 90
        0
102
RTVSPost2010PropOp40
 70
     1
102
RTVSPost2010Prop41ColorIndex
 90
       18
102
RTVSPost2010Prop41ColorRGB
 90
        0
102
RTVSPost2010PropOp41
 70
     1
102
RTVSPost2010Prop42
 90
       50
102
RTVSPost2010PropOp42
 70
     1
102
RTVSPost2010Prop43
 90
        3
102
RTVSPost2010PropOp43
 70
     1
102
RTVSPost2010Prop44ColorIndex
 90
        5
102
RTVSPost2010Prop44ColorRGB
 90
      255
102
RTVSPost2010PropOp44
 70
     1
102
RTVSPost2010Prop45
280
     0
102
RTVSPost2010PropOp45
 70
     1
102
RTVSPost2010Prop46
 90
       50
102
RTVSPost2010PropOp46
 70
     1
102
RTVSPost2010Prop47
 90
       50
102
RTVSPost2010PropOp47
 70
     1
102
RTVSPost2010Prop48
 90
       50
102
RTVSPost2010PropOp48
 70
     1
102
RTVSPost2010Prop49
280
     0
102
RTVSPost2010PropOp49
 70
     1
102
RTVSPost2010Prop50
 90
       50
102
RTVSPost2010PropOp50
 70
     1
102
RTVSPost2010Prop51ColorIndex
 90
      256
102
RTVSPost2010Prop51ColorRGB
 90
-16777216
102
RTVSPost2010PropOp51
 70
     0
102
RTVSPost2010Prop52
140
1.0
102
RTVSPost2010PropOp52
 70
     0
102
RTVSPost2010Prop53
 90
        2
102
RTVSPost2010PropOp53
 70
     1
102
RTVSPost2010Prop54
  1
strokes_ogs.tif
102
RTVSPost2010PropOp54
 70
     1
102
RTVSPost2010Prop55
280
     0
102
RTVSPost2010PropOp55
 70
     1
102
RTVSPost2010Prop56
140
1.0
102
RTVSPost2010PropOp56
 70
     1
102
RTVSPost2010Prop57
140
1.0
102
RTVSPost2010PropOp57
 70
     1
  0
XRECORD
  5
1D9
102
{ACAD_REACTORS
330
1D8
102
}
330
1D8
100
AcDbXrecord
280
     1
102
RTVSPost2010Prop28
280
     0
102
RTVSPost2010PropOp28
 70
     1
102
RTVSPost2010Prop29
280
     1
102
RTVSPost2010PropOp29
 70
     1
102
RTVSPost2010Prop30
280
     1
102
RTVSPost2010PropOp30
 70
     1
102
RTVSPost2010Prop31
280
     0
102
RTVSPost2010PropOp31
 70
     1
102
RTVSPost2010Prop32
280
     0
102
RTVSPost2010PropOp32
 70
     1
102
RTVSPost2010Prop33
280
     0
102
RTVSPost2010PropOp33
 70
     1
102
RTVSPost2010Prop34
280
     0
102
RTVSPost2010PropOp34
 70
     1
102
RTVSPost2010Prop35
280
     0
102
RTVSPost2010PropOp35
 70
     1
102
RTVSPost2010Prop36
280
     0
102
RTVSPost2010PropOp36
 70
     1
102
RTVSPost2010Prop37
 90
       50
102
RTVSPost2010PropOp37
 70
     1
102
RTVSPost2010Prop38
140
0.0
102
RTVSPost2010PropOp38
 70
     1
102
RTVSPost2010Prop39
140
1.0
102
RTVSPost2010PropOp39
 70
     1
102
RTVSPost2010Prop40
 90
        0
102
RTVSPost2010PropOp40
 70
     1
102
RTVSPost2010Prop41ColorIndex
 90
       18
102
RTVSPost2010Prop41ColorRGB
 90
        0
102
RTVSPost2010PropOp41
 70
     1
102
RTVSPost2010Prop42
 90
       50
102
RTVSPost2010PropOp42
 70
     1
102
RTVSPost2010Prop43
 90
        3
102
RTVSPost2010PropOp43
 70
     1
102
RTVSPost2010Prop44ColorIndex
 90
        5
102
RTVSPost2010Prop44ColorRGB
 90
      255
102
RTVSPost2010PropOp44
 70
     1
102
RTVSPost2010Prop45
280
     0
102
RTVSPost2010PropOp45
 70
     1
102
RTVSPost2010Prop46
 90
       50
102
RTVSPost2010PropOp46
 70
     1
102
RTVSPost2010Prop47
 90
       50
102
RTVSPost2010PropOp47
 70
     1
102
RTVSPost2010Prop48
 90
       50
102
RTVSPost2010PropOp48
 70
     1
102
RTVSPost2010Prop49
280
     0
102
RTVSPost2010PropOp49
 70
     1
102
RTVSPost2010Prop50
 90
       50
102
RTVSPost2010PropOp50
 70
     1
102
RTVSPost2010Prop51ColorIndex
 90
      256
102
RTVSPost2010Prop51ColorRGB
 90
-16777216
102
RTVSPost2010PropOp51
 70
     0
102
RTVSPost2010Prop52
140
1.0
102
RTVSPost2010PropOp52
 70
     0
102
RTVSPost2010Prop53
 90
        2
102
RTVSPost2010PropOp53
 70
     1
102
RTVSPost2010Prop54
  1
strokes_ogs.tif
102
RTVSPost2010PropOp54
 70
     1
102
RTVSPost2010Prop55
280
     0
102
RTVSPost2010PropOp55
 70
     1
102
RTVSPost2010Prop56
140
1.0
102
RTVSPost2010PropOp56
 70
     1
102
RTVSPost2010Prop57
140
1.0
102
RTVSPost2010PropOp57
 70
     1
  0
XRECORD
  5
1E1
102
{ACAD_REACTORS
330
1E0
102
}
330
1E0
100
AcDbXrecord
280
     1
102
RTVSPost2010Prop28
280
     0
102
RTVSPost2010PropOp28
 70
     1
102
RTVSPost2010Prop29
280
     1
102
RTVSPost2010PropOp29
 70
     1
102
RTVSPost2010Prop30
280
     1
102
RTVSPost2010PropOp30
 70
     1
102
RTVSPost2010Prop31
280
     0
102
RTVSPost2010PropOp31
 70
     1
102
RTVSPost2010Prop32
280
     0
102
RTVSPost2010PropOp32
 70
     1
102
RTVSPost2010Prop33
280
     0
102
RTVSPost2010PropOp33
 70
     1
102
RTVSPost2010Prop34
280
     0
102
RTVSPost2010PropOp34
 70
     1
102
RTVSPost2010Prop35
280
     0
102
RTVSPost2010PropOp35
 70
     1
102
RTVSPost2010Prop36
280
     0
102
RTVSPost2010PropOp36
 70
     1
102
RTVSPost2010Prop37
 90
       50
102
RTVSPost2010PropOp37
 70
     1
102
RTVSPost2010Prop38
140
0.0
102
RTVSPost2010PropOp38
 70
     1
102
RTVSPost2010Prop39
140
1.0
102
RTVSPost2010PropOp39
 70
     1
102
RTVSPost2010Prop40
 90
        0
102
RTVSPost2010PropOp40
 70
     1
102
RTVSPost2010Prop41ColorIndex
 90
       18
102
RTVSPost2010Prop41ColorRGB
 90
        0
102
RTVSPost2010PropOp41
 70
     1
102
RTVSPost2010Prop42
 90
       50
102
RTVSPost2010PropOp42
 70
     1
102
RTVSPost2010Prop43
 90
        3
102
RTVSPost2010PropOp43
 70
     1
102
RTVSPost2010Prop44ColorIndex
 90
        5
102
RTVSPost2010Prop44ColorRGB
 90
      255
102
RTVSPost2010PropOp44
 70
     1
102
RTVSPost2010Prop45
280
     0
102
RTVSPost2010PropOp45
 70
     1
102
RTVSPost2010Prop46
 90
       50
102
RTVSPost2010PropOp46
 70
     1
102
RTVSPost2010Prop47
 90
       50
102
RTVSPost2010PropOp47
 70
     1
102
RTVSPost2010Prop48
 90
       50
102
RTVSPost2010PropOp48
 70
     1
102
RTVSPost2010Prop49
280
     0
102
RTVSPost2010PropOp49
 70
     1
102
RTVSPost2010Prop50
 90
       50
102
RTVSPost2010PropOp50
 70
     1
102
RTVSPost2010Prop51ColorIndex
 90
      256
102
RTVSPost2010Prop51ColorRGB
 90
-16777216
102
RTVSPost2010PropOp51
 70
     0
102
RTVSPost2010Prop52
140
1.0
102
RTVSPost2010PropOp52
 70
     0
102
RTVSPost2010Prop53
 90
        2
102
RTVSPost2010PropOp53
 70
     1
102
RTVSPost2010Prop54
  1
strokes_ogs.tif
102
RTVSPost2010PropOp54
 70
     1
102
RTVSPost2010Prop55
280
     0
102
RTVSPost2010PropOp55
 70
     1
102
RTVSPost2010Prop56
140
1.0
102
RTVSPost2010PropOp56
 70
     1
102
RTVSPost2010Prop57
140
1.0
102
RTVSPost2010PropOp57
 70
     1
  0
XRECORD
  5
1E9
102
{ACAD_REACTORS
330
1E8
102
}
330
1E8
100
AcDbXrecord
280
     1
102
RTVSPost2010Prop28
280
     0
102
RTVSPost2010PropOp28
 70
     1
102
RTVSPost2010Prop29
280
     1
102
RTVSPost2010PropOp29
 70
     1
102
RTVSPost2010Prop30
280
     1
102
RTVSPost2010PropOp30
 70
     1
102
RTVSPost2010Prop31
280
     0
102
RTVSPost2010PropOp31
 70
     1
102
RTVSPost2010Prop32
280
     0
102
RTVSPost2010PropOp32
 70
     1
102
RTVSPost2010Prop33
280
     0
102
RTVSPost2010PropOp33
 70
     1
102
RTVSPost2010Prop34
280
     0
102
RTVSPost2010PropOp34
 70
     1
102
RTVSPost2010Prop35
280
     0
102
RTVSPost2010PropOp35
 70
     1
102
RTVSPost2010Prop36
280
     0
102
RTVSPost2010PropOp36
 70
     1
102
RTVSPost2010Prop37
 90
       50
102
RTVSPost2010PropOp37
 70
     1
102
RTVSPost2010Prop38
140
0.0
102
RTVSPost2010PropOp38
 70
     1
102
RTVSPost2010Prop39
140
1.0
102
RTVSPost2010PropOp39
 70
     1
102
RTVSPost2010Prop40
 90
        0
102
RTVSPost2010PropOp40
 70
     1
102
RTVSPost2010Prop41ColorIndex
 90
       18
102
RTVSPost2010Prop41ColorRGB
 90
        0
102
RTVSPost2010PropOp41
 70
     1
102
RTVSPost2010Prop42
 90
       50
102
RTVSPost2010PropOp42
 70
     1
102
RTVSPost2010Prop43
 90
        3
102
RTVSPost2010PropOp43
 70
     1
102
RTVSPost2010Prop44ColorIndex
 90
        5
102
RTVSPost2010Prop44ColorRGB
 90
      255
102
RTVSPost2010PropOp44
 70
     1
102
RTVSPost2010Prop45
280
     0
102
RTVSPost2010PropOp45
 70
     1
102
RTVSPost2010Prop46
 90
       50
102
RTVSPost2010PropOp46
 70
     1
102
RTVSPost2010Prop47
 90
       50
102
RTVSPost2010PropOp47
 70
     1
102
RTVSPost2010Prop48
 90
       50
102
RTVSPost2010PropOp48
 70
     1
102
RTVSPost2010Prop49
280
     0
102
RTVSPost2010PropOp49
 70
     1
102
RTVSPost2010Prop50
 90
       50
102
RTVSPost2010PropOp50
 70
     1
102
RTVSPost2010Prop51ColorIndex
 90
      256
102
RTVSPost2010Prop51ColorRGB
 90
-16777216
102
RTVSPost2010PropOp51
 70
     0
102
RTVSPost2010Prop52
140
1.0
102
RTVSPost2010PropOp52
 70
     0
102
RTVSPost2010Prop53
 90
        2
102
RTVSPost2010PropOp53
 70
     1
102
RTVSPost2010Prop54
  1
strokes_ogs.tif
102
RTVSPost2010PropOp54
 70
     1
102
RTVSPost2010Prop55
280
     0
102
RTVSPost2010PropOp55
 70
     1
102
RTVSPost2010Prop56
140
1.0
102
RTVSPost2010PropOp56
 70
     1
102
RTVSPost2010Prop57
140
1.0
102
RTVSPost2010PropOp57
 70
     1
  0
XRECORD
  5
1DD
102
{ACAD_REACTORS
330
1DC
102
}
330
1DC
100
AcDbXrecord
280
     1
102
RTVSPost2010Prop28
280
     0
102
RTVSPost2010PropOp28
 70
     1
102
RTVSPost2010Prop29
280
     1
102
RTVSPost2010PropOp29
 70
     1
102
RTVSPost2010Prop30
280
     1
102
RTVSPost2010PropOp30
 70
     1
102
RTVSPost2010Prop31
280
     0
102
RTVSPost2010PropOp31
 70
     1
102
RTVSPost2010Prop32
280
     0
102
RTVSPost2010PropOp32
 70
     1
102
RTVSPost2010Prop33
280
     0
102
RTVSPost2010PropOp33
 70
     1
102
RTVSPost2010Prop34
280
     0
102
RTVSPost2010PropOp34
 70
     1
102
RTVSPost2010Prop35
280
     0
102
RTVSPost2010PropOp35
 70
     1
102
RTVSPost2010Prop36
280
     0
102
RTVSPost2010PropOp36
 70
     1
102
RTVSPost2010Prop37
 90
       50
102
RTVSPost2010PropOp37
 70
     1
102
RTVSPost2010Prop38
140
0.0
102
RTVSPost2010PropOp38
 70
     1
102
RTVSPost2010Prop39
140
1.0
102
RTVSPost2010PropOp39
 70
     1
102
RTVSPost2010Prop40
 90
        0
102
RTVSPost2010PropOp40
 70
     1
102
RTVSPost2010Prop41ColorIndex
 90
       18
102
RTVSPost2010Prop41ColorRGB
 90
        0
102
RTVSPost2010PropOp41
 70
     1
102
RTVSPost2010Prop42
 90
       50
102
RTVSPost2010PropOp42
 70
     1
102
RTVSPost2010Prop43
 90
        3
102
RTVSPost2010PropOp43
 70
     1
102
RTVSPost2010Prop44ColorIndex
 90
        5
102
RTVSPost2010Prop44ColorRGB
 90
      255
102
RTVSPost2010PropOp44
 70
     1
102
RTVSPost2010Prop45
280
     0
102
RTVSPost2010PropOp45
 70
     1
102
RTVSPost2010Prop46
 90
       50
102
RTVSPost2010PropOp46
 70
     1
102
RTVSPost2010Prop47
 90
       50
102
RTVSPost2010PropOp47
 70
     1
102
RTVSPost2010Prop48
 90
       50
102
RTVSPost2010PropOp48
 70
     1
102
RTVSPost2010Prop49
280
     0
102
RTVSPost2010PropOp49
 70
     1
102
RTVSPost2010Prop50
 90
       50
102
RTVSPost2010PropOp50
 70
     1
102
RTVSPost2010Prop51ColorIndex
 90
      256
102
RTVSPost2010Prop51ColorRGB
 90
-16777216
102
RTVSPost2010PropOp51
 70
     0
102
RTVSPost2010Prop52
140
1.0
102
RTVSPost2010PropOp52
 70
     0
102
RTVSPost2010Prop53
 90
        2
102
RTVSPost2010PropOp53
 70
     1
102
RTVSPost2010Prop54
  1
strokes_ogs.tif
102
RTVSPost2010PropOp54
 70
     1
102
RTVSPost2010Prop55
280
     0
102
RTVSPost2010PropOp55
 70
     1
102
RTVSPost2010Prop56
140
1.0
102
RTVSPost2010PropOp56
 70
     1
102
RTVSPost2010Prop57
140
1.0
102
RTVSPost2010PropOp57
 70
     1
  0
XRECORD
  5
1DF
102
{ACAD_REACTORS
330
1DE
102
}
330
1DE
100
AcDbXrecord
280
     1
102
RTVSPost2010Prop28
280
     0
102
RTVSPost2010PropOp28
 70
     1
102
RTVSPost2010Prop29
280
     1
102
RTVSPost2010PropOp29
 70
     1
102
RTVSPost2010Prop30
280
     1
102
RTVSPost2010PropOp30
 70
     1
102
RTVSPost2010Prop31
280
     0
102
RTVSPost2010PropOp31
 70
     1
102
RTVSPost2010Prop32
280
     0
102
RTVSPost2010PropOp32
 70
     1
102
RTVSPost2010Prop33
280
     0
102
RTVSPost2010PropOp33
 70
     1
102
RTVSPost2010Prop34
280
     0
102
RTVSPost2010PropOp34
 70
     1
102
RTVSPost2010Prop35
280
     0
102
RTVSPost2010PropOp35
 70
     1
102
RTVSPost2010Prop36
280
     0
102
RTVSPost2010PropOp36
 70
     1
102
RTVSPost2010Prop37
 90
       50
102
RTVSPost2010PropOp37
 70
     1
102
RTVSPost2010Prop38
140
0.0
102
RTVSPost2010PropOp38
 70
     1
102
RTVSPost2010Prop39
140
1.0
102
RTVSPost2010PropOp39
 70
     1
102
RTVSPost2010Prop40
 90
        0
102
RTVSPost2010PropOp40
 70
     1
102
RTVSPost2010Prop41ColorIndex
 90
       18
102
RTVSPost2010Prop41ColorRGB
 90
        0
102
RTVSPost2010PropOp41
 70
     1
102
RTVSPost2010Prop42
 90
       50
102
RTVSPost2010PropOp42
 70
     1
102
RTVSPost2010Prop43
 90
        3
102
RTVSPost2010PropOp43
 70
     1
102
RTVSPost2010Prop44ColorIndex
 90
        5
102
RTVSPost2010Prop44ColorRGB
 90
      255
102
RTVSPost2010PropOp44
 70
     1
102
RTVSPost2010Prop45
280
     0
102
RTVSPost2010PropOp45
 70
     1
102
RTVSPost2010Prop46
 90
       50
102
RTVSPost2010PropOp46
 70
     1
102
RTVSPost2010Prop47
 90
       50
102
RTVSPost2010PropOp47
 70
     1
102
RTVSPost2010Prop48
 90
       50
102
RTVSPost2010PropOp48
 70
     1
102
RTVSPost2010Prop49
280
     0
102
RTVSPost2010PropOp49
 70
     1
102
RTVSPost2010Prop50
 90
       50
102
RTVSPost2010PropOp50
 70
     1
102
RTVSPost2010Prop51ColorIndex
 90
      256
102
RTVSPost2010Prop51ColorRGB
 90
-16777216
102
RTVSPost2010PropOp51
 70
     0
102
RTVSPost2010Prop52
140
1.0
102
RTVSPost2010PropOp52
 70
     0
102
RTVSPost2010Prop53
 90
        2
102
RTVSPost2010PropOp53
 70
     1
102
RTVSPost2010Prop54
  1
strokes_ogs.tif
102
RTVSPost2010PropOp54
 70
     1
102
RTVSPost2010Prop55
280
     0
102
RTVSPost2010PropOp55
 70
     1
102
RTVSPost2010Prop56
140
1.0
102
RTVSPost2010PropOp56
 70
     1
102
RTVSPost2010Prop57
140
1.0
102
RTVSPost2010PropOp57
 70
     1
  0
XRECORD
  5
1EF
102
{ACAD_REACTORS
330
1EE
102
}
330
1EE
100
AcDbXrecord
280
     1
102
RTVSPost2010Prop28
280
     0
102
RTVSPost2010PropOp28
 70
     0
102
RTVSPost2010Prop29
280
     1
102
RTVSPost2010PropOp29
 70
     0
102
RTVSPost2010Prop30
280
     1
102
RTVSPost2010PropOp30
 70
     0
102
RTVSPost2010Prop31
280
     0
102
RTVSPost2010PropOp31
 70
     0
102
RTVSPost2010Prop32
280
     0
102
RTVSPost2010PropOp32
 70
     0
102
RTVSPost2010Prop33
280
     0
102
RTVSPost2010PropOp33
 70
     0
102
RTVSPost2010Prop34
280
     0
102
RTVSPost2010PropOp34
 70
     0
102
RTVSPost2010Prop35
280
     0
102
RTVSPost2010PropOp35
 70
     0
102
RTVSPost2010Prop36
280
     0
102
RTVSPost2010PropOp36
 70
     0
102
RTVSPost2010Prop37
 90
       50
102
RTVSPost2010PropOp37
 70
     0
102
RTVSPost2010Prop38
140
0.0
102
RTVSPost2010PropOp38
 70
     0
102
RTVSPost2010Prop39
140
1.0
102
RTVSPost2010PropOp39
 70
     0
102
RTVSPost2010Prop40
 90
        0
102
RTVSPost2010PropOp40
 70
     0
102
RTVSPost2010Prop41ColorIndex
 90
       18
102
RTVSPost2010Prop41ColorRGB
 90
        0
102
RTVSPost2010PropOp41
 70
     0
102
RTVSPost2010Prop42
 90
       50
102
RTVSPost2010PropOp42
 70
     0
102
RTVSPost2010Prop43
 90
        3
102
RTVSPost2010PropOp43
 70
     0
102
RTVSPost2010Prop44ColorIndex
 90
        5
102
RTVSPost2010Prop44ColorRGB
 90
      255
102
RTVSPost2010PropOp44
 70
     0
102
RTVSPost2010Prop45
280
     0
102
RTVSPost2010PropOp45
 70
     0
102
RTVSPost2010Prop46
 90
       50
102
RTVSPost2010PropOp46
 70
     0
102
RTVSPost2010Prop47
 90
       50
102
RTVSPost2010PropOp47
 70
     0
102
RTVSPost2010Prop48
 90
       50
102
RTVSPost2010PropOp48
 70
     0
102
RTVSPost2010Prop49
280
     0
102
RTVSPost2010PropOp49
 70
     0
102
RTVSPost2010Prop50
 90
       50
102
RTVSPost2010PropOp50
 70
     0
102
RTVSPost2010Prop51ColorIndex
 90
      256
102
RTVSPost2010Prop51ColorRGB
 90
-16777216
102
RTVSPost2010PropOp51
 70
     0
102
RTVSPost2010Prop52
140
1.0
102
RTVSPost2010PropOp52
 70
     0
102
RTVSPost2010Prop53
 90
        2
102
RTVSPost2010PropOp53
 70
     0
102
RTVSPost2010Prop54
  1
strokes_ogs.tif
102
RTVSPost2010PropOp54
 70
     0
102
RTVSPost2010Prop55
280
     0
102
RTVSPost2010PropOp55
 70
     0
102
RTVSPost2010Prop56
140
1.0
102
RTVSPost2010PropOp56
 70
     0
102
RTVSPost2010Prop57
140
1.0
102
RTVSPost2010PropOp57
 70
     0
  0
XRECORD
  5
1E7
102
{ACAD_REACTORS
330
1E6
102
}
330
1E6
100
AcDbXrecord
280
     1
102
RTVSPost2010Prop28
280
     0
102
RTVSPost2010PropOp28
 70
     1
102
RTVSPost2010Prop29
280
     1
102
RTVSPost2010PropOp29
 70
     1
102
RTVSPost2010Prop30
280
     1
102
RTVSPost2010PropOp30
 70
     1
102
RTVSPost2010Prop31
280
     0
102
RTVSPost2010PropOp31
 70
     1
102
RTVSPost2010Prop32
280
     0
102
RTVSPost2010PropOp32
 70
     1
102
RTVSPost2010Prop33
280
     0
102
RTVSPost2010PropOp33
 70
     1
102
RTVSPost2010Prop34
280
     0
102
RTVSPost2010PropOp34
 70
     1
102
RTVSPost2010Prop35
280
     0
102
RTVSPost2010PropOp35
 70
     1
102
RTVSPost2010Prop36
280
     0
102
RTVSPost2010PropOp36
 70
     1
102
RTVSPost2010Prop37
 90
       50
102
RTVSPost2010PropOp37
 70
     1
102
RTVSPost2010Prop38
140
0.0
102
RTVSPost2010PropOp38
 70
     1
102
RTVSPost2010Prop39
140
1.0
102
RTVSPost2010PropOp39
 70
     1
102
RTVSPost2010Prop40
 90
        0
102
RTVSPost2010PropOp40
 70
     1
102
RTVSPost2010Prop41ColorIndex
 90
       18
102
RTVSPost2010Prop41ColorRGB
 90
        0
102
RTVSPost2010PropOp41
 70
     1
102
RTVSPost2010Prop42
 90
       50
102
RTVSPost2010PropOp42
 70
     1
102
RTVSPost2010Prop43
 90
        3
102
RTVSPost2010PropOp43
 70
     1
102
RTVSPost2010Prop44ColorIndex
 90
        5
102
RTVSPost2010Prop44ColorRGB
 90
      255
102
RTVSPost2010PropOp44
 70
     1
102
RTVSPost2010Prop45
280
     0
102
RTVSPost2010PropOp45
 70
     1
102
RTVSPost2010Prop46
 90
       50
102
RTVSPost2010PropOp46
 70
     1
102
RTVSPost2010Prop47
 90
       50
102
RTVSPost2010PropOp47
 70
     1
102
RTVSPost2010Prop48
 90
       50
102
RTVSPost2010PropOp48
 70
     1
102
RTVSPost2010Prop49
280
     0
102
RTVSPost2010PropOp49
 70
     1
102
RTVSPost2010Prop50
 90
       50
102
RTVSPost2010PropOp50
 70
     1
102
RTVSPost2010Prop51ColorIndex
 90
      256
102
RTVSPost2010Prop51ColorRGB
 90
-16777216
102
RTVSPost2010PropOp51
 70
     0
102
RTVSPost2010Prop52
140
1.0
102
RTVSPost2010PropOp52
 70
     0
102
RTVSPost2010Prop53
 90
        2
102
RTVSPost2010PropOp53
 70
     1
102
RTVSPost2010Prop54
  1
strokes_ogs.tif
102
RTVSPost2010PropOp54
 70
     1
102
RTVSPost2010Prop55
280
     0
102
RTVSPost2010PropOp55
 70
     1
102
RTVSPost2010Prop56
140
1.0
102
RTVSPost2010PropOp56
 70
     1
102
RTVSPost2010Prop57
140
1.0
102
RTVSPost2010PropOp57
 70
     1
  0
XRECORD
  5
1CB
102
{ACAD_REACTORS
330
1CA
102
}
330
1CA
100
AcDbXrecord
280
     1
102
RTVSPost2010Prop28
280
     0
102
RTVSPost2010PropOp28
 70
     1
102
RTVSPost2010Prop29
280
     1
102
RTVSPost2010PropOp29
 70
     1
102
RTVSPost2010Prop30
280
     1
102
RTVSPost2010PropOp30
 70
     1
102
RTVSPost2010Prop31
280
     0
102
RTVSPost2010PropOp31
 70
     1
102
RTVSPost2010Prop32
280
     0
102
RTVSPost2010PropOp32
 70
     1
102
RTVSPost2010Prop33
280
     0
102
RTVSPost2010PropOp33
 70
     1
102
RTVSPost2010Prop34
280
     0
102
RTVSPost2010PropOp34
 70
     1
102
RTVSPost2010Prop35
280
     0
102
RTVSPost2010PropOp35
 70
     1
102
RTVSPost2010Prop36
280
     0
102
RTVSPost2010PropOp36
 70
     1
102
RTVSPost2010Prop37
 90
       50
102
RTVSPost2010PropOp37
 70
     1
102
RTVSPost2010Prop38
140
0.0
102
RTVSPost2010PropOp38
 70
     1
102
RTVSPost2010Prop39
140
1.0
102
RTVSPost2010PropOp39
 70
     1
102
RTVSPost2010Prop40
 90
        0
102
RTVSPost2010PropOp40
 70
     1
102
RTVSPost2010Prop41ColorIndex
 90
       18
102
RTVSPost2010Prop41ColorRGB
 90
        0
102
RTVSPost2010PropOp41
 70
     1
102
RTVSPost2010Prop42
 90
       50
102
RTVSPost2010PropOp42
 70
     1
102
RTVSPost2010Prop43
 90
        3
102
RTVSPost2010PropOp43
 70
     1
102
RTVSPost2010Prop44ColorIndex
 90
        5
102
RTVSPost2010Prop44ColorRGB
 90
      255
102
RTVSPost2010PropOp44
 70
     1
102
RTVSPost2010Prop45
280
     0
102
RTVSPost2010PropOp45
 70
     1
102
RTVSPost2010Prop46
 90
       50
102
RTVSPost2010PropOp46
 70
     1
102
RTVSPost2010Prop47
 90
       50
102
RTVSPost2010PropOp47
 70
     1
102
RTVSPost2010Prop48
 90
       50
102
RTVSPost2010PropOp48
 70
     1
102
RTVSPost2010Prop49
280
     0
102
RTVSPost2010PropOp49
 70
     1
102
RTVSPost2010Prop50
 90
       50
102
RTVSPost2010PropOp50
 70
     1
102
RTVSPost2010Prop51ColorIndex
 90
      256
102
RTVSPost2010Prop51ColorRGB
 90
-16777216
102
RTVSPost2010PropOp51
 70
     0
102
RTVSPost2010Prop52
140
1.0
102
RTVSPost2010PropOp52
 70
     0
102
RTVSPost2010Prop53
 90
        2
102
RTVSPost2010PropOp53
 70
     1
102
RTVSPost2010Prop54
  1
strokes_ogs.tif
102
RTVSPost2010PropOp54
 70
     1
102
RTVSPost2010Prop55
280
     0
102
RTVSPost2010PropOp55
 70
     1
102
RTVSPost2010Prop56
140
1.0
102
RTVSPost2010PropOp56
 70
     1
102
RTVSPost2010Prop57
140
1.0
102
RTVSPost2010PropOp57
 70
     1
  0
XRECORD
  5
1CD
102
{ACAD_REACTORS
330
1CC
102
}
330
1CC
100
AcDbXrecord
280
     1
102
RTVSPost2010Prop28
280
     0
102
RTVSPost2010PropOp28
 70
     1
102
RTVSPost2010Prop29
280
     1
102
RTVSPost2010PropOp29
 70
     1
102
RTVSPost2010Prop30
280
     1
102
RTVSPost2010PropOp30
 70
     1
102
RTVSPost2010Prop31
280
     0
102
RTVSPost2010PropOp31
 70
     1
102
RTVSPost2010Prop32
280
     0
102
RTVSPost2010PropOp32
 70
     1
102
RTVSPost2010Prop33
280
     0
102
RTVSPost2010PropOp33
 70
     1
102
RTVSPost2010Prop34
280
     0
102
RTVSPost2010PropOp34
 70
     1
102
RTVSPost2010Prop35
280
     0
102
RTVSPost2010PropOp35
 70
     1
102
RTVSPost2010Prop36
280
     0
102
RTVSPost2010PropOp36
 70
     1
102
RTVSPost2010Prop37
 90
       50
102
RTVSPost2010PropOp37
 70
     1
102
RTVSPost2010Prop38
140
0.0
102
RTVSPost2010PropOp38
 70
     1
102
RTVSPost2010Prop39
140
1.0
102
RTVSPost2010PropOp39
 70
     1
102
RTVSPost2010Prop40
 90
        0
102
RTVSPost2010PropOp40
 70
     1
102
RTVSPost2010Prop41ColorIndex
 90
       18
102
RTVSPost2010Prop41ColorRGB
 90
        0
102
RTVSPost2010PropOp41
 70
     1
102
RTVSPost2010Prop42
 90
       50
102
RTVSPost2010PropOp42
 70
     1
102
RTVSPost2010Prop43
 90
        3
102
RTVSPost2010PropOp43
 70
     1
102
RTVSPost2010Prop44ColorIndex
 90
        5
102
RTVSPost2010Prop44ColorRGB
 90
      255
102
RTVSPost2010PropOp44
 70
     1
102
RTVSPost2010Prop45
280
     0
102
RTVSPost2010PropOp45
 70
     1
102
RTVSPost2010Prop46
 90
       50
102
RTVSPost2010PropOp46
 70
     1
102
RTVSPost2010Prop47
 90
       50
102
RTVSPost2010PropOp47
 70
     1
102
RTVSPost2010Prop48
 90
       50
102
RTVSPost2010PropOp48
 70
     1
102
RTVSPost2010Prop49
280
     0
102
RTVSPost2010PropOp49
 70
     1
102
RTVSPost2010Prop50
 90
       50
102
RTVSPost2010PropOp50
 70
     1
102
RTVSPost2010Prop51ColorIndex
 90
      256
102
RTVSPost2010Prop51ColorRGB
 90
-16777216
102
RTVSPost2010PropOp51
 70
     0
102
RTVSPost2010Prop52
140
1.0
102
RTVSPost2010PropOp52
 70
     0
102
RTVSPost2010Prop53
 90
        2
102
RTVSPost2010PropOp53
 70
     1
102
RTVSPost2010Prop54
  1
strokes_ogs.tif
102
RTVSPost2010PropOp54
 70
     1
102
RTVSPost2010Prop55
280
     0
102
RTVSPost2010PropOp55
 70
     1
102
RTVSPost2010Prop56
140
1.0
102
RTVSPost2010PropOp56
 70
     1
102
RTVSPost2010Prop57
140
1.0
102
RTVSPost2010PropOp57
 70
     1
  0
XRECORD
  5
1CF
102
{ACAD_REACTORS
330
1CE
102
}
330
1CE
100
AcDbXrecord
280
     1
102
RTVSPost2010Prop28
280
     0
102
RTVSPost2010PropOp28
 70
     1
102
RTVSPost2010Prop29
280
     1
102
RTVSPost2010PropOp29
 70
     1
102
RTVSPost2010Prop30
280
     1
102
RTVSPost2010PropOp30
 70
     1
102
RTVSPost2010Prop31
280
     0
102
RTVSPost2010PropOp31
 70
     1
102
RTVSPost2010Prop32
280
     0
102
RTVSPost2010PropOp32
 70
     1
102
RTVSPost2010Prop33
280
     0
102
RTVSPost2010PropOp33
 70
     1
102
RTVSPost2010Prop34
280
     0
102
RTVSPost2010PropOp34
 70
     1
102
RTVSPost2010Prop35
280
     0
102
RTVSPost2010PropOp35
 70
     1
102
RTVSPost2010Prop36
280
     0
102
RTVSPost2010PropOp36
 70
     1
102
RTVSPost2010Prop37
 90
       50
102
RTVSPost2010PropOp37
 70
     1
102
RTVSPost2010Prop38
140
0.0
102
RTVSPost2010PropOp38
 70
     1
102
RTVSPost2010Prop39
140
1.0
102
RTVSPost2010PropOp39
 70
     1
102
RTVSPost2010Prop40
 90
        0
102
RTVSPost2010PropOp40
 70
     1
102
RTVSPost2010Prop41ColorIndex
 90
       18
102
RTVSPost2010Prop41ColorRGB
 90
        0
102
RTVSPost2010PropOp41
 70
     1
102
RTVSPost2010Prop42
 90
       50
102
RTVSPost2010PropOp42
 70
     1
102
RTVSPost2010Prop43
 90
        3
102
RTVSPost2010PropOp43
 70
     1
102
RTVSPost2010Prop44ColorIndex
 90
        5
102
RTVSPost2010Prop44ColorRGB
 90
      255
102
RTVSPost2010PropOp44
 70
     1
102
RTVSPost2010Prop45
280
     0
102
RTVSPost2010PropOp45
 70
     1
102
RTVSPost2010Prop46
 90
       50
102
RTVSPost2010PropOp46
 70
     1
102
RTVSPost2010Prop47
 90
       50
102
RTVSPost2010PropOp47
 70
     1
102
RTVSPost2010Prop48
 90
       50
102
RTVSPost2010PropOp48
 70
     1
102
RTVSPost2010Prop49
280
     0
102
RTVSPost2010PropOp49
 70
     1
102
RTVSPost2010Prop50
 90
       50
102
RTVSPost2010PropOp50
 70
     1
102
RTVSPost2010Prop51ColorIndex
 90
      256
102
RTVSPost2010Prop51ColorRGB
 90
-16777216
102
RTVSPost2010PropOp51
 70
     0
102
RTVSPost2010Prop52
140
1.0
102
RTVSPost2010PropOp52
 70
     0
102
RTVSPost2010Prop53
 90
        2
102
RTVSPost2010PropOp53
 70
     1
102
RTVSPost2010Prop54
  1
strokes_ogs.tif
102
RTVSPost2010PropOp54
 70
     1
102
RTVSPost2010Prop55
280
     0
102
RTVSPost2010PropOp55
 70
     1
102
RTVSPost2010Prop56
140
1.0
102
RTVSPost2010PropOp56
 70
     1
102
RTVSPost2010Prop57
140
1.0
102
RTVSPost2010PropOp57
 70
     1
  0
XRECORD
  5
1D1
102
{ACAD_REACTORS
330
1D0
102
}
330
1D0
100
AcDbXrecord
280
     1
102
RTVSPost2010Prop28
280
     0
102
RTVSPost2010PropOp28
 70
     1
102
RTVSPost2010Prop29
280
     1
102
RTVSPost2010PropOp29
 70
     1
102
RTVSPost2010Prop30
280
     1
102
RTVSPost2010PropOp30
 70
     1
102
RTVSPost2010Prop31
280
     0
102
RTVSPost2010PropOp31
 70
     1
102
RTVSPost2010Prop32
280
     0
102
RTVSPost2010PropOp32
 70
     1
102
RTVSPost2010Prop33
280
     0
102
RTVSPost2010PropOp33
 70
     1
102
RTVSPost2010Prop34
280
     0
102
RTVSPost2010PropOp34
 70
     1
102
RTVSPost2010Prop35
280
     0
102
RTVSPost2010PropOp35
 70
     1
102
RTVSPost2010Prop36
280
     0
102
RTVSPost2010PropOp36
 70
     1
102
RTVSPost2010Prop37
 90
       50
102
RTVSPost2010PropOp37
 70
     1
102
RTVSPost2010Prop38
140
0.0
102
RTVSPost2010PropOp38
 70
     1
102
RTVSPost2010Prop39
140
1.0
102
RTVSPost2010PropOp39
 70
     1
102
RTVSPost2010Prop40
 90
        0
102
RTVSPost2010PropOp40
 70
     1
102
RTVSPost2010Prop41ColorIndex
 90
       18
102
RTVSPost2010Prop41ColorRGB
 90
        0
102
RTVSPost2010PropOp41
 70
     1
102
RTVSPost2010Prop42
 90
       50
102
RTVSPost2010PropOp42
 70
     1
102
RTVSPost2010Prop43
 90
        3
102
RTVSPost2010PropOp43
 70
     1
102
RTVSPost2010Prop44ColorIndex
 90
        5
102
RTVSPost2010Prop44ColorRGB
 90
      255
102
RTVSPost2010PropOp44
 70
     1
102
RTVSPost2010Prop45
280
     0
102
RTVSPost2010PropOp45
 70
     1
102
RTVSPost2010Prop46
 90
       50
102
RTVSPost2010PropOp46
 70
     1
102
RTVSPost2010Prop47
 90
       50
102
RTVSPost2010PropOp47
 70
     1
102
RTVSPost2010Prop48
 90
       50
102
RTVSPost2010PropOp48
 70
     1
102
RTVSPost2010Prop49
280
     0
102
RTVSPost2010PropOp49
 70
     1
102
RTVSPost2010Prop50
 90
       50
102
RTVSPost2010PropOp50
 70
     1
102
RTVSPost2010Prop51ColorIndex
 90
      256
102
RTVSPost2010Prop51ColorRGB
 90
-16777216
102
RTVSPost2010PropOp51
 70
     0
102
RTVSPost2010Prop52
140
1.0
102
RTVSPost2010PropOp52
 70
     0
102
RTVSPost2010Prop53
 90
        2
102
RTVSPost2010PropOp53
 70
     1
102
RTVSPost2010Prop54
  1
strokes_ogs.tif
102
RTVSPost2010PropOp54
 70
     1
102
RTVSPost2010Prop55
280
     0
102
RTVSPost2010PropOp55
 70
     1
102
RTVSPost2010Prop56
140
1.0
102
RTVSPost2010PropOp56
 70
     1
102
RTVSPost2010Prop57
140
1.0
102
RTVSPost2010PropOp57
 70
     1
  0
XRECORD
  5
1D7
102
{ACAD_REACTORS
330
1D6
102
}
330
1D6
100
AcDbXrecord
280
     1
102
RTVSPost2010Prop28
280
     0
102
RTVSPost2010PropOp28
 70
     1
102
RTVSPost2010Prop29
280
     1
102
RTVSPost2010PropOp29
 70
     1
102
RTVSPost2010Prop30
280
     1
102
RTVSPost2010PropOp30
 70
     1
102
RTVSPost2010Prop31
280
     0
102
RTVSPost2010PropOp31
 70
     1
102
RTVSPost2010Prop32
280
     0
102
RTVSPost2010PropOp32
 70
     1
102
RTVSPost2010Prop33
280
     0
102
RTVSPost2010PropOp33
 70
     1
102
RTVSPost2010Prop34
280
     0
102
RTVSPost2010PropOp34
 70
     1
102
RTVSPost2010Prop35
280
     0
102
RTVSPost2010PropOp35
 70
     1
102
RTVSPost2010Prop36
280
     0
102
RTVSPost2010PropOp36
 70
     1
102
RTVSPost2010Prop37
 90
       50
102
RTVSPost2010PropOp37
 70
     1
102
RTVSPost2010Prop38
140
0.0
102
RTVSPost2010PropOp38
 70
     1
102
RTVSPost2010Prop39
140
1.0
102
RTVSPost2010PropOp39
 70
     1
102
RTVSPost2010Prop40
 90
        0
102
RTVSPost2010PropOp40
 70
     1
102
RTVSPost2010Prop41ColorIndex
 90
       18
102
RTVSPost2010Prop41ColorRGB
 90
        0
102
RTVSPost2010PropOp41
 70
     1
102
RTVSPost2010Prop42
 90
       50
102
RTVSPost2010PropOp42
 70
     1
102
RTVSPost2010Prop43
 90
        3
102
RTVSPost2010PropOp43
 70
     1
102
RTVSPost2010Prop44ColorIndex
 90
        5
102
RTVSPost2010Prop44ColorRGB
 90
      255
102
RTVSPost2010PropOp44
 70
     1
102
RTVSPost2010Prop45
280
     0
102
RTVSPost2010PropOp45
 70
     1
102
RTVSPost2010Prop46
 90
       50
102
RTVSPost2010PropOp46
 70
     1
102
RTVSPost2010Prop47
 90
       50
102
RTVSPost2010PropOp47
 70
     1
102
RTVSPost2010Prop48
 90
       50
102
RTVSPost2010PropOp48
 70
     1
102
RTVSPost2010Prop49
280
     0
102
RTVSPost2010PropOp49
 70
     1
102
RTVSPost2010Prop50
 90
       50
102
RTVSPost2010PropOp50
 70
     1
102
RTVSPost2010Prop51ColorIndex
 90
      256
102
RTVSPost2010Prop51ColorRGB
 90
-16777216
102
RTVSPost2010PropOp51
 70
     0
102
RTVSPost2010Prop52
140
1.0
102
RTVSPost2010PropOp52
 70
     0
102
RTVSPost2010Prop53
 90
        2
102
RTVSPost2010PropOp53
 70
     1
102
RTVSPost2010Prop54
  1
strokes_ogs.tif
102
RTVSPost2010PropOp54
 70
     1
102
RTVSPost2010Prop55
280
     0
102
RTVSPost2010PropOp55
 70
     1
102
RTVSPost2010Prop56
140
1.0
102
RTVSPost2010PropOp56
 70
     1
102
RTVSPost2010Prop57
140
1.0
102
RTVSPost2010PropOp57
 70
     1
  0
XRECORD
  5
1EB
102
{ACAD_REACTORS
330
1EA
102
}
330
1EA
100
AcDbXrecord
280
     1
102
RTVSPost2010Prop28
280
     0
102
RTVSPost2010PropOp28
 70
     0
102
RTVSPost2010Prop29
280
     1
102
RTVSPost2010PropOp29
 70
     0
102
RTVSPost2010Prop30
280
     1
102
RTVSPost2010PropOp30
 70
     0
102
RTVSPost2010Prop31
280
     0
102
RTVSPost2010PropOp31
 70
     0
102
RTVSPost2010Prop32
280
     0
102
RTVSPost2010PropOp32
 70
     0
102
RTVSPost2010Prop33
280
     0
102
RTVSPost2010PropOp33
 70
     0
102
RTVSPost2010Prop34
280
     0
102
RTVSPost2010PropOp34
 70
     0
102
RTVSPost2010Prop35
280
     0
102
RTVSPost2010PropOp35
 70
     0
102
RTVSPost2010Prop36
280
     0
102
RTVSPost2010PropOp36
 70
     0
102
RTVSPost2010Prop37
 90
       50
102
RTVSPost2010PropOp37
 70
     0
102
RTVSPost2010Prop38
140
0.0
102
RTVSPost2010PropOp38
 70
     0
102
RTVSPost2010Prop39
140
1.0
102
RTVSPost2010PropOp39
 70
     0
102
RTVSPost2010Prop40
 90
        0
102
RTVSPost2010PropOp40
 70
     0
102
RTVSPost2010Prop41ColorIndex
 90
       18
102
RTVSPost2010Prop41ColorRGB
 90
        0
102
RTVSPost2010PropOp41
 70
     0
102
RTVSPost2010Prop42
 90
       50
102
RTVSPost2010PropOp42
 70
     0
102
RTVSPost2010Prop43
 90
        3
102
RTVSPost2010PropOp43
 70
     0
102
RTVSPost2010Prop44ColorIndex
 90
        5
102
RTVSPost2010Prop44ColorRGB
 90
      255
102
RTVSPost2010PropOp44
 70
     0
102
RTVSPost2010Prop45
280
     0
102
RTVSPost2010PropOp45
 70
     0
102
RTVSPost2010Prop46
 90
       50
102
RTVSPost2010PropOp46
 70
     0
102
RTVSPost2010Prop47
 90
       50
102
RTVSPost2010PropOp47
 70
     0
102
RTVSPost2010Prop48
 90
       50
102
RTVSPost2010PropOp48
 70
     0
102
RTVSPost2010Prop49
280
     0
102
RTVSPost2010PropOp49
 70
     0
102
RTVSPost2010Prop50
 90
       50
102
RTVSPost2010PropOp50
 70
     0
102
RTVSPost2010Prop51ColorIndex
 90
      256
102
RTVSPost2010Prop51ColorRGB
 90
-16777216
102
RTVSPost2010PropOp51
 70
     0
102
RTVSPost2010Prop52
140
1.0
102
RTVSPost2010PropOp52
 70
     0
102
RTVSPost2010Prop53
 90
        2
102
RTVSPost2010PropOp53
 70
     0
102
RTVSPost2010Prop54
  1
strokes_ogs.tif
102
RTVSPost2010PropOp54
 70
     0
102
RTVSPost2010Prop55
280
     0
102
RTVSPost2010PropOp55
 70
     0
102
RTVSPost2010Prop56
140
1.0
102
RTVSPost2010PropOp56
 70
     0
102
RTVSPost2010Prop57
140
1.0
102
RTVSPost2010PropOp57
 70
     0
  0
XRECORD
  5
1E5
102
{ACAD_REACTORS
330
1E4
102
}
330
1E4
100
AcDbXrecord
280
     1
102
RTVSPost2010Prop28
280
     0
102
RTVSPost2010PropOp28
 70
     1
102
RTVSPost2010Prop29
280
     1
102
RTVSPost2010PropOp29
 70
     1
102
RTVSPost2010Prop30
280
     1
102
RTVSPost2010PropOp30
 70
     1
102
RTVSPost2010Prop31
280
     0
102
RTVSPost2010PropOp31
 70
     1
102
RTVSPost2010Prop32
280
     0
102
RTVSPost2010PropOp32
 70
     1
102
RTVSPost2010Prop33
280
     0
102
RTVSPost2010PropOp33
 70
     1
102
RTVSPost2010Prop34
280
     0
102
RTVSPost2010PropOp34
 70
     1
102
RTVSPost2010Prop35
280
     0
102
RTVSPost2010PropOp35
 70
     1
102
RTVSPost2010Prop36
280
     0
102
RTVSPost2010PropOp36
 70
     1
102
RTVSPost2010Prop37
 90
       50
102
RTVSPost2010PropOp37
 70
     1
102
RTVSPost2010Prop38
140
0.0
102
RTVSPost2010PropOp38
 70
     1
102
RTVSPost2010Prop39
140
1.0
102
RTVSPost2010PropOp39
 70
     1
102
RTVSPost2010Prop40
 90
        0
102
RTVSPost2010PropOp40
 70
     1
102
RTVSPost2010Prop41ColorIndex
 90
       18
102
RTVSPost2010Prop41ColorRGB
 90
        0
102
RTVSPost2010PropOp41
 70
     1
102
RTVSPost2010Prop42
 90
       50
102
RTVSPost2010PropOp42
 70
     1
102
RTVSPost2010Prop43
 90
        3
102
RTVSPost2010PropOp43
 70
     1
102
RTVSPost2010Prop44ColorIndex
 90
        5
102
RTVSPost2010Prop44ColorRGB
 90
      255
102
RTVSPost2010PropOp44
 70
     1
102
RTVSPost2010Prop45
280
     0
102
RTVSPost2010PropOp45
 70
     1
102
RTVSPost2010Prop46
 90
       50
102
RTVSPost2010PropOp46
 70
     1
102
RTVSPost2010Prop47
 90
       50
102
RTVSPost2010PropOp47
 70
     1
102
RTVSPost2010Prop48
 90
       50
102
RTVSPost2010PropOp48
 70
     1
102
RTVSPost2010Prop49
280
     0
102
RTVSPost2010PropOp49
 70
     1
102
RTVSPost2010Prop50
 90
       50
102
RTVSPost2010PropOp50
 70
     1
102
RTVSPost2010Prop51ColorIndex
 90
      256
102
RTVSPost2010Prop51ColorRGB
 90
-16777216
102
RTVSPost2010PropOp51
 70
     0
102
RTVSPost2010Prop52
140
1.0
102
RTVSPost2010PropOp52
 70
     0
102
RTVSPost2010Prop53
 90
        2
102
RTVSPost2010PropOp53
 70
     1
102
RTVSPost2010Prop54
  1
strokes_ogs.tif
102
RTVSPost2010PropOp54
 70
     1
102
RTVSPost2010Prop55
280
     0
102
RTVSPost2010PropOp55
 70
     1
102
RTVSPost2010Prop56
140
1.0
102
RTVSPost2010PropOp56
 70
     1
102
RTVSPost2010Prop57
140
1.0
102
RTVSPost2010PropOp57
 70
     1
  0
XRECORD
  5
1ED
102
{ACAD_REACTORS
330
1EC
102
}
330
1EC
100
AcDbXrecord
280
     1
102
RTVSPost2010Prop28
280
     0
102
RTVSPost2010PropOp28
 70
     0
102
RTVSPost2010Prop29
280
     1
102
RTVSPost2010PropOp29
 70
     0
102
RTVSPost2010Prop30
280
     1
102
RTVSPost2010PropOp30
 70
     0
102
RTVSPost2010Prop31
280
     0
102
RTVSPost2010PropOp31
 70
     0
102
RTVSPost2010Prop32
280
     0
102
RTVSPost2010PropOp32
 70
     0
102
RTVSPost2010Prop33
280
     0
102
RTVSPost2010PropOp33
 70
     0
102
RTVSPost2010Prop34
280
     0
102
RTVSPost2010PropOp34
 70
     0
102
RTVSPost2010Prop35
280
     0
102
RTVSPost2010PropOp35
 70
     0
102
RTVSPost2010Prop36
280
     0
102
RTVSPost2010PropOp36
 70
     0
102
RTVSPost2010Prop37
 90
       50
102
RTVSPost2010PropOp37
 70
     0
102
RTVSPost2010Prop38
140
0.0
102
RTVSPost2010PropOp38
 70
     0
102
RTVSPost2010Prop39
140
1.0
102
RTVSPost2010PropOp39
 70
     0
102
RTVSPost2010Prop40
 90
        0
102
RTVSPost2010PropOp40
 70
     0
102
RTVSPost2010Prop41ColorIndex
 90
       18
102
RTVSPost2010Prop41ColorRGB
 90
        0
102
RTVSPost2010PropOp41
 70
     0
102
RTVSPost2010Prop42
 90
       50
102
RTVSPost2010PropOp42
 70
     0
102
RTVSPost2010Prop43
 90
        3
102
RTVSPost2010PropOp43
 70
     0
102
RTVSPost2010Prop44ColorIndex
 90
        5
102
RTVSPost2010Prop44ColorRGB
 90
      255
102
RTVSPost2010PropOp44
 70
     0
102
RTVSPost2010Prop45
280
     0
102
RTVSPost2010PropOp45
 70
     0
102
RTVSPost2010Prop46
 90
       50
102
RTVSPost2010PropOp46
 70
     0
102
RTVSPost2010Prop47
 90
       50
102
RTVSPost2010PropOp47
 70
     0
102
RTVSPost2010Prop48
 90
       50
102
RTVSPost2010PropOp48
 70
     0
102
RTVSPost2010Prop49
280
     0
102
RTVSPost2010PropOp49
 70
     0
102
RTVSPost2010Prop50
 90
       50
102
RTVSPost2010PropOp50
 70
     0
102
RTVSPost2010Prop51ColorIndex
 90
      256
102
RTVSPost2010Prop51ColorRGB
 90
-16777216
102
RTVSPost2010PropOp51
 70
     0
102
RTVSPost2010Prop52
140
1.0
102
RTVSPost2010PropOp52
 70
     0
102
RTVSPost2010Prop53
 90
        2
102
RTVSPost2010PropOp53
 70
     0
102
RTVSPost2010Prop54
  1
strokes_ogs.tif
102
RTVSPost2010PropOp54
 70
     0
102
RTVSPost2010Prop55
280
     0
102
RTVSPost2010PropOp55
 70
     0
102
RTVSPost2010Prop56
140
1.0
102
RTVSPost2010PropOp56
 70
     0
102
RTVSPost2010Prop57
140
1.0
102
RTVSPost2010PropOp57
 70
     0
  0
XRECORD
  5
1DB
102
{ACAD_REACTORS
330
1DA
102
}
330
1DA
100
AcDbXrecord
280
     1
102
RTVSPost2010Prop28
280
     0
102
RTVSPost2010PropOp28
 70
     1
102
RTVSPost2010Prop29
280
     1
102
RTVSPost2010PropOp29
 70
     1
102
RTVSPost2010Prop30
280
     1
102
RTVSPost2010PropOp30
 70
     1
102
RTVSPost2010Prop31
280
     0
102
RTVSPost2010PropOp31
 70
     1
102
RTVSPost2010Prop32
280
     0
102
RTVSPost2010PropOp32
 70
     1
102
RTVSPost2010Prop33
280
     0
102
RTVSPost2010PropOp33
 70
     1
102
RTVSPost2010Prop34
280
     0
102
RTVSPost2010PropOp34
 70
     1
102
RTVSPost2010Prop35
280
     0
102
RTVSPost2010PropOp35
 70
     1
102
RTVSPost2010Prop36
280
     0
102
RTVSPost2010PropOp36
 70
     1
102
RTVSPost2010Prop37
 90
       50
102
RTVSPost2010PropOp37
 70
     1
102
RTVSPost2010Prop38
140
0.0
102
RTVSPost2010PropOp38
 70
     1
102
RTVSPost2010Prop39
140
1.0
102
RTVSPost2010PropOp39
 70
     1
102
RTVSPost2010Prop40
 90
        0
102
RTVSPost2010PropOp40
 70
     1
102
RTVSPost2010Prop41ColorIndex
 90
       18
102
RTVSPost2010Prop41ColorRGB
 90
        0
102
RTVSPost2010PropOp41
 70
     1
102
RTVSPost2010Prop42
 90
       50
102
RTVSPost2010PropOp42
 70
     1
102
RTVSPost2010Prop43
 90
        3
102
RTVSPost2010PropOp43
 70
     1
102
RTVSPost2010Prop44ColorIndex
 90
        5
102
RTVSPost2010Prop44ColorRGB
 90
      255
102
RTVSPost2010PropOp44
 70
     1
102
RTVSPost2010Prop45
280
     0
102
RTVSPost2010PropOp45
 70
     1
102
RTVSPost2010Prop46
 90
       50
102
RTVSPost2010PropOp46
 70
     1
102
RTVSPost2010Prop47
 90
       50
102
RTVSPost2010PropOp47
 70
     1
102
RTVSPost2010Prop48
 90
       50
102
RTVSPost2010PropOp48
 70
     1
102
RTVSPost2010Prop49
280
     0
102
RTVSPost2010PropOp49
 70
     1
102
RTVSPost2010Prop50
 90
       50
102
RTVSPost2010PropOp50
 70
     1
102
RTVSPost2010Prop51ColorIndex
 90
      256
102
RTVSPost2010Prop51ColorRGB
 90
-16777216
102
RTVSPost2010PropOp51
 70
     0
102
RTVSPost2010Prop52
140
1.0
102
RTVSPost2010PropOp52
 70
     0
102
RTVSPost2010Prop53
 90
        2
102
RTVSPost2010PropOp53
 70
     1
102
RTVSPost2010Prop54
  1
strokes_ogs.tif
102
RTVSPost2010PropOp54
 70
     1
102
RTVSPost2010Prop55
280
     0
102
RTVSPost2010PropOp55
 70
     1
102
RTVSPost2010Prop56
140
1.0
102
RTVSPost2010PropOp56
 70
     1
102
RTVSPost2010Prop57
140
1.0
102
RTVSPost2010PropOp57
 70
     1
  0
XRECORD
  5
1F9
102
{ACAD_REACTORS
330
1F8
102
}
330
1F8
100
AcDbXrecord
280
     1
102
RTVSPost2010Prop28
280
     0
102
RTVSPost2010PropOp28
 70
     1
102
RTVSPost2010Prop29
280
     1
102
RTVSPost2010PropOp29
 70
     1
102
RTVSPost2010Prop30
280
     1
102
RTVSPost2010PropOp30
 70
     1
102
RTVSPost2010Prop31
280
     0
102
RTVSPost2010PropOp31
 70
     1
102
RTVSPost2010Prop32
280
     0
102
RTVSPost2010PropOp32
 70
     1
102
RTVSPost2010Prop33
280
     0
102
RTVSPost2010PropOp33
 70
     1
102
RTVSPost2010Prop34
280
     0
102
RTVSPost2010PropOp34
 70
     1
102
RTVSPost2010Prop35
280
     0
102
RTVSPost2010PropOp35
 70
     1
102
RTVSPost2010Prop36
280
     0
102
RTVSPost2010PropOp36
 70
     1
102
RTVSPost2010Prop37
 90
       50
102
RTVSPost2010PropOp37
 70
     1
102
RTVSPost2010Prop38
140
0.0
102
RTVSPost2010PropOp38
 70
     1
102
RTVSPost2010Prop39
140
1.0
102
RTVSPost2010PropOp39
 70
     1
102
RTVSPost2010Prop40
 90
        0
102
RTVSPost2010PropOp40
 70
     1
102
RTVSPost2010Prop41ColorIndex
 90
       18
102
RTVSPost2010Prop41ColorRGB
 90
        0
102
RTVSPost2010PropOp41
 70
     1
102
RTVSPost2010Prop42
 90
       50
102
RTVSPost2010PropOp42
 70
     1
102
RTVSPost2010Prop43
 90
        3
102
RTVSPost2010PropOp43
 70
     1
102
RTVSPost2010Prop44ColorIndex
 90
        5
102
RTVSPost2010Prop44ColorRGB
 90
      255
102
RTVSPost2010PropOp44
 70
     1
102
RTVSPost2010Prop45
280
     0
102
RTVSPost2010PropOp45
 70
     1
102
RTVSPost2010Prop46
 90
       50
102
RTVSPost2010PropOp46
 70
     1
102
RTVSPost2010Prop47
 90
       50
102
RTVSPost2010PropOp47
 70
     1
102
RTVSPost2010Prop48
 90
       50
102
RTVSPost2010PropOp48
 70
     1
102
RTVSPost2010Prop49
280
     0
102
RTVSPost2010PropOp49
 70
     1
102
RTVSPost2010Prop50
 90
       50
102
RTVSPost2010PropOp50
 70
     1
102
RTVSPost2010Prop51ColorIndex
 90
      256
102
RTVSPost2010Prop51ColorRGB
 90
-16777216
102
RTVSPost2010PropOp51
 70
     0
102
RTVSPost2010Prop52
140
1.0
102
RTVSPost2010PropOp52
 70
     0
102
RTVSPost2010Prop53
 90
        2
102
RTVSPost2010PropOp53
 70
     1
102
RTVSPost2010Prop54
  1
strokes_ogs.tif
102
RTVSPost2010PropOp54
 70
     1
102
RTVSPost2010Prop55
280
     0
102
RTVSPost2010PropOp55
 70
     1
102
RTVSPost2010Prop56
140
1.0
102
RTVSPost2010PropOp56
 70
     1
102
RTVSPost2010Prop57
140
1.0
102
RTVSPost2010PropOp57
 70
     1
  0
XRECORD
  5
1F7
102
{ACAD_REACTORS
330
1F6
102
}
330
1F6
100
AcDbXrecord
280
     1
102
RTVSPost2010Prop28
280
     0
102
RTVSPost2010PropOp28
 70
     1
102
RTVSPost2010Prop29
280
     1
102
RTVSPost2010PropOp29
 70
     1
102
RTVSPost2010Prop30
280
     1
102
RTVSPost2010PropOp30
 70
     1
102
RTVSPost2010Prop31
280
     0
102
RTVSPost2010PropOp31
 70
     1
102
RTVSPost2010Prop32
280
     0
102
RTVSPost2010PropOp32
 70
     1
102
RTVSPost2010Prop33
280
     0
102
RTVSPost2010PropOp33
 70
     1
102
RTVSPost2010Prop34
280
     0
102
RTVSPost2010PropOp34
 70
     1
102
RTVSPost2010Prop35
280
     0
102
RTVSPost2010PropOp35
 70
     1
102
RTVSPost2010Prop36
280
     0
102
RTVSPost2010PropOp36
 70
     1
102
RTVSPost2010Prop37
 90
       50
102
RTVSPost2010PropOp37
 70
     1
102
RTVSPost2010Prop38
140
0.0
102
RTVSPost2010PropOp38
 70
     1
102
RTVSPost2010Prop39
140
1.0
102
RTVSPost2010PropOp39
 70
     1
102
RTVSPost2010Prop40
 90
        0
102
RTVSPost2010PropOp40
 70
     1
102
RTVSPost2010Prop41ColorIndex
 90
       18
102
RTVSPost2010Prop41ColorRGB
 90
        0
102
RTVSPost2010PropOp41
 70
     1
102
RTVSPost2010Prop42
 90
       50
102
RTVSPost2010PropOp42
 70
     1
102
RTVSPost2010Prop43
 90
        3
102
RTVSPost2010PropOp43
 70
     1
102
RTVSPost2010Prop44ColorIndex
 90
        5
102
RTVSPost2010Prop44ColorRGB
 90
      255
102
RTVSPost2010PropOp44
 70
     1
102
RTVSPost2010Prop45
280
     0
102
RTVSPost2010PropOp45
 70
     1
102
RTVSPost2010Prop46
 90
       50
102
RTVSPost2010PropOp46
 70
     1
102
RTVSPost2010Prop47
 90
       50
102
RTVSPost2010PropOp47
 70
     1
102
RTVSPost2010Prop48
 90
       50
102
RTVSPost2010PropOp48
 70
     1
102
RTVSPost2010Prop49
280
     0
102
RTVSPost2010PropOp49
 70
     1
102
RTVSPost2010Prop50
 90
       50
102
RTVSPost2010PropOp50
 70
     1
102
RTVSPost2010Prop51ColorIndex
 90
      256
102
RTVSPost2010Prop51ColorRGB
 90
-16777216
102
RTVSPost2010PropOp51
 70
     0
102
RTVSPost2010Prop52
140
1.0
102
RTVSPost2010PropOp52
 70
     0
102
RTVSPost2010Prop53
 90
        2
102
RTVSPost2010PropOp53
 70
     1
102
RTVSPost2010Prop54
  1
strokes_ogs.tif
102
RTVSPost2010PropOp54
 70
     1
102
RTVSPost2010Prop55
280
     0
102
RTVSPost2010PropOp55
 70
     1
102
RTVSPost2010Prop56
140
1.0
102
RTVSPost2010PropOp56
 70
     1
102
RTVSPost2010Prop57
140
1.0
102
RTVSPost2010PropOp57
 70
     1
  0
XRECORD
  5
1F1
102
{ACAD_REACTORS
330
1F0
102
}
330
1F0
100
AcDbXrecord
280
     1
102
RTVSPost2010Prop28
280
     0
102
RTVSPost2010PropOp28
 70
     1
102
RTVSPost2010Prop29
280
     1
102
RTVSPost2010PropOp29
 70
     1
102
RTVSPost2010Prop30
280
     1
102
RTVSPost2010PropOp30
 70
     1
102
RTVSPost2010Prop31
280
     0
102
RTVSPost2010PropOp31
 70
     1
102
RTVSPost2010Prop32
280
     0
102
RTVSPost2010PropOp32
 70
     1
102
RTVSPost2010Prop33
280
     0
102
RTVSPost2010PropOp33
 70
     1
102
RTVSPost2010Prop34
280
     0
102
RTVSPost2010PropOp34
 70
     1
102
RTVSPost2010Prop35
280
     0
102
RTVSPost2010PropOp35
 70
     1
102
RTVSPost2010Prop36
280
     0
102
RTVSPost2010PropOp36
 70
     1
102
RTVSPost2010Prop37
 90
       50
102
RTVSPost2010PropOp37
 70
     1
102
RTVSPost2010Prop38
140
0.0
102
RTVSPost2010PropOp38
 70
     1
102
RTVSPost2010Prop39
140
1.0
102
RTVSPost2010PropOp39
 70
     1
102
RTVSPost2010Prop40
 90
        0
102
RTVSPost2010PropOp40
 70
     1
102
RTVSPost2010Prop41ColorIndex
 90
       18
102
RTVSPost2010Prop41ColorRGB
 90
        0
102
RTVSPost2010PropOp41
 70
     1
102
RTVSPost2010Prop42
 90
       50
102
RTVSPost2010PropOp42
 70
     1
102
RTVSPost2010Prop43
 90
        3
102
RTVSPost2010PropOp43
 70
     1
102
RTVSPost2010Prop44ColorIndex
 90
        5
102
RTVSPost2010Prop44ColorRGB
 90
      255
102
RTVSPost2010PropOp44
 70
     1
102
RTVSPost2010Prop45
280
     0
102
RTVSPost2010PropOp45
 70
     1
102
RTVSPost2010Prop46
 90
       50
102
RTVSPost2010PropOp46
 70
     1
102
RTVSPost2010Prop47
 90
       50
102
RTVSPost2010PropOp47
 70
     1
102
RTVSPost2010Prop48
 90
       50
102
RTVSPost2010PropOp48
 70
     1
102
RTVSPost2010Prop49
280
     0
102
RTVSPost2010PropOp49
 70
     1
102
RTVSPost2010Prop50
 90
       50
102
RTVSPost2010PropOp50
 70
     1
102
RTVSPost2010Prop51ColorIndex
 90
      256
102
RTVSPost2010Prop51ColorRGB
 90
-16777216
102
RTVSPost2010PropOp51
 70
     0
102
RTVSPost2010Prop52
140
1.0
102
RTVSPost2010PropOp52
 70
     0
102
RTVSPost2010Prop53
 90
        2
102
RTVSPost2010PropOp53
 70
     1
102
RTVSPost2010Prop54
  1
strokes_ogs.tif
102
RTVSPost2010PropOp54
 70
     1
102
RTVSPost2010Prop55
280
     0
102
RTVSPost2010PropOp55
 70
     1
102
RTVSPost2010Prop56
140
1.0
102
RTVSPost2010PropOp56
 70
     1
102
RTVSPost2010Prop57
140
1.0
102
RTVSPost2010PropOp57
 70
     1
  0
XRECORD
  5
1F3
102
{ACAD_REACTORS
330
1F2
102
}
330
1F2
100
AcDbXrecord
280
     1
102
RTVSPost2010Prop28
280
     0
102
RTVSPost2010PropOp28
 70
     1
102
RTVSPost2010Prop29
280
     1
102
RTVSPost2010PropOp29
 70
     1
102
RTVSPost2010Prop30
280
     1
102
RTVSPost2010PropOp30
 70
     1
102
RTVSPost2010Prop31
280
     0
102
RTVSPost2010PropOp31
 70
     1
102
RTVSPost2010Prop32
280
     0
102
RTVSPost2010PropOp32
 70
     1
102
RTVSPost2010Prop33
280
     0
102
RTVSPost2010PropOp33
 70
     1
102
RTVSPost2010Prop34
280
     0
102
RTVSPost2010PropOp34
 70
     1
102
RTVSPost2010Prop35
280
     0
102
RTVSPost2010PropOp35
 70
     1
102
RTVSPost2010Prop36
280
     0
102
RTVSPost2010PropOp36
 70
     1
102
RTVSPost2010Prop37
 90
       50
102
RTVSPost2010PropOp37
 70
     1
102
RTVSPost2010Prop38
140
0.0
102
RTVSPost2010PropOp38
 70
     1
102
RTVSPost2010Prop39
140
1.0
102
RTVSPost2010PropOp39
 70
     1
102
RTVSPost2010Prop40
 90
        0
102
RTVSPost2010PropOp40
 70
     1
102
RTVSPost2010Prop41ColorIndex
 90
       18
102
RTVSPost2010Prop41ColorRGB
 90
        0
102
RTVSPost2010PropOp41
 70
     1
102
RTVSPost2010Prop42
 90
       50
102
RTVSPost2010PropOp42
 70
     1
102
RTVSPost2010Prop43
 90
        3
102
RTVSPost2010PropOp43
 70
     1
102
RTVSPost2010Prop44ColorIndex
 90
        5
102
RTVSPost2010Prop44ColorRGB
 90
      255
102
RTVSPost2010PropOp44
 70
     1
102
RTVSPost2010Prop45
280
     0
102
RTVSPost2010PropOp45
 70
     1
102
RTVSPost2010Prop46
 90
       50
102
RTVSPost2010PropOp46
 70
     1
102
RTVSPost2010Prop47
 90
       50
102
RTVSPost2010PropOp47
 70
     1
102
RTVSPost2010Prop48
 90
       50
102
RTVSPost2010PropOp48
 70
     1
102
RTVSPost2010Prop49
280
     0
102
RTVSPost2010PropOp49
 70
     1
102
RTVSPost2010Prop50
 90
       50
102
RTVSPost2010PropOp50
 70
     1
102
RTVSPost2010Prop51ColorIndex
 90
      256
102
RTVSPost2010Prop51ColorRGB
 90
-16777216
102
RTVSPost2010PropOp51
 70
     0
102
RTVSPost2010Prop52
140
1.0
102
RTVSPost2010PropOp52
 70
     0
102
RTVSPost2010Prop53
 90
        2
102
RTVSPost2010PropOp53
 70
     1
102
RTVSPost2010Prop54
  1
strokes_ogs.tif
102
RTVSPost2010PropOp54
 70
     1
102
RTVSPost2010Prop55
280
     0
102
RTVSPost2010PropOp55
 70
     1
102
RTVSPost2010Prop56
140
1.0
102
RTVSPost2010PropOp56
 70
     1
102
RTVSPost2010Prop57
140
1.0
102
RTVSPost2010PropOp57
 70
     1
  0
XRECORD
  5
1E3
102
{ACAD_REACTORS
330
1E2
102
}
330
1E2
100
AcDbXrecord
280
     1
102
RTVSPost2010Prop28
280
     0
102
RTVSPost2010PropOp28
 70
     1
102
RTVSPost2010Prop29
280
     1
102
RTVSPost2010PropOp29
 70
     1
102
RTVSPost2010Prop30
280
     1
102
RTVSPost2010PropOp30
 70
     1
102
RTVSPost2010Prop31
280
     0
102
RTVSPost2010PropOp31
 70
     1
102
RTVSPost2010Prop32
280
     0
102
RTVSPost2010PropOp32
 70
     1
102
RTVSPost2010Prop33
280
     0
102
RTVSPost2010PropOp33
 70
     1
102
RTVSPost2010Prop34
280
     0
102
RTVSPost2010PropOp34
 70
     1
102
RTVSPost2010Prop35
280
     0
102
RTVSPost2010PropOp35
 70
     1
102
RTVSPost2010Prop36
280
     0
102
RTVSPost2010PropOp36
 70
     1
102
RTVSPost2010Prop37
 90
       50
102
RTVSPost2010PropOp37
 70
     1
102
RTVSPost2010Prop38
140
0.0
102
RTVSPost2010PropOp38
 70
     1
102
RTVSPost2010Prop39
140
1.0
102
RTVSPost2010PropOp39
 70
     1
102
RTVSPost2010Prop40
 90
        0
102
RTVSPost2010PropOp40
 70
     1
102
RTVSPost2010Prop41ColorIndex
 90
       18
102
RTVSPost2010Prop41ColorRGB
 90
        0
102
RTVSPost2010PropOp41
 70
     1
102
RTVSPost2010Prop42
 90
       50
102
RTVSPost2010PropOp42
 70
     1
102
RTVSPost2010Prop43
 90
        3
102
RTVSPost2010PropOp43
 70
     1
102
RTVSPost2010Prop44ColorIndex
 90
        5
102
RTVSPost2010Prop44ColorRGB
 90
      255
102
RTVSPost2010PropOp44
 70
     1
102
RTVSPost2010Prop45
280
     0
102
RTVSPost2010PropOp45
 70
     1
102
RTVSPost2010Prop46
 90
       50
102
RTVSPost2010PropOp46
 70
     1
102
RTVSPost2010Prop47
 90
       50
102
RTVSPost2010PropOp47
 70
     1
102
RTVSPost2010Prop48
 90
       50
102
RTVSPost2010PropOp48
 70
     1
102
RTVSPost2010Prop49
280
     0
102
RTVSPost2010PropOp49
 70
     1
102
RTVSPost2010Prop50
 90
       50
102
RTVSPost2010PropOp50
 70
     1
102
RTVSPost2010Prop51ColorIndex
 90
      256
102
RTVSPost2010Prop51ColorRGB
 90
-16777216
102
RTVSPost2010PropOp51
 70
     0
102
RTVSPost2010Prop52
140
1.0
102
RTVSPost2010PropOp52
 70
     0
102
RTVSPost2010Prop53
 90
        2
102
RTVSPost2010PropOp53
 70
     1
102
RTVSPost2010Prop54
  1
strokes_ogs.tif
102
RTVSPost2010PropOp54
 70
     1
102
RTVSPost2010Prop55
280
     0
102
RTVSPost2010PropOp55
 70
     1
102
RTVSPost2010Prop56
140
1.0
102
RTVSPost2010PropOp56
 70
     1
102
RTVSPost2010Prop57
140
1.0
102
RTVSPost2010PropOp57
 70
     1
  0
XRECORD
  5
1D5
102
{ACAD_REACTORS
330
1D4
102
}
330
1D4
100
AcDbXrecord
280
     1
102
RTVSPost2010Prop28
280
     0
102
RTVSPost2010PropOp28
 70
     1
102
RTVSPost2010Prop29
280
     1
102
RTVSPost2010PropOp29
 70
     1
102
RTVSPost2010Prop30
280
     1
102
RTVSPost2010PropOp30
 70
     1
102
RTVSPost2010Prop31
280
     0
102
RTVSPost2010PropOp31
 70
     1
102
RTVSPost2010Prop32
280
     0
102
RTVSPost2010PropOp32
 70
     1
102
RTVSPost2010Prop33
280
     0
102
RTVSPost2010PropOp33
 70
     1
102
RTVSPost2010Prop34
280
     0
102
RTVSPost2010PropOp34
 70
     1
102
RTVSPost2010Prop35
280
     0
102
RTVSPost2010PropOp35
 70
     1
102
RTVSPost2010Prop36
280
     0
102
RTVSPost2010PropOp36
 70
     1
102
RTVSPost2010Prop37
 90
       50
102
RTVSPost2010PropOp37
 70
     1
102
RTVSPost2010Prop38
140
0.0
102
RTVSPost2010PropOp38
 70
     1
102
RTVSPost2010Prop39
140
1.0
102
RTVSPost2010PropOp39
 70
     1
102
RTVSPost2010Prop40
 90
        0
102
RTVSPost2010PropOp40
 70
     1
102
RTVSPost2010Prop41ColorIndex
 90
       18
102
RTVSPost2010Prop41ColorRGB
 90
        0
102
RTVSPost2010PropOp41
 70
     1
102
RTVSPost2010Prop42
 90
       50
102
RTVSPost2010PropOp42
 70
     1
102
RTVSPost2010Prop43
 90
        3
102
RTVSPost2010PropOp43
 70
     1
102
RTVSPost2010Prop44ColorIndex
 90
        5
102
RTVSPost2010Prop44ColorRGB
 90
      255
102
RTVSPost2010PropOp44
 70
     1
102
RTVSPost2010Prop45
280
     0
102
RTVSPost2010PropOp45
 70
     1
102
RTVSPost2010Prop46
 90
       50
102
RTVSPost2010PropOp46
 70
     1
102
RTVSPost2010Prop47
 90
       50
102
RTVSPost2010PropOp47
 70
     1
102
RTVSPost2010Prop48
 90
       50
102
RTVSPost2010PropOp48
 70
     1
102
RTVSPost2010Prop49
280
     0
102
RTVSPost2010PropOp49
 70
     1
102
RTVSPost2010Prop50
 90
       50
102
RTVSPost2010PropOp50
 70
     1
102
RTVSPost2010Prop51ColorIndex
 90
      256
102
RTVSPost2010Prop51ColorRGB
 90
-16777216
102
RTVSPost2010PropOp51
 70
     0
102
RTVSPost2010Prop52
140
1.0
102
RTVSPost2010PropOp52
 70
     0
102
RTVSPost2010Prop53
 90
        2
102
RTVSPost2010PropOp53
 70
     1
102
RTVSPost2010Prop54
  1
strokes_ogs.tif
102
RTVSPost2010PropOp54
 70
     1
102
RTVSPost2010Prop55
280
     0
102
RTVSPost2010PropOp55
 70
     1
102
RTVSPost2010Prop56
140
1.0
102
RTVSPost2010PropOp56
 70
     1
102
RTVSPost2010Prop57
140
1.0
102
RTVSPost2010PropOp57
 70
     1
  0
XRECORD
  5
1F5
102
{ACAD_REACTORS
330
1F4
102
}
330
1F4
100
AcDbXrecord
280
     1
102
RTVSPost2010Prop28
280
     0
102
RTVSPost2010PropOp28
 70
     1
102
RTVSPost2010Prop29
280
     1
102
RTVSPost2010PropOp29
 70
     1
102
RTVSPost2010Prop30
280
     1
102
RTVSPost2010PropOp30
 70
     1
102
RTVSPost2010Prop31
280
     0
102
RTVSPost2010PropOp31
 70
     1
102
RTVSPost2010Prop32
280
     0
102
RTVSPost2010PropOp32
 70
     1
102
RTVSPost2010Prop33
280
     0
102
RTVSPost2010PropOp33
 70
     1
102
RTVSPost2010Prop34
280
     0
102
RTVSPost2010PropOp34
 70
     1
102
RTVSPost2010Prop35
280
     0
102
RTVSPost2010PropOp35
 70
     1
102
RTVSPost2010Prop36
280
     0
102
RTVSPost2010PropOp36
 70
     1
102
RTVSPost2010Prop37
 90
       50
102
RTVSPost2010PropOp37
 70
     1
102
RTVSPost2010Prop38
140
0.0
102
RTVSPost2010PropOp38
 70
     1
102
RTVSPost2010Prop39
140
1.0
102
RTVSPost2010PropOp39
 70
     1
102
RTVSPost2010Prop40
 90
        0
102
RTVSPost2010PropOp40
 70
     1
102
RTVSPost2010Prop41ColorIndex
 90
       18
102
RTVSPost2010Prop41ColorRGB
 90
        0
102
RTVSPost2010PropOp41
 70
     1
102
RTVSPost2010Prop42
 90
       50
102
RTVSPost2010PropOp42
 70
     1
102
RTVSPost2010Prop43
 90
        3
102
RTVSPost2010PropOp43
 70
     1
102
RTVSPost2010Prop44ColorIndex
 90
        5
102
RTVSPost2010Prop44ColorRGB
 90
      255
102
RTVSPost2010PropOp44
 70
     1
102
RTVSPost2010Prop45
280
     0
102
RTVSPost2010PropOp45
 70
     1
102
RTVSPost2010Prop46
 90
       50
102
RTVSPost2010PropOp46
 70
     1
102
RTVSPost2010Prop47
 90
       50
102
RTVSPost2010PropOp47
 70
     1
102
RTVSPost2010Prop48
 90
       50
102
RTVSPost2010PropOp48
 70
     1
102
RTVSPost2010Prop49
280
     0
102
RTVSPost2010PropOp49
 70
     1
102
RTVSPost2010Prop50
 90
       50
102
RTVSPost2010PropOp50
 70
     1
102
RTVSPost2010Prop51ColorIndex
 90
      256
102
RTVSPost2010Prop51ColorRGB
 90
-16777216
102
RTVSPost2010PropOp51
 70
     0
102
RTVSPost2010Prop52
140
1.0
102
RTVSPost2010PropOp52
 70
     0
102
RTVSPost2010Prop53
 90
        2
102
RTVSPost2010PropOp53
 70
     1
102
RTVSPost2010Prop54
  1
strokes_ogs.tif
102
RTVSPost2010PropOp54
 70
     1
102
RTVSPost2010Prop55
280
     0
102
RTVSPost2010PropOp55
 70
     1
102
RTVSPost2010Prop56
140
1.0
102
RTVSPost2010PropOp56
 70
     1
102
RTVSPost2010Prop57
140
1.0
102
RTVSPost2010PropOp57
 70
     1
  0
ENDSEC
  0
EOF
